  0
SECTION
  2
HEADER
  9
$ACADVER
  1
AC1014
  9
$DWGCODEPAGE
  3
ANSI_932
  9
$LTSCALE
 40
20.0
  9
$FILLMODE
 70
     1
  9
$CLAYER
  8
0
  9
$PDMODE
 70
     0
  9
$SPLFRAME
 70
     0
  9
$SPLINETYPE
 70
     6
  9
$SPLINESEGS
 70
     8
  9
$DIMASZ
 40
2.000000
  9
$DIMEXE
 40
1.500000
  9
$DIMEXO
 40
0.800000
  9
$DIMTAD
 70
     1
  9
$DIMTIH
 70
     0
  9
$DIMTOH
 70
     0
  9
$DIMTVP
 40
0.500000
  9
$DIMTXT
 40
3.100000
  9
$EXTMIN
 10
0.000000
 20
0.000000
 30
0.000000
  9
$EXTMAX
 10
297.000000
 20
420.000000
 30
0.000000
  9
$MEASUREMENT
 70
  1
  9
$LIMMIN
 10
0.000000
 20
0.000000
  9
$LIMMAX
 10
297.000000
 20
420.000000
  9
$HANDLING
 70
     1
  9
$HANDSEED
  5
24C
  9
$DIMBLK
  1
_OPEN
  9
$DIMDEC
 70
     2
  9
$DIMAUNIT
 70
     0
  9
$DIMZIN
 70
     8
  9
$DIMTOFL
 70
     1
  0
ENDSEC
  0
SECTION
  2
CLASSES
  0
ENDSEC
  0
SECTION
  2
TABLES
  0
TABLE
  2
VPORT
  5
219
100
AcDbSymbolTable
 70
     1
  0
VPORT
  5
21A
100
AcDbSymbolTableRecord
100
AcDbViewportTableRecord
  2
*ACTIVE
 70
     0
 12
799.642445
 22
106.356916
 40
176.713831
 41
8.936963
  0
ENDTAB
  0
TABLE
  2
LTYPE
  5
21B
100
AcDbSymbolTable
 70
     3
  0
LTYPE
  5
21C
100
AcDbSymbolTableRecord
100
AcDbLinetypeTableRecord
  2
BYBLOCK
 70
     0
  3

 72
    65
 73
     0
 40
0.0
  0
LTYPE
  5
21D
100
AcDbSymbolTableRecord
100
AcDbLinetypeTableRecord
  2
BYLAYER
 70
     0
  3

 72
    65
 73
     0
 40
0.0
  0
LTYPE
  5
21E
100
AcDbSymbolTableRecord
100
AcDbLinetypeTableRecord
  2
CONTINUOUS
 70
     0
  3
Solid line (NEC CAE2D for Win R18.0 : 2025.02.03)
 72
    65
 73
     0
 40
0.0
  0
LTYPE
  5
21F
100
AcDbSymbolTableRecord
100
AcDbLinetypeTableRecord
  2
DASHED
 70
     0
  3
__ __ __ __ __ __ __ __ __ __ __ __ __ _
 72
    65
 73
     2
 40
0.75
 49
0.5
 74
     0
 49
-0.25
 74
     0
  0
LTYPE
  5
220
100
AcDbSymbolTableRecord
100
AcDbLinetypeTableRecord
  2
CENTER
 70
     0
  3
____ _ ____ _ ____ _ ____ _ ____ _ ____
 72
    65
 73
     4
 40
2.0
 49
1.25
 74
     0
 49
-0.25
 74
     0
 49
0.25
 74
     0
 49
-0.25
 74
     0
  0
ENDTAB
  0
TABLE
  2
LAYER
  5
221
100
AcDbSymbolTable
 70
    19
  0
LAYER
  5
222
100
AcDbSymbolTableRecord
100
AcDbLayerTableRecord
  2
0
 70
     0
 62
     7
  6
CONTINUOUS
  0
LAYER
  5
223
100
AcDbSymbolTableRecord
100
AcDbLayerTableRecord
  2
DXF0
 70
     0
 62
     7
  6
CONTINUOUS
  0
LAYER
  5
224
100
AcDbSymbolTableRecord
100
AcDbLayerTableRecord
  2
A0
 70
     0
 62
     9
  6
CONTINUOUS
  0
LAYER
  5
225
100
AcDbSymbolTableRecord
100
AcDbLayerTableRecord
  2
A1
 70
     0
 62
    12
  6
CONTINUOUS
  0
LAYER
  5
226
100
AcDbSymbolTableRecord
100
AcDbLayerTableRecord
  2
A2
 70
     0
 62
     9
  6
CONTINUOUS
  0
LAYER
  5
227
100
AcDbSymbolTableRecord
100
AcDbLayerTableRecord
  2
A3
 70
     0
 62
    12
  6
CONTINUOUS
  0
LAYER
  5
228
100
AcDbSymbolTableRecord
100
AcDbLayerTableRecord
  2
A4
 70
     0
 62
     9
  6
CONTINUOUS
  0
LAYER
  5
229
100
AcDbSymbolTableRecord
100
AcDbLayerTableRecord
  2
A5
 70
     0
 62
     8
  6
CONTINUOUS
  0
LAYER
  5
22A
100
AcDbSymbolTableRecord
100
AcDbLayerTableRecord
  2
A6
 70
     0
 62
    12
  6
CONTINUOUS
  0
LAYER
  5
22B
100
AcDbSymbolTableRecord
100
AcDbLayerTableRecord
  2
A7
 70
     0
 62
    12
  6
CONTINUOUS
  0
LAYER
  5
22C
100
AcDbSymbolTableRecord
100
AcDbLayerTableRecord
  2
A8
 70
     0
 62
    10
  6
CONTINUOUS
  0
LAYER
  5
22D
100
AcDbSymbolTableRecord
100
AcDbLayerTableRecord
  2
A9
 70
     0
 62
     9
  6
CONTINUOUS
  0
LAYER
  5
22E
100
AcDbSymbolTableRecord
100
AcDbLayerTableRecord
  2
A10
 70
     0
 62
     6
  6
CONTINUOUS
  0
LAYER
  5
22F
100
AcDbSymbolTableRecord
100
AcDbLayerTableRecord
  2
A20
 70
     0
 62
     1
  6
CONTINUOUS
  0
LAYER
  5
230
100
AcDbSymbolTableRecord
100
AcDbLayerTableRecord
  2
A30
 70
     0
 62
     1
  6
CONTINUOUS
  0
LAYER
  5
231
100
AcDbSymbolTableRecord
100
AcDbLayerTableRecord
  2
A40
 70
     0
 62
     9
  6
CONTINUOUS
  0
LAYER
  5
232
100
AcDbSymbolTableRecord
100
AcDbLayerTableRecord
  2
A50
 70
     0
 62
    12
  6
CONTINUOUS
  0
LAYER
  5
233
100
AcDbSymbolTableRecord
100
AcDbLayerTableRecord
  2
A1023
 70
     0
 62
     8
  6
CONTINUOUS
  0
LAYER
  5
234
100
AcDbSymbolTableRecord
100
AcDbLayerTableRecord
  2
DXF1023
 70
     0
 62
    16
  6
CONTINUOUS
  0
ENDTAB
  0
TABLE
  2
STYLE
  5
235
100
AcDbSymbolTable
 70
     4
  0
STYLE
  5
236
100
AcDbSymbolTableRecord
100
AcDbTextStyleTableRecord
  2
STANDARD
 70
    64
 40
0.0
 41
1.0
 50
0.0
 71
     0
 42
3.000000000000000
  3
TXT
  4

  0
STYLE
  5
237
100
AcDbSymbolTableRecord
100
AcDbTextStyleTableRecord
  2
ANKTATE
 70
    68
 40
0.0
 41
1.0
 50
0.0
 71
     0
 42
3.000000000000000
  3
TXT
  4

  0
STYLE
  5
238
100
AcDbSymbolTableRecord
100
AcDbTextStyleTableRecord
  2
KNJYOKO
 70
    64
 40
0.0
 41
1.0
 50
0.0
 71
     0
 42
3.000000000000000
  3
TXT
  4
BIGFONT
  0
STYLE
  5
239
100
AcDbSymbolTableRecord
100
AcDbTextStyleTableRecord
  2
KNJTATE
 70
    68
 40
0.0
 41
1.0
 50
0.0
 71
     0
 42
3.000000000000000
  3
TXT
  4
BIGFONT
  0
ENDTAB
  0
TABLE
  2
VIEW
  5
23A
100
AcDbSymbolTable
 70
     0
  0
ENDTAB
  0
TABLE
  2
UCS
  5
23B
100
AcDbSymbolTable
 70
     0
  0
ENDTAB
  0
TABLE
  2
APPID
  5
23C
100
AcDbSymbolTable
 70
     1
  0
APPID
  5
23D
100
AcDbSymbolTableRecord
100
AcDbRegAppTableRecord
  2
ACAD
 70
     0
  0
ENDTAB
  0
TABLE
  2
DIMSTYLE
  5
23E
100
AcDbSymbolTable
 70
     2
  0
DIMSTYLE
105
23F
100
AcDbSymbolTableRecord
100
AcDbDimStyleTableRecord
  2
STANDARD
 70
     0
 41
2.000000
 44
1.500000
 42
0.800000
145
0.661290
140
3.100000
144
1.000000
146
0.645161
340
236
  0
DIMSTYLE
105
240
100
AcDbSymbolTableRecord
100
AcDbDimStyleTableRecord
  2
DXF001
 70
     0
 41
2.000000
 44
1.500000
 42
0.800000
145
0.661290
140
3.100000
144
1.000000
146
0.645161
 77
     1
 73
     0
 74
     0
271
     2
275
     0
 78
     8
172
     1
340
236
  0
ENDTAB
  0
TABLE
  2
BLOCK_RECORD
  5
241
100
AcDbSymbolTable
 70
    12
  0
BLOCK_RECORD
  5
242
100
AcDbSymbolTableRecord
100
AcDbBlockTableRecord
  2
*MODEL_SPACE
  0
BLOCK_RECORD
  5
243
100
AcDbSymbolTableRecord
100
AcDbBlockTableRecord
  2
*PAPER_SPACE
  0
BLOCK_RECORD
  5
1
100
AcDbSymbolTableRecord
100
AcDbBlockTableRecord
  2
_NONE
  0
BLOCK_RECORD
  5
4
100
AcDbSymbolTableRecord
100
AcDbBlockTableRecord
  2
_CLOSED
  0
BLOCK_RECORD
  5
B
100
AcDbSymbolTableRecord
100
AcDbBlockTableRecord
  2
_DOT
  0
BLOCK_RECORD
  5
13
100
AcDbSymbolTableRecord
100
AcDbBlockTableRecord
  2
_OPEN
  0
BLOCK_RECORD
  5
19
100
AcDbSymbolTableRecord
100
AcDbBlockTableRecord
  2
_ORIGIN
  0
BLOCK_RECORD
  5
1E
100
AcDbSymbolTableRecord
100
AcDbBlockTableRecord
  2
_OPEN30
  0
BLOCK_RECORD
  5
24
100
AcDbSymbolTableRecord
100
AcDbBlockTableRecord
  2
_BOXFILLED
  0
BLOCK_RECORD
  5
29
100
AcDbSymbolTableRecord
100
AcDbBlockTableRecord
  2
_BOXBLANK
  0
BLOCK_RECORD
  5
31
100
AcDbSymbolTableRecord
100
AcDbBlockTableRecord
  2
_OBLIQUE
  0
BLOCK_RECORD
  5
35
100
AcDbSymbolTableRecord
100
AcDbBlockTableRecord
  2
_OPEN90
  0
BLOCK_RECORD
  5
3B
100
AcDbSymbolTableRecord
100
AcDbBlockTableRecord
  2
_CLOSEDBLANK
  0
BLOCK_RECORD
  5
41
100
AcDbSymbolTableRecord
100
AcDbBlockTableRecord
  2
_DOTBLANK
  0
ENDTAB
  0
ENDSEC
  0
SECTION
  2
BLOCKS
  0
BLOCK
  5
244
100
AcDbEntity
  8
0
100
AcDbBlockBegin
  2
*MODEL_SPACE
 70
     0
 10
0.0
 20
0.0
 30
0.0
  3
*MODEL_SPACE
  1

  0
ENDBLK
  5
245
100
AcDbEntity
  8
0
100
AcDbBlockEnd
  0
BLOCK
  5
246
100
AcDbEntity
  8
0
100
AcDbBlockBegin
  2
*PAPER_SPACE
 70
     0
 10
0.0
 20
0.0
 30
0.0
  3
*PAPER_SPACE
  1

  0
ENDBLK
  5
247
100
AcDbEntity
  8
0
100
AcDbBlockEnd
  0
BLOCK
  5
2
100
AcDbEntity
  8
0
100
AcDbBlockBegin
  2
_NONE
 70
     0
 10
0.0
 20
0.0
 30
0.0
  3
_NONE
  1

  0
ENDBLK
  5
3
100
AcDbEntity
  8
0
100
AcDbBlockEnd
  0
BLOCK
  5
5
100
AcDbEntity
  8
0
100
AcDbBlockBegin
  2
_CLOSED
 70
     0
 10
0.0
 20
0.0
 30
0.0
  3
_CLOSED
  1

  0
LINE
  5
6
100
AcDbEntity
  8
0
  6
BYBLOCK
 62
     0
100
AcDbLine
 10
-1.0
 20
0.166667
 30
0.0
 11
0.0
 21
0.0
 31
0.0
  0
LINE
  5
7
100
AcDbEntity
  8
0
  6
BYBLOCK
 62
     0
100
AcDbLine
 10
0.0
 20
0.0
 30
0.0
 11
-1.0
 21
-0.166667
 31
0.0
  0
LINE
  5
8
100
AcDbEntity
  8
0
  6
BYBLOCK
 62
     0
100
AcDbLine
 10
-1.0
 20
0.166667
 30
0.0
 11
-1.0
 21
-0.166667
 31
0.0
  0
LINE
  5
9
100
AcDbEntity
  8
0
  6
BYBLOCK
 62
     0
100
AcDbLine
 10
0.0
 20
0.0
 30
0.0
 11
-1.0
 21
0.0
 31
0.0
  0
ENDBLK
  5
A
100
AcDbEntity
  8
0
100
AcDbBlockEnd
  0
BLOCK
  5
C
100
AcDbEntity
  8
0
100
AcDbBlockBegin
  2
_DOT
 70
     0
 10
0.0
 20
0.0
 30
0.0
  3
_DOT
  1

  0
POLYLINE
  5
D
100
AcDbEntity
  8
0
  6
BYBLOCK
 62
     0
100
AcDb2dPolyline
 66
     1
 10
0.0
 20
0.0
 30
0.0
 70
     1
 40
0.5
 41
0.5
  0
VERTEX
  5
E
100
AcDbEntity
  8
0
  6
BYBLOCK
 62
     0
100
AcDbVertex
100
AcDb2dVertex
 10
-0.25
 20
0.0
 30
0.0
 42
1.0
  0
VERTEX
  5
F
100
AcDbEntity
  8
0
  6
BYBLOCK
 62
     0
100
AcDbVertex
100
AcDb2dVertex
 10
0.25
 20
0.0
 30
0.0
 42
1.0
  0
SEQEND
  5
10
100
AcDbEntity
  8
0
  6
BYBLOCK
 62
     0
  0
LINE
  5
11
100
AcDbEntity
  8
0
  6
BYBLOCK
 62
     0
100
AcDbLine
 10
-0.5
 20
0.0
 30
0.0
 11
-1.0
 21
0.0
 31
0.0
  0
ENDBLK
  5
12
100
AcDbEntity
  8
0
100
AcDbBlockEnd
  0
BLOCK
  5
14
100
AcDbEntity
  8
0
100
AcDbBlockBegin
  2
_OPEN
 70
     0
 10
0.0
 20
0.0
 30
0.0
  3
_OPEN
  1

  0
LINE
  5
15
100
AcDbEntity
  8
0
  6
BYBLOCK
 62
     0
100
AcDbLine
 10
-1.0
 20
0.166667
 30
0.0
 11
0.0
 21
0.0
 31
0.0
  0
LINE
  5
16
100
AcDbEntity
  8
0
  6
BYBLOCK
 62
     0
100
AcDbLine
 10
0.0
 20
0.0
 30
0.0
 11
-1.0
 21
-0.166667
 31
0.0
  0
LINE
  5
17
100
AcDbEntity
  8
0
  6
BYBLOCK
 62
     0
100
AcDbLine
 10
0.0
 20
0.0
 30
0.0
 11
-1.0
 21
0.0
 31
0.0
  0
ENDBLK
  5
18
100
AcDbEntity
  8
0
100
AcDbBlockEnd
  0
BLOCK
  5
1A
100
AcDbEntity
  8
0
100
AcDbBlockBegin
  2
_ORIGIN
 70
     0
 10
0.0
 20
0.0
 30
0.0
  3
_ORIGIN
  1

  0
CIRCLE
  5
1B
100
AcDbEntity
  8
0
  6
BYBLOCK
 62
     0
100
AcDbCircle
 10
0.0
 20
0.0
 30
0.0
 40
0.5
  0
LINE
  5
1C
100
AcDbEntity
  8
0
  6
BYBLOCK
 62
     0
100
AcDbLine
 10
0.0
 20
0.0
 30
0.0
 11
-1.0
 21
0.0
 31
0.0
  0
ENDBLK
  5
1D
100
AcDbEntity
  8
0
100
AcDbBlockEnd
  0
BLOCK
  5
1F
100
AcDbEntity
  8
0
100
AcDbBlockBegin
  2
_OPEN30
 70
     0
 10
0.0
 20
0.0
 30
0.0
  3
_OPEN30
  1

  0
LINE
  5
20
100
AcDbEntity
  8
0
  6
BYBLOCK
 62
     0
100
AcDbLine
 10
-1.0
 20
0.267949
 30
0.0
 11
0.0
 21
0.0
 31
0.0
  0
LINE
  5
21
100
AcDbEntity
  8
0
  6
BYBLOCK
 62
     0
100
AcDbLine
 10
0.0
 20
0.0
 30
0.0
 11
-1.0
 21
-0.267949
 31
0.0
  0
LINE
  5
22
100
AcDbEntity
  8
0
  6
BYBLOCK
 62
     0
100
AcDbLine
 10
0.0
 20
0.0
 30
0.0
 11
-1.0
 21
0.0
 31
0.0
  0
ENDBLK
  5
23
100
AcDbEntity
  8
0
100
AcDbBlockEnd
  0
BLOCK
  5
25
100
AcDbEntity
  8
0
100
AcDbBlockBegin
  2
_BOXFILLED
 70
     0
 10
0.0
 20
0.0
 30
0.0
  3
_BOXFILLED
  1

  0
SOLID
  5
26
100
AcDbEntity
  8
0
  6
BYBLOCK
 62
     0
100
AcDbTrace
 10
-0.5
 20
0.5
 30
0.0
 11
0.5
 21
0.5
 31
0.0
 12
-0.5
 22
-0.5
 32
0.0
 13
0.5
 23
-0.5
 33
0.0
  0
LINE
  5
27
100
AcDbEntity
  8
0
  6
BYBLOCK
 62
     0
100
AcDbLine
 10
-0.5
 20
0.0
 30
0.0
 11
-1.0
 21
0.0
 31
0.0
  0
ENDBLK
  5
28
100
AcDbEntity
  8
0
100
AcDbBlockEnd
  0
BLOCK
  5
2A
100
AcDbEntity
  8
0
100
AcDbBlockBegin
  2
_BOXBLANK
 70
     0
 10
0.0
 20
0.0
 30
0.0
  3
_BOXBLANK
  1

  0
LINE
  5
2B
100
AcDbEntity
  8
0
  6
BYBLOCK
 62
     0
100
AcDbLine
 10
-0.5
 20
-0.5
 30
0.0
 11
0.5
 21
-0.5
 31
0.0
  0
LINE
  5
2C
100
AcDbEntity
  8
0
  6
BYBLOCK
 62
     0
100
AcDbLine
 10
0.5
 20
-0.5
 30
0.0
 11
0.5
 21
0.5
 31
0.0
  0
LINE
  5
2D
100
AcDbEntity
  8
0
  6
BYBLOCK
 62
     0
100
AcDbLine
 10
0.5
 20
0.5
 30
0.0
 11
-0.5
 21
0.5
 31
0.0
  0
LINE
  5
2E
100
AcDbEntity
  8
0
  6
BYBLOCK
 62
     0
100
AcDbLine
 10
-0.5
 20
0.5
 30
0.0
 11
-0.5
 21
-0.5
 31
0.0
  0
LINE
  5
2F
100
AcDbEntity
  8
0
  6
BYBLOCK
 62
     0
100
AcDbLine
 10
-0.5
 20
0.0
 30
0.0
 11
-1.0
 21
0.0
 31
0.0
  0
ENDBLK
  5
30
100
AcDbEntity
  8
0
100
AcDbBlockEnd
  0
BLOCK
  5
32
100
AcDbEntity
  8
0
100
AcDbBlockBegin
  2
_OBLIQUE
 70
     0
 10
0.0
 20
0.0
 30
0.0
  3
_OBLIQUE
  1

  0
LINE
  5
33
100
AcDbEntity
  8
0
  6
BYBLOCK
 62
     0
100
AcDbLine
 10
-0.5
 20
-0.5
 30
0.0
 11
0.5
 21
0.5
 31
0.0
  0
ENDBLK
  5
34
100
AcDbEntity
  8
0
100
AcDbBlockEnd
  0
BLOCK
  5
36
100
AcDbEntity
  8
0
100
AcDbBlockBegin
  2
_OPEN90
 70
     0
 10
0.0
 20
0.0
 30
0.0
  3
_OPEN90
  1

  0
LINE
  5
37
100
AcDbEntity
  8
0
  6
BYBLOCK
 62
     0
100
AcDbLine
 10
-0.5
 20
0.5
 30
0.0
 11
0.0
 21
0.0
 31
0.0
  0
LINE
  5
38
100
AcDbEntity
  8
0
  6
BYBLOCK
 62
     0
100
AcDbLine
 10
0.0
 20
0.0
 30
0.0
 11
-0.5
 21
-0.5
 31
0.0
  0
LINE
  5
39
100
AcDbEntity
  8
0
  6
BYBLOCK
 62
     0
100
AcDbLine
 10
0.0
 20
0.0
 30
0.0
 11
-1.0
 21
0.0
 31
0.0
  0
ENDBLK
  5
3A
100
AcDbEntity
  8
0
100
AcDbBlockEnd
  0
BLOCK
  5
3C
100
AcDbEntity
  8
0
100
AcDbBlockBegin
  2
_CLOSEDBLANK
 70
     0
 10
0.0
 20
0.0
 30
0.0
  3
_CLOSEDBLANK
  1

  0
LINE
  5
3D
100
AcDbEntity
  8
0
  6
BYBLOCK
 62
     0
100
AcDbLine
 10
-1.0
 20
0.1666666666666666
 30
0.0
 11
0.0
 21
0.0
 31
0.0
  0
LINE
  5
3E
100
AcDbEntity
  8
0
  6
BYBLOCK
 62
     0
100
AcDbLine
 10
0.0
 20
0.0
 30
0.0
 11
-1.0
 21
-0.1666666666666666
 31
0.0
  0
LINE
  5
3F
100
AcDbEntity
  8
0
  6
BYBLOCK
 62
     0
100
AcDbLine
 10
-1.0
 20
0.1666666666666666
 30
0.0
 11
-1.0
 21
-0.1666666666666666
 31
0.0
  0
ENDBLK
  5
40
100
AcDbEntity
  8
0
100
AcDbBlockEnd
  0
BLOCK
  5
42
100
AcDbEntity
  8
0
100
AcDbBlockBegin
  2
_DOTBLANK
 70
     0
 10
0.0
 20
0.0
 30
0.0
  3
_DOTBLANK
  1

  0
CIRCLE
  5
43
100
AcDbEntity
  8
0
  6
BYBLOCK
 62
     0
100
AcDbCircle
 10
0.0
 20
0.0
 30
0.0
 40
0.5
  0
LINE
  5
44
100
AcDbEntity
  8
0
  6
BYBLOCK
 62
     0
100
AcDbLine
 10
-0.5
 20
0.0
 30
0.0
 11
-1.0
 21
0.0
 31
0.0
  0
ENDBLK
  5
45
100
AcDbEntity
  8
0
100
AcDbBlockEnd
  0
ENDSEC
  0
SECTION
  2
ENTITIES
  0
MTEXT
  5
46
100
AcDbEntity
  8
A7
  6
CONTINUOUS
 62
3
100
AcDbMText
 10
9.999997526638502
 20
18.00000076076889
 30
0.000000000000000
 40
3.000000000000000
 41
0.000000000000000
 71
     7
 72
     1
  1
{\H0.94x;{TYPE No.TM-377-30}}
 11
1.000000000000000
 21
0.000000000000000
 31
0.000000000000000
  7
STANDARD
  0
POINT
  5
47
100
AcDbEntity
  8
A10
  6
CONTINUOUS
 62
3
100
AcDbPoint
 10
9.999997526638502
 20
18.00000076076889
 30
0.000000000000000
  0
LINE
  5
48
100
AcDbEntity
  8
A4
  6
CENTER
 62
1
100
AcDbLine
 10
42.18489247542125
 20
75.70261997861884
 30
0.000000000000000
 11
19.38489247542122
 21
75.70261997861884
 31
0.000000000000000
  0
ARC
  5
49
100
AcDbEntity
  8
A1
  6
CONTINUOUS
 62
7
100
AcDbCircle
 10
30.28489247542127
 20
47.26761997861753
 30
0.000000000000000
 40
6.464999999999999
100
AcDbArc
 50
225.0000000000139
 51
325.0646696619304
  0
LINE
  5
4A
100
AcDbEntity
  8
A1
  6
CONTINUOUS
 62
7
100
AcDbLine
 10
27.68489247542092
 20
58.32860844160793
 30
0.000000000000000
 11
27.68489247542115
 21
53.62680692559756
 31
0.000000000000000
  0
ARC
  5
4B
100
AcDbEntity
  8
A1
  6
CONTINUOUS
 62
7
100
AcDbCircle
 10
35.68489247542125
 20
54.92761997861875
 30
0.000000000000000
 40
5.674999999999999
100
AcDbArc
 50
65.44387469328805
 51
140.8349970654087
  0
LINE
  5
4C
100
AcDbEntity
  8
A1
  6
CONTINUOUS
 62
7
100
AcDbLine
 10
23.38489247542124
 20
48.56026320381501
 30
0.000000000000000
 11
23.38489247542124
 21
102.8449767534224
 31
0.000000000000000
  0
LINE
  5
4D
100
AcDbEntity
  8
A1
  6
CONTINUOUS
 62
7
100
AcDbLine
 10
20.88489247542124
 20
48.22889235391484
 30
0.000000000000000
 11
20.88489247542124
 21
103.1763476033226
 31
0.000000000000000
  0
LINE
  5
4E
100
AcDbEntity
  8
A1
  6
CONTINUOUS
 62
7
100
AcDbLine
 10
40.68489247542125
 20
58.67317306054876
 30
0.000000000000000
 11
40.68489247542125
 21
92.73206689668872
 31
0.000000000000000
  0
LINE
  5
4F
100
AcDbEntity
  8
A1
  6
CONTINUOUS
 62
7
100
AcDbLine
 10
23.38489247542119
 20
48.56026320381513
 30
0.000000000000000
 11
27.48121408801654
 21
44.46394159121810
 31
0.000000000000000
  0
LINE
  5
50
100
AcDbEntity
  8
A1
  6
CONTINUOUS
 62
7
100
AcDbLine
 10
21.38281094740368
 20
47.02681082589812
 30
0.000000000000000
 11
25.71344713505024
 21
42.69617463824854
 31
0.000000000000000
  0
LINE
  5
51
100
AcDbEntity
  8
A1
  6
CONTINUOUS
 62
7
100
AcDbLine
 10
29.48489247542138
 20
64.82394032217884
 30
0.000000000000000
 11
29.48489247542138
 21
86.58129963505884
 31
0.000000000000000
  0
LINE
  5
52
100
AcDbEntity
  8
A1
  6
CONTINUOUS
 62
7
100
AcDbLine
 10
31.98489247542115
 20
64.82394032217884
 30
0.000000000000000
 11
31.98489247542115
 21
86.58129963505884
 31
0.000000000000000
  0
ARC
  5
53
100
AcDbEntity
  8
A1
  6
CONTINUOUS
 62
7
100
AcDbCircle
 10
30.29269800740515
 20
47.26761997861753
 30
0.000000000000000
 40
6.464999999999999
100
AcDbArc
 50
64.34116408558700
 51
109.9462850724337
  0
ARC
  5
54
100
AcDbEntity
  8
A1
  6
CONTINUOUS
 62
7
100
AcDbCircle
 10
27.48489247542115
 20
52.36819611813839
 30
0.000000000000000
 40
2.299999999999999
100
AcDbArc
 50
180.0000000000000
 51
269.8314188142185
  0
ARC
  5
55
100
AcDbEntity
  8
A1
  6
CONTINUOUS
 62
7
100
AcDbCircle
 10
27.98489247542075
 20
53.62680692559765
 30
0.000000000000000
 40
0.3000000000000000
100
AcDbArc
 50
180.0000000000000
 51
289.9462850724159
  0
LINE
  5
56
100
AcDbEntity
  8
A1
  6
CONTINUOUS
 62
7
100
AcDbLine
 10
32.90411084322096
 20
56.65261997861855
 30
0.000000000000000
 11
31.28489247542137
 21
57.58747613914564
 31
0.000000000000000
  0
LINE
  5
57
100
AcDbEntity
  8
A1
  6
CONTINUOUS
 62
7
100
AcDbLine
 10
25.18489247542120
 20
58.32860844160798
 30
0.000000000000000
 11
25.18489247542126
 21
52.36819611813858
 31
0.000000000000000
  0
ARC
  5
58
100
AcDbEntity
  8
A1
  6
CONTINUOUS
 62
7
100
AcDbCircle
 10
28.98489247542206
 20
58.32860844160784
 30
0.000000000000000
 40
1.299999999999999
100
AcDbArc
 50
134.9999999999982
 51
180.0000000000000
  0
LINE
  5
59
100
AcDbEntity
  8
A1
  6
CONTINUOUS
 62
7
100
AcDbLine
 10
28.06565365987942
 20
59.24784725714854
 30
0.000000000000000
 11
30.81331960016877
 21
61.99551319743770
 31
0.000000000000000
  0
LINE
  5
5A
100
AcDbEntity
  8
A1
  6
CONTINUOUS
 62
7
100
AcDbLine
 10
26.29788670691280
 20
61.01561421011790
 30
0.000000000000000
 11
29.04555264720280
 21
63.76328015039792
 31
0.000000000000000
  0
ARC
  5
5B
100
AcDbEntity
  8
A1
  6
CONTINUOUS
 62
7
100
AcDbCircle
 10
27.98489247542177
 20
64.82394032217884
 30
0.000000000000000
 40
1.499999999999999
100
AcDbArc
 50
315.0000000000169
 51
360.0000000000000
  0
ARC
  5
5C
100
AcDbEntity
  8
A1
  6
CONTINUOUS
 62
7
100
AcDbCircle
 10
27.98489247542177
 20
64.82394032217884
 30
0.000000000000000
 40
3.999999999999999
100
AcDbArc
 50
314.9999999999931
 51
360.0000000000000
  0
ARC
  5
5D
100
AcDbEntity
  8
A1
  6
CONTINUOUS
 62
7
100
AcDbCircle
 10
28.98489247542109
 20
58.32860844160784
 30
0.000000000000000
 40
3.800000000000001
100
AcDbArc
 50
135.0000000000043
 51
180.0000000000000
  0
ARC
  5
5E
100
AcDbEntity
  8
A1
  6
CONTINUOUS
 62
7
100
AcDbCircle
 10
22.58489247542128
 20
48.22889235391484
 30
0.000000000000000
 40
1.700000000000000
100
AcDbArc
 50
180.0000000000000
 51
224.9999999999810
  0
LINE
  5
5F
100
AcDbEntity
  8
A1
  6
CONTINUOUS
 62
7
100
AcDbLine
 10
35.58489247542117
 20
44.03421227235198
 30
0.000000000000000
 11
35.58489247542117
 21
43.56542806030747
 31
0.000000000000000
  0
LINE
  5
60
100
AcDbEntity
  8
A1
  6
CONTINUOUS
 62
7
100
AcDbLine
 10
33.66971152523837
 20
45.20261997861871
 30
0.000000000000000
 11
35.58489247542118
 21
44.03421227235185
 31
0.000000000000000
  0
ARC
  5
61
100
AcDbEntity
  8
A1
  6
CONTINUOUS
 62
7
100
AcDbCircle
 10
35.68489247542125
 20
54.92761997861875
 30
0.000000000000000
 40
5.674999999999999
100
AcDbArc
 50
246.0925117444462
 51
320.5510832248698
  0
LINE
  5
62
100
AcDbEntity
  8
A1
  6
CONTINUOUS
 62
7
100
AcDbLine
 10
40.06707858635659
 20
51.32178167260354
 30
0.000000000000000
 11
38.14194888402762
 21
52.91677468249901
 31
0.000000000000000
  0
LINE
  5
63
100
AcDbEntity
  8
A1
  6
CONTINUOUS
 62
7
100
AcDbLine
 10
31.28489247542139
 20
58.51169935832029
 30
0.000000000000000
 11
31.28489247542139
 21
57.58747613914569
 31
0.000000000000000
  0
LINE
  5
64
100
AcDbEntity
  8
A1
  6
CONTINUOUS
 62
7
100
AcDbLine
 10
33.01937188836895
 20
56.65261997861866
 30
0.000000000000000
 11
32.90411084322098
 21
56.65261997861866
 31
0.000000000000000
  0
ARC
  5
65
100
AcDbEntity
  8
A1
  6
CONTINUOUS
 62
7
100
AcDbCircle
 10
38.91433939349135
 20
58.67317306054876
 30
0.000000000000000
 40
1.770553081929961
100
AcDbArc
 50
229.2318156757769
 51
360.0000000000018
  0
ARC
  5
66
100
AcDbEntity
  8
A1
  6
CONTINUOUS
 62
7
100
AcDbCircle
 10
38.08489247542128
 20
60.18029786708679
 30
0.000000000000000
 40
0.1000000000000000
100
AcDbArc
 50
245.4438746932937
 51
360.0000000000000
  0
ARC
  5
67
100
AcDbEntity
  8
A1
  6
CONTINUOUS
 62
7
100
AcDbCircle
 10
30.28489247542127
 20
104.1376199786202
 30
0.000000000000000
 40
6.464999999999999
100
AcDbArc
 50
34.93533033806960
 51
134.9999999999861
  0
LINE
  5
68
100
AcDbEntity
  8
A1
  6
CONTINUOUS
 62
7
100
AcDbLine
 10
27.68489247542093
 20
93.07663151562996
 30
0.000000000000000
 11
27.68489247542115
 21
97.77843303163989
 31
0.000000000000000
  0
ARC
  5
69
100
AcDbEntity
  8
A1
  6
CONTINUOUS
 62
7
100
AcDbCircle
 10
35.68489247542125
 20
96.47761997861870
 30
0.000000000000000
 40
5.674999999999999
100
AcDbArc
 50
219.1650029345913
 51
294.5561253067119
  0
LINE
  5
6A
100
AcDbEntity
  8
A1
  6
CONTINUOUS
 62
7
100
AcDbLine
 10
23.38489247542110
 20
102.8449767534223
 30
0.000000000000000
 11
27.48121408801651
 21
106.9412983660192
 31
0.000000000000000
  0
LINE
  5
6B
100
AcDbEntity
  8
A1
  6
CONTINUOUS
 62
7
100
AcDbLine
 10
21.38281094740394
 20
104.3784291313392
 30
0.000000000000000
 11
25.71344713505055
 21
108.7090653189886
 31
0.000000000000000
  0
ARC
  5
6C
100
AcDbEntity
  8
A1
  6
CONTINUOUS
 62
7
100
AcDbCircle
 10
30.29269800740515
 20
104.1376199786202
 30
0.000000000000000
 40
6.464999999999999
100
AcDbArc
 50
250.0537149275663
 51
295.6588359144130
  0
ARC
  5
6D
100
AcDbEntity
  8
A1
  6
CONTINUOUS
 62
7
100
AcDbCircle
 10
27.48489247542115
 20
99.03704383909930
 30
0.000000000000000
 40
2.299999999999999
100
AcDbArc
 50
90.16858118578155
 51
180.0000000000000
  0
ARC
  5
6E
100
AcDbEntity
  8
A1
  6
CONTINUOUS
 62
7
100
AcDbCircle
 10
27.98489247542075
 20
97.77843303164003
 30
0.000000000000000
 40
0.3000000000000000
100
AcDbArc
 50
70.05371492758402
 51
180.0000000000000
  0
LINE
  5
6F
100
AcDbEntity
  8
A1
  6
CONTINUOUS
 62
7
100
AcDbLine
 10
32.90411084322084
 20
94.75261997861890
 30
0.000000000000000
 11
31.28489247542134
 21
93.81776381809216
 31
0.000000000000000
  0
LINE
  5
70
100
AcDbEntity
  8
A1
  6
CONTINUOUS
 62
7
100
AcDbLine
 10
25.18489247542123
 20
93.07663151562997
 30
0.000000000000000
 11
25.18489247542129
 21
99.03704383909917
 31
0.000000000000000
  0
ARC
  5
71
100
AcDbEntity
  8
A1
  6
CONTINUOUS
 62
7
100
AcDbCircle
 10
28.98489247542206
 20
93.07663151562987
 30
0.000000000000000
 40
1.299999999999999
100
AcDbArc
 50
180.0000000000000
 51
225.0000000000018
  0
LINE
  5
72
100
AcDbEntity
  8
A1
  6
CONTINUOUS
 62
7
100
AcDbLine
 10
28.06565365987932
 20
92.15739270008925
 30
0.000000000000000
 11
30.81331960016869
 21
89.40972675980001
 31
0.000000000000000
  0
LINE
  5
73
100
AcDbEntity
  8
A1
  6
CONTINUOUS
 62
7
100
AcDbLine
 10
26.29788670691264
 20
90.38962574711977
 30
0.000000000000000
 11
29.04555264720264
 21
87.64195980683968
 31
0.000000000000000
  0
ARC
  5
74
100
AcDbEntity
  8
A1
  6
CONTINUOUS
 62
7
100
AcDbCircle
 10
27.98489247542177
 20
86.58129963505884
 30
0.000000000000000
 40
1.499999999999999
100
AcDbArc
 50
0.000000000000000
 51
44.99999999998312
  0
ARC
  5
75
100
AcDbEntity
  8
A1
  6
CONTINUOUS
 62
7
100
AcDbCircle
 10
27.98489247542177
 20
86.58129963505884
 30
0.000000000000000
 40
3.999999999999999
100
AcDbArc
 50
0.000000000000000
 51
45.00000000000691
  0
ARC
  5
76
100
AcDbEntity
  8
A1
  6
CONTINUOUS
 62
7
100
AcDbCircle
 10
28.98489247542109
 20
93.07663151562987
 30
0.000000000000000
 40
3.800000000000001
100
AcDbArc
 50
180.0000000000000
 51
224.9999999999957
  0
ARC
  5
77
100
AcDbEntity
  8
A1
  6
CONTINUOUS
 62
7
100
AcDbCircle
 10
22.58489247542128
 20
103.1763476033226
 30
0.000000000000000
 40
1.700000000000000
100
AcDbArc
 50
135.0000000000190
 51
180.0000000000000
  0
LINE
  5
78
100
AcDbEntity
  8
A1
  6
CONTINUOUS
 62
7
100
AcDbLine
 10
35.58489247542117
 20
107.3710276848857
 30
0.000000000000000
 11
35.58489247542117
 21
107.8398118969304
 31
0.000000000000000
  0
LINE
  5
79
100
AcDbEntity
  8
A1
  6
CONTINUOUS
 62
7
100
AcDbLine
 10
33.66971152523845
 20
106.2026199786185
 30
0.000000000000000
 11
35.58489247542121
 21
107.3710276848858
 31
0.000000000000000
  0
ARC
  5
7A
100
AcDbEntity
  8
A1
  6
CONTINUOUS
 62
7
100
AcDbCircle
 10
35.68489247542125
 20
96.47761997861870
 30
0.000000000000000
 40
5.674999999999999
100
AcDbArc
 50
39.44891677513021
 51
113.9074882555569
  0
LINE
  5
7B
100
AcDbEntity
  8
A1
  6
CONTINUOUS
 62
7
100
AcDbLine
 10
40.06707858635666
 20
100.0834582846338
 30
0.000000000000000
 11
38.14194888402771
 21
98.48846527473870
 31
0.000000000000000
  0
LINE
  5
7C
100
AcDbEntity
  8
A1
  6
CONTINUOUS
 62
7
100
AcDbLine
 10
31.28489247542139
 20
92.89354059891743
 30
0.000000000000000
 11
31.28489247542139
 21
93.81776381809199
 31
0.000000000000000
  0
LINE
  5
7D
100
AcDbEntity
  8
A1
  6
CONTINUOUS
 62
7
100
AcDbLine
 10
33.01937188836895
 20
94.75261997861880
 30
0.000000000000000
 11
32.90411084322098
 21
94.75261997861880
 31
0.000000000000000
  0
ARC
  5
7E
100
AcDbEntity
  8
A1
  6
CONTINUOUS
 62
7
100
AcDbCircle
 10
38.91433939349135
 20
92.73206689668872
 30
0.000000000000000
 40
1.770553081929961
100
AcDbArc
 50
359.9999999999982
 51
490.7681843242231
  0
ARC
  5
7F
100
AcDbEntity
  8
A1
  6
CONTINUOUS
 62
7
100
AcDbCircle
 10
38.08489247542128
 20
91.22494209015089
 30
0.000000000000000
 40
0.1000000000000000
100
AcDbArc
 50
0.000000000000000
 51
114.5561253067063
  0
LINE
  5
80
100
AcDbEntity
  8
A1
  6
CONTINUOUS
 62
7
100
AcDbLine
 10
40.18489247542125
 20
55.92761997861875
 30
0.000000000000000
 11
30.98489247542103
 21
55.92761997861875
 31
0.000000000000000
  0
LINE
  5
81
100
AcDbEntity
  8
A1
  6
CONTINUOUS
 62
7
100
AcDbLine
 10
40.18489247542125
 20
54.92761997861875
 30
0.000000000000000
 11
40.18489247542125
 21
55.92761997861875
 31
0.000000000000000
  0
LINE
  5
82
100
AcDbEntity
  8
A1
  6
CONTINUOUS
 62
7
100
AcDbLine
 10
40.18489247542125
 20
54.92761997861875
 30
0.000000000000000
 11
30.98489247542103
 21
54.92761997861875
 31
0.000000000000000
  0
LINE
  5
83
100
AcDbEntity
  8
A1
  6
CONTINUOUS
 62
7
100
AcDbLine
 10
28.98489247542095
 20
58.20434437289606
 30
0.000000000000000
 11
28.98489247542102
 21
56.92761997861865
 31
0.000000000000000
  0
LINE
  5
84
100
AcDbEntity
  8
A1
  6
CONTINUOUS
 62
7
100
AcDbLine
 10
29.98489247542095
 20
58.20434437289600
 30
0.000000000000000
 11
29.98489247542102
 21
56.92761997861865
 31
0.000000000000000
  0
ARC
  5
85
100
AcDbEntity
  8
A1
  6
CONTINUOUS
 62
7
100
AcDbCircle
 10
30.98489247542103
 20
56.92761997861875
 30
0.000000000000000
 40
1.000000000000000
100
AcDbArc
 50
180.0000000000000
 51
270.0000000000000
  0
ARC
  5
86
100
AcDbEntity
  8
A1
  6
CONTINUOUS
 62
7
100
AcDbCircle
 10
30.98489247542103
 20
56.92761997861875
 30
0.000000000000000
 40
2.000000000000000
100
AcDbArc
 50
180.0000000000000
 51
270.0000000000000
  0
LINE
  5
87
100
AcDbEntity
  8
A1
  6
CONTINUOUS
 62
7
100
AcDbLine
 10
30.07276044106507
 20
58.41647640725211
 30
0.000000000000000
 11
35.85890401243505
 21
64.20261997861550
 31
0.000000000000000
  0
LINE
  5
88
100
AcDbEntity
  8
A1
  6
CONTINUOUS
 62
7
100
AcDbLine
 10
29.36565365987894
 20
59.12358318843902
 30
0.000000000000000
 11
34.45764297581103
 21
64.21557250436537
 31
0.000000000000000
  0
ARC
  5
89
100
AcDbEntity
  8
A1
  6
CONTINUOUS
 62
7
100
AcDbCircle
 10
30.28489247542093
 20
58.20434437289605
 30
0.000000000000000
 40
0.3000000000000000
100
AcDbArc
 50
134.9999999999654
 51
180.0000000000000
  0
ARC
  5
8A
100
AcDbEntity
  8
A1
  6
CONTINUOUS
 62
7
100
AcDbCircle
 10
30.28489247542093
 20
58.20434437289616
 30
0.000000000000000
 40
1.300000000000000
100
AcDbArc
 50
134.9999999999672
 51
180.0000000000000
  0
LINE
  5
8B
100
AcDbEntity
  8
A1
  6
CONTINUOUS
 62
7
100
AcDbLine
 10
30.07276044106512
 20
92.98876354998535
 30
0.000000000000000
 11
35.85890401243810
 21
87.20261997861898
 31
0.000000000000000
  0
LINE
  5
8C
100
AcDbEntity
  8
A1
  6
CONTINUOUS
 62
7
100
AcDbLine
 10
29.36565365987881
 20
92.28165676879838
 30
0.000000000000000
 11
34.45764297581299
 21
87.18966745287000
 31
0.000000000000000
  0
LINE
  5
8D
100
AcDbEntity
  8
A1
  6
CONTINUOUS
 62
7
100
AcDbLine
 10
40.18489247542125
 20
95.47761997861882
 30
0.000000000000000
 11
30.98489247542103
 21
95.47761997861882
 31
0.000000000000000
  0
LINE
  5
8E
100
AcDbEntity
  8
A1
  6
CONTINUOUS
 62
7
100
AcDbLine
 10
40.18489247542125
 20
96.47761997861882
 30
0.000000000000000
 11
40.18489247542125
 21
95.47761997861882
 31
0.000000000000000
  0
LINE
  5
8F
100
AcDbEntity
  8
A1
  6
CONTINUOUS
 62
7
100
AcDbLine
 10
40.18489247542125
 20
96.47761997861882
 30
0.000000000000000
 11
30.98489247542103
 21
96.47761997861882
 31
0.000000000000000
  0
ARC
  5
90
100
AcDbEntity
  8
A1
  6
CONTINUOUS
 62
7
100
AcDbCircle
 10
30.98489247542103
 20
94.47761997861882
 30
0.000000000000000
 40
2.000000000000000
100
AcDbArc
 50
90.00000000000000
 51
180.0000000000000
  0
ARC
  5
91
100
AcDbEntity
  8
A1
  6
CONTINUOUS
 62
7
100
AcDbCircle
 10
30.98489247542103
 20
94.47761997861882
 30
0.000000000000000
 40
1.000000000000000
100
AcDbArc
 50
90.00000000000000
 51
180.0000000000000
  0
LINE
  5
92
100
AcDbEntity
  8
A1
  6
CONTINUOUS
 62
7
100
AcDbLine
 10
29.98489247542096
 20
93.20089558434154
 30
0.000000000000000
 11
29.98489247542103
 21
94.47761997861880
 31
0.000000000000000
  0
ARC
  5
93
100
AcDbEntity
  8
A1
  6
CONTINUOUS
 62
7
100
AcDbCircle
 10
30.28489247542093
 20
93.20089558434144
 30
0.000000000000000
 40
0.3000000000000000
100
AcDbArc
 50
180.0000000000000
 51
225.0000000000346
  0
LINE
  5
94
100
AcDbEntity
  8
A1
  6
CONTINUOUS
 62
7
100
AcDbLine
 10
28.98489247542096
 20
93.20089558434147
 30
0.000000000000000
 11
28.98489247542103
 21
94.47761997861885
 31
0.000000000000000
  0
ARC
  5
95
100
AcDbEntity
  8
A1
  6
CONTINUOUS
 62
7
100
AcDbCircle
 10
30.28489247542093
 20
93.20089558434132
 30
0.000000000000000
 40
1.300000000000000
100
AcDbArc
 50
180.0000000000000
 51
225.0000000000328
  0
LINE
  5
96
100
AcDbEntity
  8
A1
  6
CONTINUOUS
 62
7
100
AcDbLine
 10
23.88489247542124
 20
49.98416839904617
 30
0.000000000000000
 11
23.88489247542124
 21
60.70261997863010
 31
0.000000000000000
  0
LINE
  5
97
100
AcDbEntity
  8
A1
  6
CONTINUOUS
 62
7
100
AcDbLine
 10
24.88489247542124
 20
49.98416839904617
 30
0.000000000000000
 11
24.88489247542124
 21
60.70261997863010
 31
0.000000000000000
  0
LINE
  5
98
100
AcDbEntity
  8
A1
  6
CONTINUOUS
 62
7
100
AcDbLine
 10
25.66845286148313
 20
49.00787239192623
 30
0.000000000000000
 11
35.88489247542059
 21
46.74294225830242
 31
0.000000000000000
  0
LINE
  5
99
100
AcDbEntity
  8
A1
  6
CONTINUOUS
 62
7
100
AcDbLine
 10
25.45201324754511
 20
48.03157638480646
 30
0.000000000000000
 11
35.66845286148251
 21
45.76664625118265
 31
0.000000000000000
  0
ARC
  5
9A
100
AcDbEntity
  8
A1
  6
CONTINUOUS
 62
7
100
AcDbCircle
 10
25.88489247542124
 20
49.98416839904617
 30
0.000000000000000
 40
1.000000000000000
100
AcDbArc
 50
180.0000000000000
 51
257.4999999999999
  0
ARC
  5
9B
100
AcDbEntity
  8
A1
  6
CONTINUOUS
 62
7
100
AcDbCircle
 10
25.88489247542124
 20
49.98416839904617
 30
0.000000000000000
 40
2.000000000000000
100
AcDbArc
 50
180.0000000000000
 51
257.5000000000001
  0
LINE
  5
9C
100
AcDbEntity
  8
A1
  6
CONTINUOUS
 62
7
100
AcDbLine
 10
35.66845286148244
 20
45.76664625118254
 30
0.000000000000000
 11
35.88489247542054
 21
46.74294225830247
 31
0.000000000000000
  0
LINE
  5
9D
100
AcDbEntity
  8
A1
  6
CONTINUOUS
 62
7
100
AcDbLine
 10
24.88489247540994
 20
60.70261997861881
 30
0.000000000000000
 11
26.29910603779381
 21
62.11683354100268
 31
0.000000000000000
  0
LINE
  5
9E
100
AcDbEntity
  8
A1
  6
CONTINUOUS
 62
7
100
AcDbLine
 10
24.17778569422335
 20
61.40972675980539
 30
0.000000000000000
 11
25.59199925660722
 21
62.82394032218926
 31
0.000000000000000
  0
ARC
  5
9F
100
AcDbEntity
  8
A1
  6
CONTINUOUS
 62
7
100
AcDbCircle
 10
24.88489247542124
 20
60.70261997863010
 30
0.000000000000000
 40
1.000000000000000
100
AcDbArc
 50
134.9999999999994
 51
180.0000000000000
  0
LINE
  5
A0
100
AcDbEntity
  8
A1
  6
CONTINUOUS
 62
7
100
AcDbLine
 10
27.59702450977728
 20
69.61475201297476
 30
0.000000000000000
 11
25.47067891303714
 21
67.48840641623538
 31
0.000000000000000
  0
LINE
  5
A1
100
AcDbEntity
  8
A1
  6
CONTINUOUS
 62
7
100
AcDbLine
 10
28.30413129096374
 20
68.90764523178817
 30
0.000000000000000
 11
26.17778569422352
 21
66.78129963504868
 31
0.000000000000000
  0
ARC
  5
A2
100
AcDbEntity
  8
A1
  6
CONTINUOUS
 62
7
100
AcDbCircle
 10
27.38489247542135
 20
69.82688404733075
 30
0.000000000000000
 40
0.3000000000000000
100
AcDbArc
 50
314.9999999999885
 51
360.0000000000000
  0
ARC
  5
A3
100
AcDbEntity
  8
A1
  6
CONTINUOUS
 62
7
100
AcDbCircle
 10
27.38489247542135
 20
69.82688404733075
 30
0.000000000000000
 40
1.300000000000000
100
AcDbArc
 50
314.9999999999903
 51
360.0000000000000
  0
ARC
  5
A4
100
AcDbEntity
  8
A1
  6
CONTINUOUS
 62
7
100
AcDbCircle
 10
26.88489247540993
 20
66.07419285386199
 30
0.000000000000000
 40
2.000000000000000
100
AcDbArc
 50
134.9999999999902
 51
209.8279761925665
  0
ARC
  5
A5
100
AcDbEntity
  8
A1
  6
CONTINUOUS
 62
7
100
AcDbCircle
 10
26.88489247540993
 20
66.07419285386199
 30
0.000000000000000
 40
1.000000000000000
100
AcDbArc
 50
134.9999999999902
 51
209.8279761925667
  0
ARC
  5
A6
100
AcDbEntity
  8
A1
  6
CONTINUOUS
 62
7
100
AcDbCircle
 10
24.88489247542067
 20
63.53104710337574
 30
0.000000000000000
 40
2.000000000000000
100
AcDbArc
 50
315.0000000000000
 51
389.8279761925668
  0
ARC
  5
A7
100
AcDbEntity
  8
A1
  6
CONTINUOUS
 62
7
100
AcDbCircle
 10
24.88489247542067
 20
63.53104710337574
 30
0.000000000000000
 40
1.000000000000000
100
AcDbArc
 50
315.0000000000006
 51
389.8279761925668
  0
LINE
  5
A8
100
AcDbEntity
  8
A1
  6
CONTINUOUS
 62
7
100
AcDbLine
 10
25.14984709712435
 20
65.07939763107015
 30
0.000000000000000
 11
25.75241516456352
 21
64.02844471477179
 31
0.000000000000000
  0
LINE
  5
A9
100
AcDbEntity
  8
A1
  6
CONTINUOUS
 62
7
100
AcDbLine
 10
26.61993785370628
 20
64.52584232616773
 30
0.000000000000000
 11
26.01736978626711
 21
65.57679524246608
 31
0.000000000000000
  0
LINE
  5
AA
100
AcDbEntity
  8
A1
  6
CONTINUOUS
 62
7
100
AcDbLine
 10
23.88489247542124
 20
101.4210715581913
 30
0.000000000000000
 11
23.88489247542124
 21
90.70261997860736
 31
0.000000000000000
  0
LINE
  5
AB
100
AcDbEntity
  8
A1
  6
CONTINUOUS
 62
7
100
AcDbLine
 10
24.88489247542124
 20
101.4210715581913
 30
0.000000000000000
 11
24.88489247542124
 21
90.70261997860736
 31
0.000000000000000
  0
LINE
  5
AC
100
AcDbEntity
  8
A1
  6
CONTINUOUS
 62
7
100
AcDbLine
 10
25.66845286148309
 20
102.3973675653114
 30
0.000000000000000
 11
35.88489247542056
 21
104.6622976989352
 31
0.000000000000000
  0
LINE
  5
AD
100
AcDbEntity
  8
A1
  6
CONTINUOUS
 62
7
100
AcDbLine
 10
25.45201324754504
 20
103.3736635724312
 30
0.000000000000000
 11
35.66845286148245
 21
105.6385937060550
 31
0.000000000000000
  0
ARC
  5
AE
100
AcDbEntity
  8
A1
  6
CONTINUOUS
 62
7
100
AcDbCircle
 10
25.88489247542124
 20
101.4210715581913
 30
0.000000000000000
 40
1.000000000000000
100
AcDbArc
 50
102.5000000000001
 51
180.0000000000000
  0
ARC
  5
AF
100
AcDbEntity
  8
A1
  6
CONTINUOUS
 62
7
100
AcDbCircle
 10
25.88489247542124
 20
101.4210715581913
 30
0.000000000000000
 40
2.000000000000000
100
AcDbArc
 50
102.4999999999999
 51
180.0000000000000
  0
LINE
  5
B0
100
AcDbEntity
  8
A1
  6
CONTINUOUS
 62
7
100
AcDbLine
 10
35.66845286148234
 20
105.6385937060551
 30
0.000000000000000
 11
35.88489247542046
 21
104.6622976989352
 31
0.000000000000000
  0
LINE
  5
B1
100
AcDbEntity
  8
A1
  6
CONTINUOUS
 62
7
100
AcDbLine
 10
24.88489247540986
 20
90.70261997861870
 30
0.000000000000000
 11
26.29910603779373
 21
89.28840641623482
 31
0.000000000000000
  0
LINE
  5
B2
100
AcDbEntity
  8
A1
  6
CONTINUOUS
 62
7
100
AcDbLine
 10
24.17778569422331
 20
89.99551319743213
 30
0.000000000000000
 11
25.59199925660714
 21
88.58129963504831
 31
0.000000000000000
  0
ARC
  5
B3
100
AcDbEntity
  8
A1
  6
CONTINUOUS
 62
7
100
AcDbCircle
 10
24.88489247542124
 20
90.70261997860736
 30
0.000000000000000
 40
1.000000000000000
100
AcDbArc
 50
180.0000000000000
 51
225.0000000000006
  0
LINE
  5
B4
100
AcDbEntity
  8
A1
  6
CONTINUOUS
 62
7
100
AcDbLine
 10
27.59702450977722
 20
81.79048794426282
 30
0.000000000000000
 11
25.47067891303710
 21
83.91683354100219
 31
0.000000000000000
  0
LINE
  5
B5
100
AcDbEntity
  8
A1
  6
CONTINUOUS
 62
7
100
AcDbLine
 10
28.30413129096363
 20
82.49759472544936
 30
0.000000000000000
 11
26.17778569422342
 21
84.62394032218883
 31
0.000000000000000
  0
ARC
  5
B6
100
AcDbEntity
  8
A1
  6
CONTINUOUS
 62
7
100
AcDbCircle
 10
27.38489247542135
 20
81.57835590990670
 30
0.000000000000000
 40
0.3000000000000000
100
AcDbArc
 50
0.000000000000000
 51
45.00000000001150
  0
ARC
  5
B7
100
AcDbEntity
  8
A1
  6
CONTINUOUS
 62
7
100
AcDbCircle
 10
27.38489247542135
 20
81.57835590990670
 30
0.000000000000000
 40
1.300000000000000
100
AcDbArc
 50
0.000000000000000
 51
45.00000000000972
  0
ARC
  5
B8
100
AcDbEntity
  8
A1
  6
CONTINUOUS
 62
7
100
AcDbCircle
 10
26.88489247540993
 20
85.33104710337547
 30
0.000000000000000
 40
2.000000000000000
100
AcDbArc
 50
150.1720238074335
 51
225.0000000000098
  0
ARC
  5
B9
100
AcDbEntity
  8
A1
  6
CONTINUOUS
 62
7
100
AcDbCircle
 10
26.88489247540993
 20
85.33104710337547
 30
0.000000000000000
 40
1.000000000000000
100
AcDbArc
 50
150.1720238074333
 51
225.0000000000098
  0
ARC
  5
BA
100
AcDbEntity
  8
A1
  6
CONTINUOUS
 62
7
100
AcDbCircle
 10
24.88489247542067
 20
87.87419285386171
 30
0.000000000000000
 40
2.000000000000000
100
AcDbArc
 50
330.1720238074332
 51
404.9999999999999
  0
ARC
  5
BB
100
AcDbEntity
  8
A1
  6
CONTINUOUS
 62
7
100
AcDbCircle
 10
24.88489247542067
 20
87.87419285386171
 30
0.000000000000000
 40
1.000000000000000
100
AcDbArc
 50
330.1720238074332
 51
404.9999999999994
  0
LINE
  5
BC
100
AcDbEntity
  8
A1
  6
CONTINUOUS
 62
7
100
AcDbLine
 10
25.14984709712437
 20
86.32584232616755
 30
0.000000000000000
 11
25.75241516456355
 21
87.37679524246587
 31
0.000000000000000
  0
LINE
  5
BD
100
AcDbEntity
  8
A1
  6
CONTINUOUS
 62
7
100
AcDbLine
 10
26.61993785370634
 20
86.87939763106992
 30
0.000000000000000
 11
26.01736978626716
 21
85.82844471477159
 31
0.000000000000000
  0
LINE
  5
BE
100
AcDbEntity
  8
A1
  6
CONTINUOUS
 62
7
100
AcDbLine
 10
28.68489247542136
 20
69.82688404733075
 30
0.000000000000000
 11
28.68489247542136
 21
81.57835590990670
 31
0.000000000000000
  0
LINE
  5
BF
100
AcDbEntity
  8
A1
  6
CONTINUOUS
 62
7
100
AcDbLine
 10
27.68489247542136
 20
69.82688404733075
 30
0.000000000000000
 11
27.68489247542136
 21
81.57835590990670
 31
0.000000000000000
  0
ARC
  5
C0
100
AcDbEntity
  8
A1
  6
CONTINUOUS
 62
7
100
AcDbCircle
 10
30.28489247542127
 20
47.26761997861753
 30
0.000000000000000
 40
3.964999999999999
100
AcDbArc
 50
357.6659397403221
 51
517.3340602596779
  0
ARC
  5
C1
100
AcDbEntity
  8
A1
  6
CONTINUOUS
 62
7
100
AcDbCircle
 10
30.28489247542127
 20
47.26761997861753
 30
0.000000000000000
 40
3.964999999999999
100
AcDbArc
 50
171.8418556335158
 51
343.1581443664844
  0
ARC
  5
C2
100
AcDbEntity
  8
A1
  6
CONTINUOUS
 62
7
100
AcDbCircle
 10
35.68489247542125
 20
54.92761997861875
 30
0.000000000000000
 40
3.174999999999999
100
AcDbArc
 50
180.0000000000000
 51
360.0000000000000
  0
ARC
  5
C3
100
AcDbEntity
  8
A1
  6
CONTINUOUS
 62
7
100
AcDbCircle
 10
35.68489247542125
 20
54.92761997861875
 30
0.000000000000000
 40
3.174999999999999
100
AcDbArc
 50
18.35843707533010
 51
161.6415629246699
  0
ARC
  5
C4
100
AcDbEntity
  8
A1
  6
CONTINUOUS
 62
7
100
AcDbCircle
 10
35.68489247542125
 20
96.47761997861870
 30
0.000000000000000
 40
3.174999999999999
100
AcDbArc
 50
198.3584370753279
 51
341.6415629246720
  0
ARC
  5
C5
100
AcDbEntity
  8
A1
  6
CONTINUOUS
 62
7
100
AcDbCircle
 10
35.68489247542125
 20
96.47761997861870
 30
0.000000000000000
 40
3.174999999999999
100
AcDbArc
 50
0.000000000000000
 51
180.0000000000000
  0
ARC
  5
C6
100
AcDbEntity
  8
A1
  6
CONTINUOUS
 62
7
100
AcDbCircle
 10
30.28489247542127
 20
104.1376199786202
 30
0.000000000000000
 40
3.964999999999999
100
AcDbArc
 50
16.84185563351389
 51
188.1581443664863
  0
ARC
  5
C7
100
AcDbEntity
  8
A1
  6
CONTINUOUS
 62
7
100
AcDbCircle
 10
30.28489247542127
 20
104.1376199786202
 30
0.000000000000000
 40
3.964999999999999
100
AcDbArc
 50
202.6659397403229
 51
362.3340602596767
  0
LINE
  5
C8
100
AcDbEntity
  8
A1
  6
CONTINUOUS
 62
7
100
AcDbLine
 10
32.68489247542125
 20
66.20261997861627
 30
0.000000000000000
 11
32.68489247542125
 21
85.20261997861887
 31
0.000000000000000
  0
LINE
  5
C9
100
AcDbEntity
  8
A1
  6
CONTINUOUS
 62
7
100
AcDbLine
 10
34.68489247542099
 20
87.20261997861886
 30
0.000000000000000
 11
40.68489247542311
 21
87.20261997861962
 31
0.000000000000000
  0
LINE
  5
CA
100
AcDbEntity
  8
A1
  6
CONTINUOUS
 62
7
100
AcDbLine
 10
34.68489247541994
 20
64.20261997861627
 30
0.000000000000000
 11
40.68489247542311
 21
64.20261997861235
 31
0.000000000000000
  0
ARC
  5
CB
100
AcDbEntity
  8
A1
  6
CONTINUOUS
 62
7
100
AcDbCircle
 10
34.68489247542125
 20
66.20261997861627
 30
0.000000000000000
 40
2.000000000000000
100
AcDbArc
 50
180.0000000000000
 51
270.0000000000000
  0
ARC
  5
CC
100
AcDbEntity
  8
A1
  6
CONTINUOUS
 62
7
100
AcDbCircle
 10
34.68489247542125
 20
85.20261997861887
 30
0.000000000000000
 40
2.000000000000000
100
AcDbArc
 50
90.00000000000000
 51
180.0000000000000
  0
LINE
  5
CD
100
AcDbEntity
  8
A1
  6
CONTINUOUS
 62
7
100
AcDbLine
 10
38.18489247542119
 20
60.18029786708679
 30
0.000000000000000
 11
38.18489247542119
 21
64.20261997861398
 31
0.000000000000000
  0
LINE
  5
CE
100
AcDbEntity
  8
A1
  6
CONTINUOUS
 62
7
100
AcDbLine
 10
38.18489247542119
 20
87.20261997861931
 30
0.000000000000000
 11
38.18489247542119
 21
91.22494209015089
 31
0.000000000000000
  0
LINE
  5
CF
100
AcDbEntity
  8
A1
  6
CONTINUOUS
 62
7
100
AcDbLine
 10
41.38489247542124
 20
55.70261997861468
 30
0.000000000000000
 11
41.38489247542124
 21
95.70261997861468
 31
0.000000000000000
  0
ARC
  5
D0
100
AcDbEntity
  8
A1
  6
CONTINUOUS
 62
7
100
AcDbCircle
 10
36.38489247542124
 20
95.70261997861468
 30
0.000000000000000
 40
5.000000000000000
100
AcDbArc
 50
0.000000000000000
 51
51.46273200887477
  0
ARC
  5
D1
100
AcDbEntity
  8
A1
  6
CONTINUOUS
 62
7
100
AcDbCircle
 10
36.38489247542124
 20
55.70261997861468
 30
0.000000000000000
 40
5.000000000000000
100
AcDbArc
 50
308.5372679911978
 51
360.0000000000000
  0
LINE
  5
D2
100
AcDbEntity
  8
A1
  6
CONTINUOUS
 62
7
100
AcDbLine
 10
23.88489247542124
 20
50.70261997860544
 30
0.000000000000000
 11
23.38489247546443
 21
50.70261997860507
 31
0.000000000000000
  0
LINE
  5
D3
100
AcDbEntity
  8
A1
  6
CONTINUOUS
 62
7
100
AcDbLine
 10
25.89874742422832
 20
50.70261997860693
 30
0.000000000000000
 11
24.88489247542124
 21
50.70261997860618
 31
0.000000000000000
  0
LINE
  5
D4
100
AcDbEntity
  8
A1
  6
CONTINUOUS
 62
7
100
AcDbLine
 10
23.88489247542124
 20
100.7026199786054
 30
0.000000000000000
 11
23.38489247542748
 21
100.7026199786051
 31
0.000000000000000
  0
LINE
  5
D5
100
AcDbEntity
  8
A1
  6
CONTINUOUS
 62
7
100
AcDbLine
 10
25.89874742420331
 20
100.7026199786069
 30
0.000000000000000
 11
24.88489247542124
 21
100.7026199786062
 31
0.000000000000000
  0
LINE
  5
D6
100
AcDbEntity
  8
A1
  6
CONTINUOUS
 62
7
100
AcDbLine
 10
1381.184892475177
 20
44.54576572913186
 30
0.000000000000000
 11
1381.184892475177
 21
40.80261997862010
 31
0.000000000000000
  0
LINE
  5
D7
100
AcDbEntity
  8
A1
  6
CONTINUOUS
 62
7
100
AcDbLine
 10
1584.784892475410
 20
110.6026199786170
 30
0.000000000000000
 11
822.7848924754107
 21
110.6026199786197
 31
0.000000000000000
  0
LINE
  5
D8
100
AcDbEntity
  8
A1
  6
CONTINUOUS
 62
7
100
AcDbLine
 10
1584.673951102062
 20
106.2026199786184
 30
0.000000000000000
 11
822.7848924754104
 21
106.2026199786184
 31
0.000000000000000
  0
LINE
  5
D9
100
AcDbEntity
  8
A1
  6
CONTINUOUS
 62
7
100
AcDbLine
 10
822.7848924754104
 20
110.6026199786198
 30
0.000000000000000
 11
822.7848924754104
 21
102.1526199786186
 31
0.000000000000000
  0
LINE
  5
DA
100
AcDbEntity
  8
A1
  6
CONTINUOUS
 62
7
100
AcDbLine
 10
1582.284892475420
 20
50.70261997861883
 30
0.000000000000000
 11
1584.784892475409
 21
50.70261997861883
 31
0.000000000000000
  0
LINE
  5
DB
100
AcDbEntity
  8
A1
  6
CONTINUOUS
 62
7
100
AcDbLine
 10
1582.284892475420
 20
100.7026199786188
 30
0.000000000000000
 11
1584.784892475409
 21
100.7026199786188
 31
0.000000000000000
  0
LINE
  5
DC
100
AcDbEntity
  8
A1
  6
CONTINUOUS
 62
7
100
AcDbLine
 10
1582.870678913051
 20
104.1168335409919
 30
0.000000000000000
 11
1584.199106037791
 21
105.4452606657337
 31
0.000000000000000
  0
ARC
  5
DD
100
AcDbEntity
  8
A1
  6
CONTINUOUS
 62
7
100
AcDbCircle
 10
1582.784892475409
 20
106.8594742281067
 30
0.000000000000000
 40
2.000000000000000
100
AcDbArc
 50
315.0000000000000
 51
360.0000000000000
  0
LINE
  5
DE
100
AcDbEntity
  8
A1
  6
CONTINUOUS
 62
7
100
AcDbLine
 10
1584.784892475410
 20
110.6026199786173
 30
0.000000000000000
 11
1584.784892475410
 21
106.8594742281064
 31
0.000000000000000
  0
LINE
  5
DF
100
AcDbEntity
  8
A1
  6
CONTINUOUS
 62
7
100
AcDbLine
 10
1584.784892475409
 20
100.7026199786188
 30
0.000000000000000
 11
1584.784892475409
 21
50.70261997861883
 31
0.000000000000000
  0
LINE
  5
E0
100
AcDbEntity
  8
A1
  6
CONTINUOUS
 62
7
100
AcDbLine
 10
1584.784892475409
 20
44.54576572913186
 30
0.000000000000000
 11
1584.784892475409
 21
40.80261997862056
 31
0.000000000000000
  0
LINE
  5
E1
100
AcDbEntity
  8
A1
  6
CONTINUOUS
 62
7
100
AcDbLine
 10
1582.284892475420
 20
100.7026199786188
 30
0.000000000000000
 11
1582.284892475420
 21
50.70261997861883
 31
0.000000000000000
  0
ARC
  5
E2
100
AcDbEntity
  8
A1
  6
CONTINUOUS
 62
7
100
AcDbCircle
 10
1584.284892475420
 20
102.7026199786188
 30
0.000000000000000
 40
2.000000000000000
100
AcDbArc
 50
135.0000000000000
 51
270.0000000000000
  0
LINE
  5
E3
100
AcDbEntity
  8
A1
  6
CONTINUOUS
 62
7
100
AcDbLine
 10
1582.870678913050
 20
47.28840641624424
 30
0.000000000000000
 11
1584.199106037789
 21
45.95997929150258
 31
0.000000000000000
  0
ARC
  5
E4
100
AcDbEntity
  8
A1
  6
CONTINUOUS
 62
7
100
AcDbCircle
 10
1582.784892475409
 20
44.54576572913186
 30
0.000000000000000
 40
2.000000000000000
100
AcDbArc
 50
0.000000000000000
 51
45.00000000000000
  0
ARC
  5
E5
100
AcDbEntity
  8
A1
  6
CONTINUOUS
 62
7
100
AcDbCircle
 10
1584.284892475420
 20
48.70261997861974
 30
0.000000000000000
 40
2.000000000000000
100
AcDbArc
 50
90.00000000000000
 51
225.0000000000000
  0
CIRCLE
  5
E6
100
AcDbEntity
  8
A1
  6
CONTINUOUS
 62
7
100
AcDbCircle
 10
835.4848924754111
 20
75.70261997862019
 30
0.000000000000000
 40
2.600000000000000
  0
CIRCLE
  5
E7
100
AcDbEntity
  8
A1
  6
CONTINUOUS
 62
7
100
AcDbCircle
 10
854.5848924754115
 20
75.70261997862019
 30
0.000000000000000
 40
3.299999999999999
  0
CIRCLE
  5
E8
100
AcDbEntity
  8
A3
  6
DASHED
 62
2
100
AcDbCircle
 10
911.6848924754119
 20
75.70261997862019
 30
0.000000000000000
 40
3.299999999999999
  0
LINE
  5
E9
100
AcDbEntity
  8
A3
  6
DASHED
 62
2
100
AcDbLine
 10
879.9348924754119
 20
72.40261997862092
 30
0.000000000000000
 11
873.8348924754115
 21
72.40261997862092
 31
0.000000000000000
  0
ARC
  5
EA
100
AcDbEntity
  8
A3
  6
DASHED
 62
2
100
AcDbCircle
 10
879.9348924754119
 20
75.70261997862019
 30
0.000000000000000
 40
3.299999999999999
100
AcDbArc
 50
270.0000000000000
 51
450.0000000000000
  0
ARC
  5
EB
100
AcDbEntity
  8
A3
  6
DASHED
 62
2
100
AcDbCircle
 10
873.8348924754115
 20
75.70261997862019
 30
0.000000000000000
 40
3.299999999999999
100
AcDbArc
 50
90.00000000000000
 51
270.0000000000000
  0
LINE
  5
EC
100
AcDbEntity
  8
A3
  6
DASHED
 62
2
100
AcDbLine
 10
879.9348924754119
 20
79.00261997861946
 30
0.000000000000000
 11
873.8348924754115
 21
79.00261997861946
 31
0.000000000000000
  0
LINE
  5
ED
100
AcDbEntity
  8
A1
  6
CONTINUOUS
 62
7
100
AcDbLine
 10
841.6348924754117
 20
72.35261997862074
 30
0.000000000000000
 11
841.6348924754117
 21
79.05261997861965
 31
0.000000000000000
  0
LINE
  5
EE
100
AcDbEntity
  8
A1
  6
CONTINUOUS
 62
7
100
AcDbLine
 10
848.3348924754115
 20
72.35261997862074
 30
0.000000000000000
 11
848.3348924754115
 21
79.05261997861965
 31
0.000000000000000
  0
LINE
  5
EF
100
AcDbEntity
  8
A1
  6
CONTINUOUS
 62
7
100
AcDbLine
 10
841.6348924754117
 20
72.35261997862074
 30
0.000000000000000
 11
848.3348924754115
 21
72.35261997862074
 31
0.000000000000000
  0
LINE
  5
F0
100
AcDbEntity
  8
A1
  6
CONTINUOUS
 62
7
100
AcDbLine
 10
841.6348924754117
 20
79.05261997861965
 30
0.000000000000000
 11
848.3348924754115
 21
79.05261997861965
 31
0.000000000000000
  0
LINE
  5
F1
100
AcDbEntity
  8
A3
  6
DASHED
 62
2
100
AcDbLine
 10
864.1848924754108
 20
72.02566471644985
 30
0.000000000000000
 11
860.5079372132413
 21
75.70261997861996
 31
0.000000000000000
  0
LINE
  5
F2
100
AcDbEntity
  8
A3
  6
DASHED
 62
2
100
AcDbLine
 10
867.8618477375803
 20
75.70261997861996
 30
0.000000000000000
 11
864.1848924754107
 21
79.37957524079002
 31
0.000000000000000
  0
LINE
  5
F3
100
AcDbEntity
  8
A3
  6
DASHED
 62
2
100
AcDbLine
 10
860.5079372132411
 20
75.70261997862019
 30
0.000000000000000
 11
864.1848924754111
 21
79.37957524079007
 31
0.000000000000000
  0
LINE
  5
F4
100
AcDbEntity
  8
A3
  6
DASHED
 62
2
100
AcDbLine
 10
864.1848924754104
 20
72.02566471644934
 30
0.000000000000000
 11
867.8618477375805
 21
75.70261997861860
 31
0.000000000000000
  0
CIRCLE
  5
F5
100
AcDbEntity
  8
A3
  6
DASHED
 62
2
100
AcDbCircle
 10
898.9848924754111
 20
75.70261997862019
 30
0.000000000000000
 40
2.600000000000000
  0
CIRCLE
  5
F6
100
AcDbEntity
  8
A1
  6
CONTINUOUS
 62
7
100
AcDbCircle
 10
1070.384892475409
 20
75.70261997861883
 30
0.000000000000000
 40
3.299999999999999
  0
CIRCLE
  5
F7
100
AcDbEntity
  8
A1
  6
CONTINUOUS
 62
7
100
AcDbCircle
 10
1057.684892475410
 20
75.70261997861883
 30
0.000000000000000
 40
2.600000000000000
  0
LINE
  5
F8
100
AcDbEntity
  8
A1
  6
CONTINUOUS
 62
7
100
AcDbLine
 10
1083.084892475408
 20
72.02566471644877
 30
0.000000000000000
 11
1079.407937213238
 21
75.70261997861866
 31
0.000000000000000
  0
LINE
  5
F9
100
AcDbEntity
  8
A1
  6
CONTINUOUS
 62
7
100
AcDbLine
 10
1086.761847737578
 20
75.70261997861832
 30
0.000000000000000
 11
1083.084892475408
 21
79.37957524078848
 31
0.000000000000000
  0
LINE
  5
FA
100
AcDbEntity
  8
A1
  6
CONTINUOUS
 62
7
100
AcDbLine
 10
1079.407937213237
 20
75.70261997861877
 30
0.000000000000000
 11
1083.084892475408
 21
79.37957524078939
 31
0.000000000000000
  0
LINE
  5
FB
100
AcDbEntity
  8
A1
  6
CONTINUOUS
 62
7
100
AcDbLine
 10
1083.084892475408
 20
72.02566471644803
 30
0.000000000000000
 11
1086.761847737578
 21
75.70261997861707
 31
0.000000000000000
  0
LINE
  5
FC
100
AcDbEntity
  8
A3
  6
DASHED
 62
2
100
AcDbLine
 10
1092.434892475409
 20
72.35261997861846
 30
0.000000000000000
 11
1092.434892475409
 21
79.05261997861828
 31
0.000000000000000
  0
LINE
  5
FD
100
AcDbEntity
  8
A3
  6
DASHED
 62
2
100
AcDbLine
 10
1099.134892475409
 20
72.35261997861937
 30
0.000000000000000
 11
1099.134892475409
 21
79.05261997861828
 31
0.000000000000000
  0
LINE
  5
FE
100
AcDbEntity
  8
A3
  6
DASHED
 62
2
100
AcDbLine
 10
1092.434892475409
 20
72.35261997861831
 30
0.000000000000000
 11
1099.134892475410
 21
72.35261997861922
 31
0.000000000000000
  0
LINE
  5
FF
100
AcDbEntity
  8
A3
  6
DASHED
 62
2
100
AcDbLine
 10
1092.434892475409
 20
79.05261997861828
 30
0.000000000000000
 11
1099.134892475409
 21
79.05261997861828
 31
0.000000000000000
  0
CIRCLE
  5
100
100
AcDbEntity
  8
A1
  6
CONTINUOUS
 62
7
100
AcDbCircle
 10
1337.184892475409
 20
75.70261997861883
 30
0.000000000000000
 40
3.299999999999999
  0
CIRCLE
  5
101
100
AcDbEntity
  8
A1
  6
CONTINUOUS
 62
7
100
AcDbCircle
 10
1324.484892475410
 20
75.70261997861883
 30
0.000000000000000
 40
2.600000000000000
  0
LINE
  5
102
100
AcDbEntity
  8
A1
  6
CONTINUOUS
 62
7
100
AcDbLine
 10
1349.884892475407
 20
72.02566471644809
 30
0.000000000000000
 11
1346.207937213237
 21
75.70261997861803
 31
0.000000000000000
  0
LINE
  5
103
100
AcDbEntity
  8
A1
  6
CONTINUOUS
 62
7
100
AcDbLine
 10
1353.561847737578
 20
75.70261997861940
 30
0.000000000000000
 11
1349.884892475408
 21
79.37957524078911
 31
0.000000000000000
  0
LINE
  5
104
100
AcDbEntity
  8
A1
  6
CONTINUOUS
 62
7
100
AcDbLine
 10
1346.207937213238
 20
75.70261997861735
 30
0.000000000000000
 11
1349.884892475408
 21
79.37957524078729
 31
0.000000000000000
  0
LINE
  5
105
100
AcDbEntity
  8
A1
  6
CONTINUOUS
 62
7
100
AcDbLine
 10
1349.884892475408
 20
72.02566471645002
 30
0.000000000000000
 11
1353.561847737578
 21
75.70261997861883
 31
0.000000000000000
  0
LINE
  5
106
100
AcDbEntity
  8
A1
  6
CONTINUOUS
 62
7
100
AcDbLine
 10
1359.234892475408
 20
72.35261997861846
 30
0.000000000000000
 11
1359.234892475408
 21
79.05261997861828
 31
0.000000000000000
  0
LINE
  5
107
100
AcDbEntity
  8
A1
  6
CONTINUOUS
 62
7
100
AcDbLine
 10
1365.934892475409
 20
72.35261997861937
 30
0.000000000000000
 11
1365.934892475409
 21
79.05261997861828
 31
0.000000000000000
  0
LINE
  5
108
100
AcDbEntity
  8
A1
  6
CONTINUOUS
 62
7
100
AcDbLine
 10
1359.234892475409
 20
72.35261997861815
 30
0.000000000000000
 11
1365.934892475410
 21
72.35261997861906
 31
0.000000000000000
  0
LINE
  5
109
100
AcDbEntity
  8
A1
  6
CONTINUOUS
 62
7
100
AcDbLine
 10
1359.234892475408
 20
79.05261997861828
 30
0.000000000000000
 11
1365.934892475409
 21
79.05261997861828
 31
0.000000000000000
  0
LINE
  5
10A
100
AcDbEntity
  8
A1
  6
CONTINUOUS
 62
7
100
AcDbLine
 10
1498.934892475409
 20
72.40261997861910
 30
0.000000000000000
 11
1492.834892475409
 21
72.40261997861910
 31
0.000000000000000
  0
ARC
  5
10B
100
AcDbEntity
  8
A1
  6
CONTINUOUS
 62
7
100
AcDbCircle
 10
1498.934892475409
 20
75.70261997861837
 30
0.000000000000000
 40
3.299999999999999
100
AcDbArc
 50
270.0000000000000
 51
450.0000000000000
  0
ARC
  5
10C
100
AcDbEntity
  8
A1
  6
CONTINUOUS
 62
7
100
AcDbCircle
 10
1492.834892475409
 20
75.70261997861837
 30
0.000000000000000
 40
3.299999999999999
100
AcDbArc
 50
90.00000000000000
 51
270.0000000000000
  0
LINE
  5
10D
100
AcDbEntity
  8
A1
  6
CONTINUOUS
 62
7
100
AcDbLine
 10
1498.934892475409
 20
79.00261997861764
 30
0.000000000000000
 11
1492.834892475409
 21
79.00261997861764
 31
0.000000000000000
  0
LINE
  5
10E
100
AcDbEntity
  8
A1
  6
CONTINUOUS
 62
7
100
AcDbLine
 10
1482.134892475410
 20
73.10261997861801
 30
0.000000000000000
 11
1477.834892475410
 21
73.10261997861801
 31
0.000000000000000
  0
ARC
  5
10F
100
AcDbEntity
  8
A1
  6
CONTINUOUS
 62
7
100
AcDbCircle
 10
1482.134892475410
 20
75.70261997861837
 30
0.000000000000000
 40
2.600000000000000
100
AcDbArc
 50
270.0000000000000
 51
450.0000000000000
  0
ARC
  5
110
100
AcDbEntity
  8
A1
  6
CONTINUOUS
 62
7
100
AcDbCircle
 10
1477.834892475410
 20
75.70261997861837
 30
0.000000000000000
 40
2.600000000000000
100
AcDbArc
 50
90.00000000000000
 51
270.0000000000000
  0
LINE
  5
111
100
AcDbEntity
  8
A1
  6
CONTINUOUS
 62
7
100
AcDbLine
 10
1482.134892475410
 20
78.30261997861874
 30
0.000000000000000
 11
1477.834892475410
 21
78.30261997861874
 31
0.000000000000000
  0
CIRCLE
  5
112
100
AcDbEntity
  8
A1
  6
CONTINUOUS
 62
7
100
AcDbCircle
 10
1553.084892475409
 20
75.70261997861837
 30
0.000000000000000
 40
3.299999999999999
  0
CIRCLE
  5
113
100
AcDbEntity
  8
A1
  6
CONTINUOUS
 62
7
100
AcDbCircle
 10
1524.484892475408
 20
75.70261997861837
 30
0.000000000000000
 40
3.299999999999999
  0
CIRCLE
  5
114
100
AcDbEntity
  8
A1
  6
CONTINUOUS
 62
7
100
AcDbCircle
 10
1511.784892475409
 20
75.70261997861837
 30
0.000000000000000
 40
2.600000000000000
  0
LINE
  5
115
100
AcDbEntity
  8
A1
  6
CONTINUOUS
 62
7
100
AcDbLine
 10
1469.784892475410
 20
72.02566471645002
 30
0.000000000000000
 11
1466.107937213240
 21
75.70261997861985
 31
0.000000000000000
  0
LINE
  5
116
100
AcDbEntity
  8
A1
  6
CONTINUOUS
 62
7
100
AcDbLine
 10
1473.461847737580
 20
75.70261997861917
 30
0.000000000000000
 11
1469.784892475410
 21
79.37957524078911
 31
0.000000000000000
  0
LINE
  5
117
100
AcDbEntity
  8
A1
  6
CONTINUOUS
 62
7
100
AcDbLine
 10
1466.107937213240
 20
75.70261997861928
 30
0.000000000000000
 11
1469.784892475410
 21
79.37957524078922
 31
0.000000000000000
  0
LINE
  5
118
100
AcDbEntity
  8
A1
  6
CONTINUOUS
 62
7
100
AcDbLine
 10
1469.784892475409
 20
72.02566471644832
 30
0.000000000000000
 11
1473.461847737580
 21
75.70261997861905
 31
0.000000000000000
  0
LINE
  5
119
100
AcDbEntity
  8
A1
  6
CONTINUOUS
 62
7
100
AcDbLine
 10
1537.034892475410
 20
72.35261997861892
 30
0.000000000000000
 11
1537.034892475410
 21
79.05261997861874
 31
0.000000000000000
  0
LINE
  5
11A
100
AcDbEntity
  8
A1
  6
CONTINUOUS
 62
7
100
AcDbLine
 10
1543.734892475410
 20
72.35261997861983
 30
0.000000000000000
 11
1543.734892475410
 21
79.05261997861874
 31
0.000000000000000
  0
LINE
  5
11B
100
AcDbEntity
  8
A1
  6
CONTINUOUS
 62
7
100
AcDbLine
 10
1537.034892475411
 20
72.35261997861863
 30
0.000000000000000
 11
1543.734892475410
 21
72.35261997861954
 31
0.000000000000000
  0
LINE
  5
11C
100
AcDbEntity
  8
A1
  6
CONTINUOUS
 62
7
100
AcDbLine
 10
1537.034892475410
 20
79.05261997861874
 30
0.000000000000000
 11
1543.734892475410
 21
79.05261997861874
 31
0.000000000000000
  0
LINE
  5
11D
100
AcDbEntity
  8
A1
  6
CONTINUOUS
 62
7
100
AcDbLine
 10
1212.884892475412
 20
102.1526199786186
 30
0.000000000000000
 11
462.2848924754104
 21
102.1526199786186
 31
0.000000000000000
  0
LINE
  5
11E
100
AcDbEntity
  8
A1
  6
CONTINUOUS
 62
7
100
AcDbLine
 10
1200.384892475413
 20
82.20261997862075
 30
0.000000000000000
 11
1197.884892475413
 21
82.20261997861768
 31
0.000000000000000
  0
LINE
  5
11F
100
AcDbEntity
  8
A1
  6
CONTINUOUS
 62
7
100
AcDbLine
 10
1200.384892475412
 20
69.20261997861883
 30
0.000000000000000
 11
1197.884892475412
 21
69.20261997861883
 31
0.000000000000000
  0
LINE
  5
120
100
AcDbEntity
  8
A1
  6
CONTINUOUS
 62
7
100
AcDbLine
 10
1197.884892475412
 20
82.20261997861883
 30
0.000000000000000
 11
1197.884892475412
 21
69.20261997861883
 31
0.000000000000000
  0
LINE
  5
121
100
AcDbEntity
  8
A1
  6
CONTINUOUS
 62
7
100
AcDbLine
 10
1200.384892475412
 20
82.20261997862065
 30
0.000000000000000
 11
1200.384892475412
 21
69.20261997861883
 31
0.000000000000000
  0
LINE
  5
122
100
AcDbEntity
  8
A1
  6
CONTINUOUS
 62
7
100
AcDbLine
 10
1199.134892475412
 20
69.20261997861883
 30
0.000000000000000
 11
1199.134892475412
 21
82.20261997861883
 31
0.000000000000000
  0
LINE
  5
123
100
AcDbEntity
  8
A1
  6
CONTINUOUS
 62
7
100
AcDbLine
 10
1212.884892475412
 20
63.20261997861883
 30
0.000000000000000
 11
1212.884892475412
 21
49.35231441764302
 31
0.000000000000000
  0
ARC
  5
124
100
AcDbEntity
  8
A1
  6
CONTINUOUS
 62
7
100
AcDbCircle
 10
1209.884892475412
 20
63.20261997861883
 30
0.000000000000000
 40
3.000000000000000
100
AcDbArc
 50
0.000000000000000
 51
5.431764963322844
  0
LINE
  5
125
100
AcDbEntity
  8
A1
  6
CONTINUOUS
 62
7
100
AcDbLine
 10
1212.884892475412
 20
88.20261997861883
 30
0.000000000000000
 11
1212.884892475412
 21
102.0529255395928
 31
0.000000000000000
  0
LINE
  5
126
100
AcDbEntity
  8
A1
  6
CONTINUOUS
 62
7
100
AcDbLine
 10
1167.884892475412
 20
55.70261997861883
 30
0.000000000000000
 11
1177.884892475412
 21
55.70261997861883
 31
0.000000000000000
  0
LINE
  5
127
100
AcDbEntity
  8
A1
  6
CONTINUOUS
 62
7
100
AcDbLine
 10
1167.884892475412
 20
95.70261997861974
 30
0.000000000000000
 11
1177.884892475412
 21
95.70261997861974
 31
0.000000000000000
  0
LINE
  5
128
100
AcDbEntity
  8
A1
  6
CONTINUOUS
 62
7
100
AcDbLine
 10
1177.884892475412
 20
95.70261997861974
 30
0.000000000000000
 11
1177.884892475412
 21
55.70261997861883
 31
0.000000000000000
  0
LINE
  5
129
100
AcDbEntity
  8
A1
  6
CONTINUOUS
 62
7
100
AcDbLine
 10
1167.884892475412
 20
95.70261997861974
 30
0.000000000000000
 11
1167.884892475412
 21
55.70261997861883
 31
0.000000000000000
  0
LINE
  5
12A
100
AcDbEntity
  8
A1
  6
CONTINUOUS
 62
7
100
AcDbLine
 10
462.2848924754104
 20
102.1526199786183
 30
0.000000000000000
 11
462.2848924754120
 21
94.50261997861867
 31
0.000000000000000
  0
LINE
  5
12B
100
AcDbEntity
  8
A1
  6
CONTINUOUS
 62
7
100
AcDbLine
 10
1167.884892475412
 20
68.01202105537607
 30
0.000000000000000
 11
1177.884892475412
 21
68.01202105537607
 31
0.000000000000000
  0
LINE
  5
12C
100
AcDbEntity
  8
A1
  6
CONTINUOUS
 62
7
100
AcDbLine
 10
1167.884892475412
 20
83.39321890185886
 30
0.000000000000000
 11
1177.884892475412
 21
83.39321890185886
 31
0.000000000000000
  0
LINE
  5
12D
100
AcDbEntity
  8
A1
  6
CONTINUOUS
 62
7
100
AcDbLine
 10
1212.884892475412
 20
98.48846527473836
 30
0.000000000000000
 11
462.2848924754104
 21
98.48846527473836
 31
0.000000000000000
  0
LINE
  5
12E
100
AcDbEntity
  8
A1
  6
CONTINUOUS
 62
7
100
AcDbLine
 10
1167.884892475412
 20
86.58233186578843
 30
0.000000000000000
 11
819.8848924754201
 21
86.58233186578877
 31
0.000000000000000
  0
LINE
  5
12F
100
AcDbEntity
  8
A1
  6
CONTINUOUS
 62
7
100
AcDbLine
 10
1167.884892475412
 20
64.82290809144945
 30
0.000000000000000
 11
819.8848924754199
 21
64.82290809144945
 31
0.000000000000000
  0
LINE
  5
130
100
AcDbEntity
  8
A1
  6
CONTINUOUS
 62
7
100
AcDbLine
 10
1212.884892475412
 20
89.41030477729521
 30
0.000000000000000
 11
1189.664176723371
 21
89.41030477729521
 31
0.000000000000000
  0
LINE
  5
131
100
AcDbEntity
  8
A1
  6
CONTINUOUS
 62
7
100
AcDbLine
 10
1212.884892475413
 20
61.99493517994156
 30
0.000000000000000
 11
1189.664176723373
 21
61.99493517994178
 31
0.000000000000000
  0
ARC
  5
132
100
AcDbEntity
  8
A1
  6
CONTINUOUS
 62
7
100
AcDbCircle
 10
1077.784892475409
 20
75.70261997861883
 30
0.000000000000000
 40
8.000000000000000
100
AcDbArc
 50
270.0000000000000
 51
450.0000000000000
  0
ARC
  5
133
100
AcDbEntity
  8
A1
  6
CONTINUOUS
 62
7
100
AcDbCircle
 10
1058.784892475409
 20
75.70261997861883
 30
0.000000000000000
 40
8.000000000000000
100
AcDbArc
 50
90.00000000000000
 51
270.0000000000000
  0
LINE
  5
134
100
AcDbEntity
  8
A1
  6
CONTINUOUS
 62
7
100
AcDbLine
 10
1058.784892475409
 20
83.70261997861883
 30
0.000000000000000
 11
1077.784892475409
 21
83.70261997861883
 31
0.000000000000000
  0
LINE
  5
135
100
AcDbEntity
  8
A1
  6
CONTINUOUS
 62
7
100
AcDbLine
 10
1058.784892475409
 20
67.70261997861883
 30
0.000000000000000
 11
1077.784892475409
 21
67.70261997861883
 31
0.000000000000000
  0
ARC
  5
136
100
AcDbEntity
  8
A1
  6
CONTINUOUS
 62
7
100
AcDbCircle
 10
854.5848924754110
 20
75.70261997861883
 30
0.000000000000000
 40
8.000000000000000
100
AcDbArc
 50
270.0000000000000
 51
450.0000000000000
  0
ARC
  5
137
100
AcDbEntity
  8
A1
  6
CONTINUOUS
 62
7
100
AcDbCircle
 10
835.5848924754110
 20
75.70261997861883
 30
0.000000000000000
 40
8.000000000000000
100
AcDbArc
 50
90.00000000000000
 51
270.0000000000000
  0
LINE
  5
138
100
AcDbEntity
  8
A1
  6
CONTINUOUS
 62
7
100
AcDbLine
 10
835.5848924754110
 20
83.70261997861883
 30
0.000000000000000
 11
854.5848924754110
 21
83.70261997861883
 31
0.000000000000000
  0
LINE
  5
139
100
AcDbEntity
  8
A1
  6
CONTINUOUS
 62
7
100
AcDbLine
 10
835.5848924754110
 20
67.70261997861883
 30
0.000000000000000
 11
854.5848924754110
 21
67.70261997861883
 31
0.000000000000000
  0
CIRCLE
  5
13A
100
AcDbEntity
  8
A1
  6
CONTINUOUS
 62
7
100
AcDbCircle
 10
1187.884892475412
 20
83.15231441764502
 30
0.000000000000000
 40
2.100000000000000
  0
CIRCLE
  5
13B
100
AcDbEntity
  8
A1
  6
CONTINUOUS
 62
7
100
AcDbCircle
 10
1187.884892475412
 20
68.15231441764411
 30
0.000000000000000
 40
2.100000000000000
  0
ARC
  5
13C
100
AcDbEntity
  8
A1
  6
CONTINUOUS
 62
7
100
AcDbCircle
 10
1187.635277113573
 20
87.20042551060226
 30
0.000000000000000
 40
3.000000000000000
100
AcDbArc
 50
40.95575754733699
 51
120.0000000000000
  0
LINE
  5
13D
100
AcDbEntity
  8
A1
  6
CONTINUOUS
 62
7
100
AcDbLine
 10
1182.990073707096
 20
87.98261768857043
 30
0.000000000000000
 11
1186.135277113573
 21
89.79850172195535
 31
0.000000000000000
  0
LINE
  5
13E
100
AcDbEntity
  8
A1
  6
CONTINUOUS
 62
7
100
AcDbLine
 10
1190.679998602321
 20
88.23838989086539
 30
0.000000000000000
 11
1189.900924959122
 21
89.16685370404252
 31
0.000000000000000
  0
LINE
  5
13F
100
AcDbEntity
  8
A1
  6
CONTINUOUS
 62
7
100
AcDbLine
 10
1182.384892475412
 20
87.32660666575372
 30
0.000000000000000
 11
1182.384892475412
 21
64.07863329148437
 31
0.000000000000000
  0
LINE
  5
140
100
AcDbEntity
  8
A1
  6
CONTINUOUS
 62
7
100
AcDbLine
 10
1200.234892475412
 20
83.10261997861573
 30
0.000000000000000
 11
1198.034892475412
 21
83.10261997861573
 31
0.000000000000000
  0
LINE
  5
141
100
AcDbEntity
  8
A1
  6
CONTINUOUS
 62
7
100
AcDbLine
 10
1200.434892475412
 20
82.90261997861592
 30
0.000000000000000
 11
1200.434892475412
 21
78.15210972140142
 31
0.000000000000000
  0
LINE
  5
142
100
AcDbEntity
  8
A1
  6
CONTINUOUS
 62
7
100
AcDbLine
 10
1197.834892475412
 20
82.90261997861592
 30
0.000000000000000
 11
1197.834892475412
 21
78.15210972140142
 31
0.000000000000000
  0
ARC
  5
143
100
AcDbEntity
  8
A1
  6
CONTINUOUS
 62
7
100
AcDbCircle
 10
1200.234892475412
 20
82.90261997861592
 30
0.000000000000000
 40
0.2000000000000000
100
AcDbArc
 50
0.000000000000000
 51
90.00000000000000
  0
ARC
  5
144
100
AcDbEntity
  8
A1
  6
CONTINUOUS
 62
7
100
AcDbCircle
 10
1198.034892475412
 20
82.90261997861592
 30
0.000000000000000
 40
0.2000000000000000
100
AcDbArc
 50
90.00000000000000
 51
180.0000000000000
  0
LINE
  5
145
100
AcDbEntity
  8
A1
  6
CONTINUOUS
 62
7
100
AcDbLine
 10
1194.884892475412
 20
85.60261997861846
 30
0.000000000000000
 11
1194.884892475412
 21
87.40261997861501
 31
0.000000000000000
  0
LINE
  5
146
100
AcDbEntity
  8
A1
  6
CONTINUOUS
 62
7
100
AcDbLine
 10
1215.884892475411
 20
66.95261997862229
 30
0.000000000000000
 11
1215.884892475411
 21
84.45261997861502
 31
0.000000000000000
  0
LINE
  5
147
100
AcDbEntity
  8
A1
  6
CONTINUOUS
 62
7
100
AcDbLine
 10
1212.884892475412
 20
84.45261997861473
 30
0.000000000000000
 11
1212.884892475412
 21
66.95261997862201
 31
0.000000000000000
  0
ARC
  5
148
100
AcDbEntity
  8
A1
  6
CONTINUOUS
 62
7
100
AcDbCircle
 10
1199.134892475412
 20
75.70261997861655
 30
0.000000000000000
 40
5.500000000000000
100
AcDbArc
 50
323.1301023541835
 51
396.8698976458443
  0
LINE
  5
149
100
AcDbEntity
  8
A1
  6
CONTINUOUS
 62
7
100
AcDbLine
 10
1202.884892475412
 20
85.10261997861846
 30
0.000000000000000
 11
1195.384892475412
 21
85.10261997861846
 31
0.000000000000000
  0
LINE
  5
14A
100
AcDbEntity
  8
A1
  6
CONTINUOUS
 62
7
100
AcDbLine
 10
1194.634892475412
 20
78.40261997861501
 30
0.000000000000000
 11
1194.634892475412
 21
73.00261997862219
 31
0.000000000000000
  0
LINE
  5
14B
100
AcDbEntity
  8
A1
  6
CONTINUOUS
 62
7
100
AcDbLine
 10
1203.384892475412
 20
87.40261997861501
 30
0.000000000000000
 11
1203.384892475412
 21
85.60261997861846
 31
0.000000000000000
  0
ARC
  5
14C
100
AcDbEntity
  8
A1
  6
CONTINUOUS
 62
7
100
AcDbCircle
 10
1199.134892475412
 20
75.70261997861837
 30
0.000000000000000
 40
2.500000000000000
100
AcDbArc
 50
127.7997224354281
 51
232.2002775645719
  0
ARC
  5
14D
100
AcDbEntity
  8
A1
  6
CONTINUOUS
 62
7
100
AcDbCircle
 10
1199.134892475412
 20
75.70261997861837
 30
0.000000000000000
 40
2.500000000000000
100
AcDbArc
 50
307.7997224354277
 51
412.2002775645719
  0
ARC
  5
14E
100
AcDbEntity
  8
A1
  6
CONTINUOUS
 62
7
100
AcDbCircle
 10
1195.384892475412
 20
85.60261997861846
 30
0.000000000000000
 40
0.5000000000000000
100
AcDbArc
 50
180.0000000000000
 51
270.0000000000000
  0
ARC
  5
14F
100
AcDbEntity
  8
A1
  6
CONTINUOUS
 62
7
100
AcDbCircle
 10
1202.884892475412
 20
85.60261997861846
 30
0.000000000000000
 40
0.5000000000000000
100
AcDbArc
 50
270.0000000000000
 51
360.0000000000000
  0
ARC
  5
150
100
AcDbEntity
  8
A1
  6
CONTINUOUS
 62
7
100
AcDbCircle
 10
1197.234892475412
 20
78.15210972140142
 30
0.000000000000000
 40
0.6000000000000000
100
AcDbArc
 50
307.7997224354273
 51
360.0000000000000
  0
ARC
  5
151
100
AcDbEntity
  8
A1
  6
CONTINUOUS
 62
7
100
AcDbCircle
 10
1201.034892475412
 20
78.15210972140142
 30
0.000000000000000
 40
0.6000000000000000
100
AcDbArc
 50
180.0000000000000
 51
232.2002775645709
  0
ARC
  5
152
100
AcDbEntity
  8
A1
  6
CONTINUOUS
 62
7
100
AcDbCircle
 10
1202.884892475412
 20
85.60261997861846
 30
0.000000000000000
 40
3.500000000000000
100
AcDbArc
 50
285.2184551577777
 51
343.2916562842898
  0
LINE
  5
153
100
AcDbEntity
  8
A1
  6
CONTINUOUS
 62
7
100
AcDbLine
 10
1203.434892475412
 20
81.74289200892974
 30
0.000000000000000
 11
1203.434892475412
 21
79.30261997861646
 31
0.000000000000000
  0
ARC
  5
154
100
AcDbEntity
  8
A1
  6
CONTINUOUS
 62
7
100
AcDbCircle
 10
1203.934892475412
 20
81.74289200892974
 30
0.000000000000000
 40
0.5000000000000000
100
AcDbArc
 50
105.2184551577803
 51
180.0000000000000
  0
LINE
  5
155
100
AcDbEntity
  8
A1
  6
CONTINUOUS
 62
7
100
AcDbLine
 10
1212.384892475412
 20
84.95261997861473
 30
0.000000000000000
 11
1206.716015026308
 21
84.95261997861473
 31
0.000000000000000
  0
ARC
  5
156
100
AcDbEntity
  8
A1
  6
CONTINUOUS
 62
7
100
AcDbCircle
 10
1212.384892475412
 20
84.45261997861473
 30
0.000000000000000
 40
0.5000000000000000
100
AcDbArc
 50
0.000000000000000
 51
90.00000000000000
  0
ARC
  5
157
100
AcDbEntity
  8
A1
  6
CONTINUOUS
 62
7
100
AcDbCircle
 10
1212.384892475412
 20
84.45261997861473
 30
0.000000000000000
 40
3.500000000000000
100
AcDbArc
 50
4.653000000000000e-13
 51
90.00000000000000
  0
ARC
  5
158
100
AcDbEntity
  8
A1
  6
CONTINUOUS
 62
7
100
AcDbCircle
 10
1206.716015026309
 20
84.45261997861473
 30
0.000000000000000
 40
0.5000000000000000
100
AcDbArc
 50
90.00000000000652
 51
163.2916562842906
  0
LINE
  5
159
100
AcDbEntity
  8
A1
  6
CONTINUOUS
 62
7
100
AcDbLine
 10
1191.292834156815
 20
87.95261997861473
 30
0.000000000000000
 11
1194.334892475411
 21
87.95261997861473
 31
0.000000000000000
  0
LINE
  5
15A
100
AcDbEntity
  8
A1
  6
CONTINUOUS
 62
7
100
AcDbLine
 10
1203.934892475412
 20
87.95261997861473
 30
0.000000000000000
 11
1212.384892475412
 21
87.95261997861473
 31
0.000000000000000
  0
ARC
  5
15B
100
AcDbEntity
  8
A1
  6
CONTINUOUS
 62
7
100
AcDbCircle
 10
1203.934892475412
 20
79.30261997861646
 30
0.000000000000000
 40
0.5000000000000000
100
AcDbArc
 50
180.0000000000000
 51
216.8698976458401
  0
LINE
  5
15C
100
AcDbEntity
  8
A1
  6
CONTINUOUS
 62
7
100
AcDbLine
 10
1200.234892475412
 20
68.30261997862146
 30
0.000000000000000
 11
1198.034892475412
 21
68.30261997862146
 31
0.000000000000000
  0
LINE
  5
15D
100
AcDbEntity
  8
A1
  6
CONTINUOUS
 62
7
100
AcDbLine
 10
1200.434892475412
 20
68.50261997862128
 30
0.000000000000000
 11
1200.434892475412
 21
73.25313023583533
 31
0.000000000000000
  0
LINE
  5
15E
100
AcDbEntity
  8
A1
  6
CONTINUOUS
 62
7
100
AcDbLine
 10
1197.834892475412
 20
68.50261997862128
 30
0.000000000000000
 11
1197.834892475412
 21
73.25313023583533
 31
0.000000000000000
  0
ARC
  5
15F
100
AcDbEntity
  8
A1
  6
CONTINUOUS
 62
7
100
AcDbCircle
 10
1200.234892475412
 20
68.50261997862128
 30
0.000000000000000
 40
0.2000000000000000
100
AcDbArc
 50
270.0000000000000
 51
360.0000000000000
  0
ARC
  5
160
100
AcDbEntity
  8
A1
  6
CONTINUOUS
 62
7
100
AcDbCircle
 10
1198.034892475412
 20
68.50261997862128
 30
0.000000000000000
 40
0.2000000000000000
100
AcDbArc
 50
180.0000000000000
 51
270.0000000000000
  0
LINE
  5
161
100
AcDbEntity
  8
A1
  6
CONTINUOUS
 62
7
100
AcDbLine
 10
1194.884892475412
 20
65.80261997861828
 30
0.000000000000000
 11
1194.884892475412
 21
64.00261997862219
 31
0.000000000000000
  0
LINE
  5
162
100
AcDbEntity
  8
A1
  6
CONTINUOUS
 62
7
100
AcDbLine
 10
1202.884892475412
 20
66.30261997861828
 30
0.000000000000000
 11
1195.384892475412
 21
66.30261997861828
 31
0.000000000000000
  0
LINE
  5
163
100
AcDbEntity
  8
A1
  6
CONTINUOUS
 62
7
100
AcDbLine
 10
1203.384892475412
 20
64.00261997862219
 30
0.000000000000000
 11
1203.384892475412
 21
65.80261997861828
 31
0.000000000000000
  0
ARC
  5
164
100
AcDbEntity
  8
A1
  6
CONTINUOUS
 62
7
100
AcDbCircle
 10
1195.384892475412
 20
65.80261997861828
 30
0.000000000000000
 40
0.5000000000000000
100
AcDbArc
 50
90.00000000000000
 51
180.0000000000000
  0
ARC
  5
165
100
AcDbEntity
  8
A1
  6
CONTINUOUS
 62
7
100
AcDbCircle
 10
1202.884892475412
 20
65.80261997861828
 30
0.000000000000000
 40
0.5000000000000000
100
AcDbArc
 50
0.000000000000000
 51
90.00000000000000
  0
ARC
  5
166
100
AcDbEntity
  8
A1
  6
CONTINUOUS
 62
7
100
AcDbCircle
 10
1197.234892475412
 20
73.25313023583533
 30
0.000000000000000
 40
0.6000000000000000
100
AcDbArc
 50
0.000000000000000
 51
52.20027756457263
  0
ARC
  5
167
100
AcDbEntity
  8
A1
  6
CONTINUOUS
 62
7
100
AcDbCircle
 10
1201.034892475412
 20
73.25313023583533
 30
0.000000000000000
 40
0.6000000000000000
100
AcDbArc
 50
127.7997224354290
 51
180.0000000000000
  0
ARC
  5
168
100
AcDbEntity
  8
A1
  6
CONTINUOUS
 62
7
100
AcDbCircle
 10
1202.884892475412
 20
65.80261997861828
 30
0.000000000000000
 40
3.500000000000000
100
AcDbArc
 50
16.70834371571017
 51
74.78154484222227
  0
LINE
  5
169
100
AcDbEntity
  8
A1
  6
CONTINUOUS
 62
7
100
AcDbLine
 10
1203.434892475412
 20
69.66234794830746
 30
0.000000000000000
 11
1203.434892475412
 21
72.10261997862028
 31
0.000000000000000
  0
ARC
  5
16A
100
AcDbEntity
  8
A1
  6
CONTINUOUS
 62
7
100
AcDbCircle
 10
1203.934892475412
 20
69.66234794830746
 30
0.000000000000000
 40
0.5000000000000000
100
AcDbArc
 50
180.0000000000000
 51
254.7815448422206
  0
LINE
  5
16B
100
AcDbEntity
  8
A1
  6
CONTINUOUS
 62
7
100
AcDbLine
 10
1212.384892475412
 20
66.45261997862201
 30
0.000000000000000
 11
1206.716015026308
 21
66.45261997862201
 31
0.000000000000000
  0
ARC
  5
16C
100
AcDbEntity
  8
A1
  6
CONTINUOUS
 62
7
100
AcDbCircle
 10
1212.384892475412
 20
66.95261997862201
 30
0.000000000000000
 40
0.5000000000000000
100
AcDbArc
 50
270.0000000000000
 51
360.0000000000000
  0
ARC
  5
16D
100
AcDbEntity
  8
A1
  6
CONTINUOUS
 62
7
100
AcDbCircle
 10
1212.384892475412
 20
66.95261997862201
 30
0.000000000000000
 40
3.500000000000000
100
AcDbArc
 50
270.0000000000000
 51
359.9999999999996
  0
ARC
  5
16E
100
AcDbEntity
  8
A1
  6
CONTINUOUS
 62
7
100
AcDbCircle
 10
1206.716015026309
 20
66.95261997862201
 30
0.000000000000000
 40
0.5000000000000000
100
AcDbArc
 50
196.7083437157113
 51
269.9999999999935
  0
LINE
  5
16F
100
AcDbEntity
  8
A1
  6
CONTINUOUS
 62
7
100
AcDbLine
 10
1203.934892475412
 20
63.45261997862201
 30
0.000000000000000
 11
1212.384892475412
 21
63.45261997862201
 31
0.000000000000000
  0
ARC
  5
170
100
AcDbEntity
  8
A1
  6
CONTINUOUS
 62
7
100
AcDbCircle
 10
1203.934892475412
 20
72.10261997862028
 30
0.000000000000000
 40
0.5000000000000000
100
AcDbArc
 50
143.1301023541599
 51
180.0000000000000
  0
LINE
  5
171
100
AcDbEntity
  8
A1
  6
CONTINUOUS
 62
7
100
AcDbLine
 10
1182.384892475412
 20
84.40261997861501
 30
0.000000000000000
 11
1188.634892475412
 21
84.40261997861501
 31
0.000000000000000
  0
ARC
  5
172
100
AcDbEntity
  8
A1
  6
CONTINUOUS
 62
7
100
AcDbCircle
 10
1188.634892475412
 20
78.40261997861501
 30
0.000000000000000
 40
6.000000000000000
100
AcDbArc
 50
0.000000000000000
 51
90.00000000000000
  0
LINE
  5
173
100
AcDbEntity
  8
A1
  6
CONTINUOUS
 62
7
100
AcDbLine
 10
1182.384892475412
 20
67.00261997862219
 30
0.000000000000000
 11
1188.634892475412
 21
67.00261997862219
 31
0.000000000000000
  0
ARC
  5
174
100
AcDbEntity
  8
A1
  6
CONTINUOUS
 62
7
100
AcDbCircle
 10
1188.634892475412
 20
73.00261997862219
 30
0.000000000000000
 40
6.000000000000000
100
AcDbArc
 50
270.0000000000000
 51
360.0000000000000
  0
LINE
  5
175
100
AcDbEntity
  8
A1
  6
CONTINUOUS
 62
7
100
AcDbLine
 10
1191.292834156815
 20
63.45261997862201
 30
0.000000000000000
 11
1194.334892475411
 21
63.45261997862201
 31
0.000000000000000
  0
ARC
  5
176
100
AcDbEntity
  8
A1
  6
CONTINUOUS
 62
7
100
AcDbCircle
 10
1194.334892475411
 20
64.00261997862219
 30
0.000000000000000
 40
0.5500000000000000
100
AcDbArc
 50
270.0000000000000
 51
359.9999999999970
  0
ARC
  5
177
100
AcDbEntity
  8
A1
  6
CONTINUOUS
 62
7
100
AcDbCircle
 10
1203.934892475412
 20
64.00261997862219
 30
0.000000000000000
 40
0.5500000000000000
100
AcDbArc
 50
180.0000000000000
 51
270.0000000000000
  0
ARC
  5
178
100
AcDbEntity
  8
A1
  6
CONTINUOUS
 62
7
100
AcDbCircle
 10
1194.334892475411
 20
87.40261997861501
 30
0.000000000000000
 40
0.5500000000000000
100
AcDbArc
 50
2.960800000000000e-12
 51
90.00000000000000
  0
ARC
  5
179
100
AcDbEntity
  8
A1
  6
CONTINUOUS
 62
7
100
AcDbCircle
 10
1203.934892475412
 20
87.40261997861501
 30
0.000000000000000
 40
0.5500000000000000
100
AcDbArc
 50
90.00000000000000
 51
180.0000000000000
  0
ARC
  5
17A
100
AcDbEntity
  8
A1
  6
CONTINUOUS
 62
7
100
AcDbCircle
 10
1187.635277113573
 20
64.20481444663449
 30
0.000000000000000
 40
3.000000000000000
100
AcDbArc
 50
240.0000000000000
 51
319.0442424526630
  0
LINE
  5
17B
100
AcDbEntity
  8
A1
  6
CONTINUOUS
 62
7
100
AcDbLine
 10
1182.990073707096
 20
63.42262226866711
 30
0.000000000000000
 11
1186.135277113573
 21
61.60673823528174
 31
0.000000000000000
  0
LINE
  5
17C
100
AcDbEntity
  8
A1
  6
CONTINUOUS
 62
7
100
AcDbLine
 10
1190.679998602320
 20
63.16685006637044
 30
0.000000000000000
 11
1189.900924959122
 21
62.23838625319320
 31
0.000000000000000
  0
ARC
  5
17D
100
AcDbEntity
  8
A1
  6
CONTINUOUS
 62
7
100
AcDbCircle
 10
1191.292834156815
 20
88.75261997861492
 30
0.000000000000000
 40
0.8000000000000000
100
AcDbArc
 50
219.9999999999991
 51
270.0000000000000
  0
ARC
  5
17E
100
AcDbEntity
  8
A1
  6
CONTINUOUS
 62
7
100
AcDbCircle
 10
1191.292834156815
 20
62.65261997862228
 30
0.000000000000000
 40
0.8000000000000000
100
AcDbArc
 50
90.00000000000000
 51
140.0000000000009
  0
ARC
  5
17F
100
AcDbEntity
  8
A1
  6
CONTINUOUS
 62
7
100
AcDbCircle
 10
1183.740073707096
 20
64.72166037434329
 30
0.000000000000000
 40
1.500000000000000
100
AcDbArc
 50
205.3841182138332
 51
240.0000000000000
  0
ARC
  5
180
100
AcDbEntity
  8
A1
  6
CONTINUOUS
 62
7
100
AcDbCircle
 10
1183.740073707096
 20
86.68357958289346
 30
0.000000000000000
 40
1.500000000000000
100
AcDbArc
 50
120.0000000000000
 51
154.6158817861668
  0
LINE
  5
181
100
AcDbEntity
  8
A1
  6
CONTINUOUS
 62
7
100
AcDbLine
 10
1182.384892475413
 20
86.58233186578809
 30
0.000000000000000
 11
1177.884892475412
 21
86.58233186578786
 31
0.000000000000000
  0
LINE
  5
182
100
AcDbEntity
  8
A1
  6
CONTINUOUS
 62
7
100
AcDbLine
 10
1182.384892475412
 20
64.82290809144945
 30
0.000000000000000
 11
1177.884892475412
 21
64.82290809144945
 31
0.000000000000000
  0
LINE
  5
183
100
AcDbEntity
  8
A1
  6
CONTINUOUS
 62
7
100
AcDbLine
 10
1185.462900282077
 20
61.99493517994200
 30
0.000000000000000
 11
1177.884892475412
 21
61.99493517994217
 31
0.000000000000000
  0
LINE
  5
184
100
AcDbEntity
  8
A1
  6
CONTINUOUS
 62
7
100
AcDbLine
 10
1185.462900282079
 20
89.41030477729564
 30
0.000000000000000
 11
1177.884892475412
 21
89.41030477729529
 31
0.000000000000000
  0
ARC
  5
185
100
AcDbEntity
  8
A1
  6
CONTINUOUS
 62
7
100
AcDbCircle
 10
1209.884892475412
 20
88.20261997861883
 30
0.000000000000000
 40
3.000000000000000
100
AcDbArc
 50
354.5682350366596
 51
360.0000000000000
  0
LINE
  5
186
100
AcDbEntity
  8
A1
  6
CONTINUOUS
 62
7
100
AcDbLine
 10
822.7848924754105
 20
49.25261997861858
 30
0.000000000000000
 11
822.7848924754106
 21
40.80261997861739
 31
0.000000000000000
  0
LINE
  5
187
100
AcDbEntity
  8
A1
  6
CONTINUOUS
 62
7
100
AcDbLine
 10
819.8848924754192
 20
94.50261997861857
 30
0.000000000000000
 11
65.78489247542156
 21
94.50261997861834
 31
0.000000000000000
  0
LINE
  5
188
100
AcDbEntity
  8
A3
  6
DASHED
 62
2
100
AcDbLine
 10
819.8848924754200
 20
90.80261997861832
 30
0.000000000000000
 11
65.98119394221230
 21
90.80261997861849
 31
0.000000000000000
  0
CIRCLE
  5
189
100
AcDbEntity
  8
A1
  6
CONTINUOUS
 62
7
100
AcDbCircle
 10
97.58489247542047
 20
75.70261997861837
 30
0.000000000000000
 40
2.600000000000000
  0
CIRCLE
  5
18A
100
AcDbEntity
  8
A1
  6
CONTINUOUS
 62
7
100
AcDbCircle
 10
116.6848924754208
 20
75.70261997861837
 30
0.000000000000000
 40
3.299999999999999
  0
CIRCLE
  5
18B
100
AcDbEntity
  8
A1
  6
CONTINUOUS
 62
7
100
AcDbCircle
 10
161.0848924754229
 20
75.70261997861837
 30
0.000000000000000
 40
3.299999999999999
  0
CIRCLE
  5
18C
100
AcDbEntity
  8
A1
  6
CONTINUOUS
 62
7
100
AcDbCircle
 10
148.3848924754185
 20
75.70261997861837
 30
0.000000000000000
 40
2.600000000000000
  0
CIRCLE
  5
18D
100
AcDbEntity
  8
A1
  6
CONTINUOUS
 62
7
100
AcDbCircle
 10
288.0848924754210
 20
75.70261997861837
 30
0.000000000000000
 40
3.299999999999999
  0
CIRCLE
  5
18E
100
AcDbEntity
  8
A1
  6
CONTINUOUS
 62
7
100
AcDbCircle
 10
275.3848924754221
 20
75.70261997861837
 30
0.000000000000000
 40
2.600000000000000
  0
CIRCLE
  5
18F
100
AcDbEntity
  8
A1
  6
CONTINUOUS
 62
7
100
AcDbCircle
 10
135.6848924754208
 20
75.70261997861837
 30
0.000000000000000
 40
3.299999999999999
  0
CIRCLE
  5
190
100
AcDbEntity
  8
A1
  6
CONTINUOUS
 62
7
100
AcDbCircle
 10
224.5848924754210
 20
75.70261997861837
 30
0.000000000000000
 40
3.299999999999999
  0
CIRCLE
  5
191
100
AcDbEntity
  8
A1
  6
CONTINUOUS
 62
7
100
AcDbCircle
 10
211.8848924754221
 20
75.70261997861837
 30
0.000000000000000
 40
2.600000000000000
  0
CIRCLE
  5
192
100
AcDbEntity
  8
A1
  6
CONTINUOUS
 62
7
100
AcDbCircle
 10
307.1848924754210
 20
75.70261997861883
 30
0.000000000000000
 40
3.550000000000000
  0
CIRCLE
  5
193
100
AcDbEntity
  8
A1
  6
CONTINUOUS
 62
7
100
AcDbCircle
 10
465.8848924754208
 20
75.70261997861837
 30
0.000000000000000
 40
3.299999999999999
  0
CIRCLE
  5
194
100
AcDbEntity
  8
A1
  6
CONTINUOUS
 62
7
100
AcDbCircle
 10
453.1848924754219
 20
75.70261997861837
 30
0.000000000000000
 40
2.600000000000000
  0
LINE
  5
195
100
AcDbEntity
  8
A1
  6
CONTINUOUS
 62
7
100
AcDbLine
 10
653.1348924754235
 20
72.40261997861955
 30
0.000000000000000
 11
643.8348924754133
 21
72.40261997861955
 31
0.000000000000000
  0
ARC
  5
196
100
AcDbEntity
  8
A1
  6
CONTINUOUS
 62
7
100
AcDbCircle
 10
653.1348924754235
 20
75.70261997861883
 30
0.000000000000000
 40
3.299999999999999
100
AcDbArc
 50
270.0000000000000
 51
450.0000000000000
  0
ARC
  5
197
100
AcDbEntity
  8
A1
  6
CONTINUOUS
 62
7
100
AcDbCircle
 10
643.8348924754133
 20
75.70261997861883
 30
0.000000000000000
 40
3.299999999999999
100
AcDbArc
 50
90.00000000000000
 51
270.0000000000000
  0
LINE
  5
198
100
AcDbEntity
  8
A1
  6
CONTINUOUS
 62
7
100
AcDbLine
 10
653.1348924754235
 20
79.00261997861810
 30
0.000000000000000
 11
643.8348924754133
 21
79.00261997861810
 31
0.000000000000000
  0
CIRCLE
  5
199
100
AcDbEntity
  8
A1
  6
CONTINUOUS
 62
7
100
AcDbCircle
 10
630.9848924754148
 20
75.70261997861883
 30
0.000000000000000
 40
3.550000000000000
  0
CIRCLE
  5
19A
100
AcDbEntity
  8
A1
  6
CONTINUOUS
 62
7
100
AcDbCircle
 10
708.6848924754096
 20
75.70261997861883
 30
0.000000000000000
 40
3.299999999999999
  0
CIRCLE
  5
19B
100
AcDbEntity
  8
A1
  6
CONTINUOUS
 62
7
100
AcDbCircle
 10
721.3848924754103
 20
75.70261997861883
 30
0.000000000000000
 40
2.600000000000000
  0
LINE
  5
19C
100
AcDbEntity
  8
A1
  6
CONTINUOUS
 62
7
100
AcDbLine
 10
736.2348924754107
 20
73.10261997861846
 30
0.000000000000000
 11
731.9348924754205
 21
73.10261997861846
 31
0.000000000000000
  0
ARC
  5
19D
100
AcDbEntity
  8
A1
  6
CONTINUOUS
 62
7
100
AcDbCircle
 10
736.2348924754107
 20
75.70261997861883
 30
0.000000000000000
 40
2.600000000000000
100
AcDbArc
 50
270.0000000000000
 51
450.0000000000000
  0
ARC
  5
19E
100
AcDbEntity
  8
A1
  6
CONTINUOUS
 62
7
100
AcDbCircle
 10
731.9348924754205
 20
75.70261997861883
 30
0.000000000000000
 40
2.600000000000000
100
AcDbArc
 50
90.00000000000000
 51
270.0000000000000
  0
LINE
  5
19F
100
AcDbEntity
  8
A1
  6
CONTINUOUS
 62
7
100
AcDbLine
 10
736.2348924754107
 20
78.30261997861919
 30
0.000000000000000
 11
731.9348924754205
 21
78.30261997861919
 31
0.000000000000000
  0
LINE
  5
1A0
100
AcDbEntity
  8
A1
  6
CONTINUOUS
 62
7
100
AcDbLine
 10
782.5848924754101
 20
87.20261997861623
 30
0.000000000000000
 11
785.0848924754038
 21
87.20261997861844
 31
0.000000000000000
  0
LINE
  5
1A1
100
AcDbEntity
  8
A1
  6
CONTINUOUS
 62
7
100
AcDbLine
 10
782.5848924754088
 20
87.20261997861671
 30
0.000000000000000
 11
782.5848924754306
 21
64.20261997861580
 31
0.000000000000000
  0
LINE
  5
1A2
100
AcDbEntity
  8
A1
  6
CONTINUOUS
 62
7
100
AcDbLine
 10
785.0848924754091
 20
87.20261997861850
 30
0.000000000000000
 11
785.0848924754200
 21
64.20261997861759
 31
0.000000000000000
  0
LINE
  5
1A3
100
AcDbEntity
  8
A1
  6
CONTINUOUS
 62
7
100
AcDbLine
 10
778.2848924754088
 20
85.20261997861233
 30
0.000000000000000
 11
778.2848924754197
 21
66.20261997861233
 31
0.000000000000000
  0
ARC
  5
1A4
100
AcDbEntity
  8
A1
  6
CONTINUOUS
 62
7
100
AcDbCircle
 10
780.2848924754086
 20
85.20261997861428
 30
0.000000000000000
 40
2.000000000000000
100
AcDbArc
 50
90.00000000005539
 51
180.0000000000521
  0
ARC
  5
1A5
100
AcDbEntity
  8
A3
  6
CONTINUOUS
 62
4
100
AcDbCircle
 10
780.2848924754195
 20
66.20261997861428
 30
0.000000000000000
 40
2.000000000000000
100
AcDbArc
 50
180.0000000000521
 51
270.0000000000554
  0
LINE
  5
1A6
100
AcDbEntity
  8
A1
  6
CONTINUOUS
 62
7
100
AcDbLine
 10
782.5848924754308
 20
64.20261997861572
 30
0.000000000000000
 11
785.0848924754199
 21
64.20261997861805
 31
0.000000000000000
  0
LINE
  5
1A7
100
AcDbEntity
  8
A1
  6
CONTINUOUS
 62
7
100
AcDbLine
 10
819.8848924754199
 20
56.90261997861865
 30
0.000000000000000
 11
819.8848924754199
 21
94.50261997861901
 31
0.000000000000000
  0
LINE
  5
1A8
100
AcDbEntity
  8
A1
  6
CONTINUOUS
 62
7
100
AcDbLine
 10
780.2848924754067
 20
87.20261997861411
 30
0.000000000000000
 11
782.5848924754096
 21
87.20261997861644
 31
0.000000000000000
  0
LINE
  5
1A9
100
AcDbEntity
  8
A3
  6
CONTINUOUS
 62
4
100
AcDbLine
 10
780.2848924754211
 20
64.20261997861316
 30
0.000000000000000
 11
782.5848924754313
 21
64.20261997861532
 31
0.000000000000000
  0
LINE
  5
1AA
100
AcDbEntity
  8
A1
  6
CONTINUOUS
 62
7
100
AcDbLine
 10
65.78489247542818
 20
87.20261997861911
 30
0.000000000000000
 11
68.28489247542227
 21
87.20261997862139
 31
0.000000000000000
  0
ARC
  5
1AB
100
AcDbEntity
  8
A1
  6
CONTINUOUS
 62
7
100
AcDbCircle
 10
67.78489247542711
 20
88.20261997862065
 30
0.000000000000000
 40
1.000000000000000
100
AcDbArc
 50
270.0000000000521
 51
420.0000000000475
  0
LINE
  5
1AC
100
AcDbEntity
  8
A1
  6
CONTINUOUS
 62
7
100
AcDbLine
 10
66.78489247542571
 20
89.93467078618998
 30
0.000000000000000
 11
68.28489247542633
 21
89.06864538240626
 31
0.000000000000000
  0
LINE
  5
1AD
100
AcDbEntity
  8
A1
  6
CONTINUOUS
 62
7
100
AcDbLine
 10
65.78489247542143
 20
94.50261997861885
 30
0.000000000000000
 11
65.78489247542404
 21
91.66672159375590
 31
0.000000000000000
  0
ARC
  5
1AE
100
AcDbEntity
  8
A1
  6
CONTINUOUS
 62
7
100
AcDbCircle
 10
67.78489247542393
 20
91.66672159375969
 30
0.000000000000000
 40
2.000000000000000
100
AcDbArc
 50
180.0000000000554
 51
240.0000000000566
  0
LINE
  5
1AF
100
AcDbEntity
  8
A1
  6
CONTINUOUS
 62
7
100
AcDbLine
 10
65.78489247542771
 20
87.20261997861856
 30
0.000000000000000
 11
65.78489247544954
 21
64.20261997861765
 31
0.000000000000000
  0
LINE
  5
1B0
100
AcDbEntity
  8
A1
  6
CONTINUOUS
 62
7
100
AcDbLine
 10
68.28489247542791
 20
87.20261997862079
 30
0.000000000000000
 11
68.28489247543882
 21
64.20261997861988
 31
0.000000000000000
  0
LINE
  5
1B1
100
AcDbEntity
  8
A1
  6
CONTINUOUS
 62
7
100
AcDbLine
 10
65.78489247545001
 20
64.20261997861820
 30
0.000000000000000
 11
68.28489247543909
 21
64.20261997862048
 31
0.000000000000000
  0
ARC
  5
1B2
100
AcDbEntity
  8
A1
  6
CONTINUOUS
 62
7
100
AcDbCircle
 10
67.78489247545076
 20
63.20261997862065
 30
0.000000000000000
 40
1.000000000000000
100
AcDbArc
 50
300.0000000000687
 51
450.0000000000521
  0
LINE
  5
1B3
100
AcDbEntity
  8
A1
  6
CONTINUOUS
 62
7
100
AcDbLine
 10
66.78489247545275
 20
61.47056917104965
 30
0.000000000000000
 11
68.28489247545187
 21
62.33659457483598
 31
0.000000000000000
  0
LINE
  5
1B4
100
AcDbEntity
  8
A1
  6
CONTINUOUS
 62
7
100
AcDbLine
 10
65.78489247545656
 20
56.90261997861849
 30
0.000000000000000
 11
65.78489247545394
 21
59.73851836348236
 31
0.000000000000000
  0
ARC
  5
1B5
100
AcDbEntity
  8
A1
  6
CONTINUOUS
 62
7
100
AcDbCircle
 10
67.78489247545394
 20
59.73851836348342
 30
0.000000000000000
 40
2.000000000000000
100
AcDbArc
 50
120.0000000000517
 51
180.0000000000554
  0
LINE
  5
1B6
100
AcDbEntity
  8
A1
  6
CONTINUOUS
 62
7
100
AcDbLine
 10
819.8848924754191
 20
89.41030477729406
 30
0.000000000000000
 11
1167.884892475411
 21
89.41030477729514
 31
0.000000000000000
  0
LINE
  5
1B7
100
AcDbEntity
  8
A1
  6
CONTINUOUS
 62
7
100
AcDbLine
 10
819.8848924754195
 20
61.99493517994300
 30
0.000000000000000
 11
1167.884892475412
 21
61.99493517994107
 31
0.000000000000000
  0
LINE
  5
1B8
100
AcDbEntity
  8
A1
  6
CONTINUOUS
 62
7
100
AcDbLine
 10
462.2848924754198
 20
56.90261997861831
 30
0.000000000000000
 11
462.2848924754214
 21
49.25261997861868
 31
0.000000000000000
  0
LINE
  5
1B9
100
AcDbEntity
  8
A1
  6
CONTINUOUS
 62
7
100
AcDbLine
 10
819.8848924754196
 20
56.90261997861874
 30
0.000000000000000
 11
65.78489247542140
 21
56.90261997861908
 31
0.000000000000000
  0
LINE
  5
1BA
100
AcDbEntity
  8
A3
  6
DASHED
 62
2
100
AcDbLine
 10
819.8848924754197
 20
60.60261997861932
 30
0.000000000000000
 11
65.98119394223950
 21
60.60261997861915
 31
0.000000000000000
  0
LINE
  5
1BB
100
AcDbEntity
  8
A1
  6
CONTINUOUS
 62
7
100
AcDbLine
 10
1212.884892475412
 20
49.25261997861901
 30
0.000000000000000
 11
462.2848924754104
 21
49.25261997861901
 31
0.000000000000000
  0
LINE
  5
1BC
100
AcDbEntity
  8
A1
  6
CONTINUOUS
 62
7
100
AcDbLine
 10
1212.884892475412
 20
52.91677468249884
 30
0.000000000000000
 11
462.2848924754104
 21
52.91677468249884
 31
0.000000000000000
  0
LINE
  5
1BD
100
AcDbEntity
  8
A1
  6
CONTINUOUS
 62
7
100
AcDbLine
 10
1584.784892475409
 20
40.80261997862048
 30
0.000000000000000
 11
822.7848924754089
 21
40.80261997861769
 31
0.000000000000000
  0
LINE
  5
1BE
100
AcDbEntity
  8
A1
  6
CONTINUOUS
 62
7
100
AcDbLine
 10
1584.673951102062
 20
45.20261997861928
 30
0.000000000000000
 11
822.7848924754104
 21
45.20261997861928
 31
0.000000000000000
  0
LINE
  5
1BF
100
AcDbEntity
  8
A4
  6
CENTER
 62
1
100
AcDbLine
 10
1324.484892475410
 20
82.80261997861874
 30
0.000000000000000
 11
1324.484892475410
 21
68.60261997861892
 31
0.000000000000000
  0
LINE
  5
1C0
100
AcDbEntity
  8
A4
  6
CENTER
 62
1
100
AcDbLine
 10
1337.184892475409
 20
83.50261997861855
 30
0.000000000000000
 11
1337.184892475409
 21
67.90261997861865
 31
0.000000000000000
  0
LINE
  5
1C1
100
AcDbEntity
  8
A4
  6
CENTER
 62
1
100
AcDbLine
 10
1362.584892475409
 20
67.85261997861937
 30
0.000000000000000
 11
1362.584892475409
 21
83.55261997861828
 31
0.000000000000000
  0
LINE
  5
1C2
100
AcDbEntity
  8
A4
  6
CENTER
 62
1
100
AcDbLine
 10
1349.884892475408
 20
82.80261997861783
 30
0.000000000000000
 11
1349.884892475408
 21
68.60261997861755
 31
0.000000000000000
  0
LINE
  5
1C3
100
AcDbEntity
  8
A4
  6
CENTER
 62
1
100
AcDbLine
 10
1540.384892475409
 20
67.85261997861937
 30
0.000000000000000
 11
1540.384892475409
 21
83.55261997861828
 31
0.000000000000000
  0
LINE
  5
1C4
100
AcDbEntity
  8
A4
  6
CENTER
 62
1
100
AcDbLine
 10
1553.084892475408
 20
83.50261997861810
 30
0.000000000000000
 11
1553.084892475408
 21
67.90261997861819
 31
0.000000000000000
  0
LINE
  5
1C5
100
AcDbEntity
  8
A4
  6
CENTER
 62
1
100
AcDbLine
 10
1524.484892475407
 20
83.50261997861810
 30
0.000000000000000
 11
1524.484892475407
 21
67.90261997861819
 31
0.000000000000000
  0
LINE
  5
1C6
100
AcDbEntity
  8
A4
  6
CENTER
 62
1
100
AcDbLine
 10
1511.784892475408
 20
82.80261997861828
 30
0.000000000000000
 11
1511.784892475408
 21
68.60261997861801
 31
0.000000000000000
  0
LINE
  5
1C7
100
AcDbEntity
  8
A4
  6
CENTER
 62
1
100
AcDbLine
 10
1469.784892475409
 20
82.80261997861828
 30
0.000000000000000
 11
1469.784892475409
 21
68.60261997861801
 31
0.000000000000000
  0
LINE
  5
1C8
100
AcDbEntity
  8
A4
  6
CENTER
 62
1
100
AcDbLine
 10
1495.884892475407
 20
67.90261997861865
 30
0.000000000000000
 11
1495.884892475407
 21
83.50261997861719
 31
0.000000000000000
  0
LINE
  5
1C9
100
AcDbEntity
  8
A4
  6
CENTER
 62
1
100
AcDbLine
 10
1479.984892475409
 20
68.60261997861755
 30
0.000000000000000
 11
1479.984892475409
 21
82.80261997861828
 31
0.000000000000000
  0
LINE
  5
1CA
100
AcDbEntity
  8
A4
  6
CENTER
 62
1
100
AcDbLine
 10
1194.484892475411
 20
83.15231441764502
 30
0.000000000000000
 11
1181.284892475412
 21
83.15231441764502
 31
0.000000000000000
  0
LINE
  5
1CB
100
AcDbEntity
  8
A4
  6
CENTER
 62
1
100
AcDbLine
 10
1187.884892475412
 20
89.75231441764538
 30
0.000000000000000
 11
1187.884892475412
 21
76.55231441764511
 31
0.000000000000000
  0
LINE
  5
1CC
100
AcDbEntity
  8
A4
  6
CENTER
 62
1
100
AcDbLine
 10
1194.484892475411
 20
68.15231441764411
 30
0.000000000000000
 11
1181.284892475412
 21
68.15231441764411
 31
0.000000000000000
  0
LINE
  5
1CD
100
AcDbEntity
  8
A4
  6
CENTER
 62
1
100
AcDbLine
 10
1187.884892475412
 20
74.75231441764447
 30
0.000000000000000
 11
1187.884892475412
 21
61.55231441764420
 31
0.000000000000000
  0
LINE
  5
1CE
100
AcDbEntity
  8
A4
  6
CENTER
 62
1
100
AcDbLine
 10
835.4848924754111
 20
82.80261997862010
 30
0.000000000000000
 11
835.4848924754111
 21
68.60261997861983
 31
0.000000000000000
  0
LINE
  5
1CF
100
AcDbEntity
  8
A4
  6
CENTER
 62
1
100
AcDbLine
 10
854.5848924754115
 20
83.50261997861992
 30
0.000000000000000
 11
854.5848924754115
 21
67.90261997862001
 31
0.000000000000000
  0
LINE
  5
1D0
100
AcDbEntity
  8
A4
  6
CENTER
 62
1
100
AcDbLine
 10
844.9848924754116
 20
67.85261997862074
 30
0.000000000000000
 11
844.9848924754116
 21
83.55261997861965
 31
0.000000000000000
  0
LINE
  5
1D1
100
AcDbEntity
  8
A4
  6
CENTER
 62
1
100
AcDbLine
 10
911.6848924754119
 20
83.50261997861992
 30
0.000000000000000
 11
911.6848924754119
 21
67.90261997862001
 31
0.000000000000000
  0
LINE
  5
1D2
100
AcDbEntity
  8
A4
  6
CENTER
 62
1
100
AcDbLine
 10
898.9848924754111
 20
82.80261997862010
 30
0.000000000000000
 11
898.9848924754111
 21
68.60261997861983
 31
0.000000000000000
  0
LINE
  5
1D3
100
AcDbEntity
  8
A4
  6
CENTER
 62
1
100
AcDbLine
 10
876.8848924754117
 20
83.50261997861946
 30
0.000000000000000
 11
876.8848924754117
 21
67.90261997862092
 31
0.000000000000000
  0
LINE
  5
1D4
100
AcDbEntity
  8
A4
  6
CENTER
 62
1
100
AcDbLine
 10
864.1848924754119
 20
83.87957524079013
 30
0.000000000000000
 11
864.1848924754119
 21
67.52566471645025
 31
0.000000000000000
  0
LINE
  5
1D5
100
AcDbEntity
  8
A4
  6
CENTER
 62
1
100
AcDbLine
 10
911.6848924754128
 20
83.50261997862037
 30
0.000000000000000
 11
911.6848924754128
 21
67.90261997862046
 31
0.000000000000000
  0
LINE
  5
1D6
100
AcDbEntity
  8
A4
  6
CENTER
 62
1
100
AcDbLine
 10
898.9848924754120
 20
82.80261997862056
 30
0.000000000000000
 11
898.9848924754120
 21
68.60261997862028
 31
0.000000000000000
  0
LINE
  5
1D7
100
AcDbEntity
  8
A4
  6
CENTER
 62
1
100
AcDbLine
 10
630.9848924754148
 20
83.75261997861855
 30
0.000000000000000
 11
630.9848924754148
 21
67.65261997861865
 31
0.000000000000000
  0
LINE
  5
1D8
100
AcDbEntity
  8
A4
  6
CENTER
 62
1
100
AcDbLine
 10
708.6848924754096
 20
83.50261997861855
 30
0.000000000000000
 11
708.6848924754096
 21
67.90261997861865
 31
0.000000000000000
  0
LINE
  5
1D9
100
AcDbEntity
  8
A4
  6
CENTER
 62
1
100
AcDbLine
 10
721.3848924754103
 20
82.80261997861874
 30
0.000000000000000
 11
721.3848924754103
 21
68.60261997861892
 31
0.000000000000000
  0
LINE
  5
1DA
100
AcDbEntity
  8
A4
  6
CENTER
 62
1
100
AcDbLine
 10
734.0848924754092
 20
82.80261997861919
 30
0.000000000000000
 11
734.0848924754092
 21
68.60261997861846
 31
0.000000000000000
  0
LINE
  5
1DB
100
AcDbEntity
  8
A4
  6
CENTER
 62
1
100
AcDbLine
 10
97.58489247542047
 20
82.80261997861828
 30
0.000000000000000
 11
97.58489247542047
 21
68.60261997861801
 31
0.000000000000000
  0
LINE
  5
1DC
100
AcDbEntity
  8
A4
  6
CENTER
 62
1
100
AcDbLine
 10
116.6848924754208
 20
83.50261997861810
 30
0.000000000000000
 11
116.6848924754208
 21
67.90261997861819
 31
0.000000000000000
  0
LINE
  5
1DD
100
AcDbEntity
  8
A4
  6
CENTER
 62
1
100
AcDbLine
 10
135.6848924754208
 20
83.50261997861810
 30
0.000000000000000
 11
135.6848924754208
 21
67.90261997861819
 31
0.000000000000000
  0
LINE
  5
1DE
100
AcDbEntity
  8
A4
  6
CENTER
 62
1
100
AcDbLine
 10
148.3848924754185
 20
82.80261997861828
 30
0.000000000000000
 11
148.3848924754185
 21
68.60261997861801
 31
0.000000000000000
  0
LINE
  5
1DF
100
AcDbEntity
  8
A4
  6
CENTER
 62
1
100
AcDbLine
 10
161.0848924754229
 20
83.50261997861810
 30
0.000000000000000
 11
161.0848924754229
 21
67.90261997861819
 31
0.000000000000000
  0
LINE
  5
1E0
100
AcDbEntity
  8
A4
  6
CENTER
 62
1
100
AcDbLine
 10
211.8848924754221
 20
82.80261997861828
 30
0.000000000000000
 11
211.8848924754221
 21
68.60261997861801
 31
0.000000000000000
  0
LINE
  5
1E1
100
AcDbEntity
  8
A4
  6
CENTER
 62
1
100
AcDbLine
 10
224.5848924754210
 20
83.50261997861810
 30
0.000000000000000
 11
224.5848924754210
 21
67.90261997861819
 31
0.000000000000000
  0
LINE
  5
1E2
100
AcDbEntity
  8
A4
  6
CENTER
 62
1
100
AcDbLine
 10
275.3848924754221
 20
82.80261997861828
 30
0.000000000000000
 11
275.3848924754221
 21
68.60261997861801
 31
0.000000000000000
  0
LINE
  5
1E3
100
AcDbEntity
  8
A4
  6
CENTER
 62
1
100
AcDbLine
 10
288.0848924754210
 20
83.50261997861810
 30
0.000000000000000
 11
288.0848924754210
 21
67.90261997861819
 31
0.000000000000000
  0
LINE
  5
1E4
100
AcDbEntity
  8
A4
  6
CENTER
 62
1
100
AcDbLine
 10
307.1848924754210
 20
83.75261997861855
 30
0.000000000000000
 11
307.1848924754210
 21
67.65261997861865
 31
0.000000000000000
  0
LINE
  5
1E5
100
AcDbEntity
  8
A4
  6
CENTER
 62
1
100
AcDbLine
 10
465.8848924754208
 20
83.50261997861810
 30
0.000000000000000
 11
465.8848924754208
 21
67.90261997861819
 31
0.000000000000000
  0
LINE
  5
1E6
100
AcDbEntity
  8
A4
  6
CENTER
 62
1
100
AcDbLine
 10
453.1848924754219
 20
82.80261997861828
 30
0.000000000000000
 11
453.1848924754219
 21
68.60261997861801
 31
0.000000000000000
  0
LINE
  5
1E7
100
AcDbEntity
  8
A4
  6
CENTER
 62
1
100
AcDbLine
 10
1095.784892475409
 20
83.55261997861828
 30
0.000000000000000
 11
1095.784892475409
 21
67.85261997861892
 31
0.000000000000000
  0
LINE
  5
1E8
100
AcDbEntity
  8
A4
  6
CENTER
 62
1
100
AcDbLine
 10
1083.084892475408
 20
83.87957524078922
 30
0.000000000000000
 11
1083.084892475408
 21
67.52566471644889
 31
0.000000000000000
  0
LINE
  5
1E9
100
AcDbEntity
  8
A4
  6
CENTER
 62
1
100
AcDbLine
 10
1070.384892475409
 20
83.50261997861901
 30
0.000000000000000
 11
1070.384892475409
 21
67.90261997861910
 31
0.000000000000000
  0
LINE
  5
1EA
100
AcDbEntity
  8
A4
  6
CENTER
 62
1
100
AcDbLine
 10
1057.684892475410
 20
82.80261997861874
 30
0.000000000000000
 11
1057.684892475410
 21
68.60261997861892
 31
0.000000000000000
  0
LINE
  5
1EB
100
AcDbEntity
  8
A4
  6
CENTER
 62
1
100
AcDbLine
 10
61.28489247542166
 20
75.70261997861883
 30
0.000000000000000
 11
1589.284892475409
 21
75.70261997861883
 31
0.000000000000000
  0
LINE
  5
1EC
100
AcDbEntity
  8
A4
  6
CENTER
 62
1
100
AcDbLine
 10
648.4848924754148
 20
83.50261997861810
 30
0.000000000000000
 11
648.4848924754148
 21
67.90261997861955
 31
0.000000000000000
  0
SPLINE
  5
1ED
100
AcDbEntity
  8
A1
  6
CONTINUOUS
 62
7
100
AcDbSpline
210
0.000000000000000
220
0.000000000000000
230
1.000000000000000
 70
     8
 71
     3
 72
    12
 73
     8
 74
     0
 42
1.000000000000000e-07
 43
1.000000000000000e-07
 12
-0.8305197130976012
 22
0.5569892334397082
 32
0.000000000000000
 13
-0.9922250697709387
 23
0.1244564616827120
 33
0.000000000000000
 40
0.000000000000000
 40
0.000000000000000
 40
0.000000000000000
 40
0.000000000000000
 40
0.1476387386511242
 40
0.2822857224892500
 40
0.4255565306639333
 40
0.5380608954054998
 40
0.6041930190001960
 40
0.6041930190001960
 40
0.6041930190001960
 40
0.6041930190001960
 10
1582.870679475409
 20
194.4299833930796
 30
0.000000000000000
 10
1582.829807181120
 20
194.4573944557020
 30
0.000000000000000
 10
1582.751068172786
 20
194.5088711033774
 30
0.000000000000000
 10
1582.631437962894
 20
194.5853225523507
 30
0.000000000000000
 10
1582.518842190302
 20
194.6499892634903
 30
0.000000000000000
 10
1582.422624939356
 20
194.6996501241430
 30
0.000000000000000
 10
1582.363679168234
 20
194.7110882613462
 30
0.000000000000000
 10
1582.341806517918
 20
194.7138317847149
 30
0.000000000000000
  0
ARC
  5
1EE
100
AcDbEntity
  8
A1
  6
CONTINUOUS
 62
7
100
AcDbCircle
 10
1582.284892475410
 20
192.2138317847149
 30
0.000000000000000
 40
2.500000000000000
100
AcDbArc
 50
0.000000000000000
 51
36.86992168959740
  0
ARC
  5
1EF
100
AcDbEntity
  8
A1
  6
CONTINUOUS
 62
7
100
AcDbCircle
 10
1582.284892475410
 20
192.2138317847144
 30
0.000000000000000
 40
2.500000000000733
100
AcDbArc
 50
36.86992168960941
 51
88.73278272353667
  0
ARC
  5
1F0
100
AcDbEntity
  8
A1
  6
CONTINUOUS
 62
7
100
AcDbCircle
 10
1581.930193100109
 20
193.0138317847146
 30
0.000000000000000
 40
1.699999999999980
100
AcDbArc
 50
45.00000000001349
 51
56.41129919730653
  0
ARC
  5
1F1
100
AcDbEntity
  8
A1
  6
CONTINUOUS
 62
7
100
AcDbCircle
 10
1582.784888753252
 20
191.7348667989364
 30
0.000000000000000
 40
2.000003722157540
100
AcDbArc
 50
0.000000000000000
 51
44.99993810155833
  0
LINE
  5
1F2
100
AcDbEntity
  8
A1
  6
CONTINUOUS
 62
7
100
AcDbLine
 10
1582.284892475410
 20
179.2138317847153
 30
0.000000000000000
 11
1582.284892475410
 21
180.0138317847114
 31
0.000000000000000
  0
LINE
  5
1F3
100
AcDbEntity
  8
A1
  6
CONTINUOUS
 62
7
100
AcDbLine
 10
1584.784892475410
 20
191.7348677989412
 30
0.000000000000000
 11
1584.784892475410
 21
192.2138317847153
 31
0.000000000000000
  0
LINE
  5
1F4
100
AcDbEntity
  8
A1
  6
CONTINUOUS
 62
7
100
AcDbLine
 10
1584.784892475410
 20
179.2138317847153
 30
0.000000000000000
 11
1584.784892475410
 21
180.0138317847114
 31
0.000000000000000
  0
LINE
  5
1F5
100
AcDbEntity
  8
A1
  6
CONTINUOUS
 62
7
100
AcDbLine
 10
1584.784892475410
 20
179.2138317847153
 30
0.000000000000000
 11
1584.784892475410
 21
174.2138317847153
 31
0.000000000000000
  0
LINE
  5
1F6
100
AcDbEntity
  8
A1
  6
CONTINUOUS
 62
7
100
AcDbLine
 10
1582.284892475410
 20
179.2138317847153
 30
0.000000000000000
 11
1584.784892475410
 21
179.2138317847153
 31
0.000000000000000
  0
LINE
  5
1F7
100
AcDbEntity
  8
A1
  6
CONTINUOUS
 62
7
100
AcDbLine
 10
1582.284892475410
 20
174.2138317847153
 30
0.000000000000000
 11
1582.284892475410
 21
179.2138317847153
 31
0.000000000000000
  0
LINE
  5
1F8
100
AcDbEntity
  8
A1
  6
CONTINUOUS
 62
7
100
AcDbLine
 10
1584.784892475410
 20
174.2138317847153
 30
0.000000000000000
 11
1582.284892475410
 21
174.2138317847153
 31
0.000000000000000
  0
LINE
  5
1F9
100
AcDbEntity
  8
A1
  6
CONTINUOUS
 62
7
100
AcDbLine
 10
1584.284891845946
 20
193.0577445750569
 30
0.000000000000000
 11
1584.284891845946
 21
193.7138326240002
 31
0.000000000000000
  0
LINE
  5
1FA
100
AcDbEntity
  8
A1
  6
CONTINUOUS
 62
7
100
AcDbLine
 10
822.7848924754099
 20
194.2159133127325
 30
0.000000000000000
 11
822.7848924754099
 21
194.7138317847153
 31
0.000000000000000
  0
LINE
  5
1FB
100
AcDbEntity
  8
A1
  6
CONTINUOUS
 62
7
100
AcDbLine
 10
1582.341806517918
 20
194.7138317847153
 30
0.000000000000000
 11
822.7848924754099
 21
194.7138317847153
 31
0.000000000000000
  0
LINE
  5
1FC
100
AcDbEntity
  8
A1
  6
CONTINUOUS
 62
7
100
AcDbLine
 10
1584.784892475410
 20
189.8852771250822
 30
0.000000000000000
 11
1584.784892475410
 21
191.7348667989368
 31
0.000000000000000
  0
LINE
  5
1FD
100
AcDbEntity
  8
A1
  6
CONTINUOUS
 62
7
100
AcDbLine
 10
822.7848924754099
 20
189.8852771250823
 30
0.000000000000000
 11
822.7848924754099
 21
194.2159133127325
 31
0.000000000000000
  0
LINE
  5
1FE
100
AcDbEntity
  8
A1
  6
CONTINUOUS
 62
7
100
AcDbLine
 10
1584.199106475409
 20
193.1490814654488
 30
0.000000000000000
 11
1583.132274628126
 21
194.2159133127325
 31
0.000000000000000
  0
LINE
  5
1FF
100
AcDbEntity
  8
A1
  6
CONTINUOUS
 62
7
100
AcDbLine
 10
1583.132274628126
 20
194.2159133127322
 30
0.000000000000000
 11
822.7848924754097
 21
194.2159133127322
 31
0.000000000000000
  0
LINE
  5
200
100
AcDbEntity
  8
A1
  6
CONTINUOUS
 62
7
100
AcDbLine
 10
1584.784892475410
 20
180.0138317847114
 30
0.000000000000000
 11
1584.784892475410
 21
189.8852771250822
 31
0.000000000000000
  0
LINE
  5
201
100
AcDbEntity
  8
A1
  6
CONTINUOUS
 62
7
100
AcDbLine
 10
822.7848924754099
 20
180.0138317847114
 30
0.000000000000000
 11
822.7848924754099
 21
189.8852771250823
 31
0.000000000000000
  0
LINE
  5
202
100
AcDbEntity
  8
A1
  6
CONTINUOUS
 62
7
100
AcDbLine
 10
1584.784892475410
 20
180.0138317847114
 30
0.000000000000000
 11
822.7848924754099
 21
180.0138317847114
 31
0.000000000000000
  0
LINE
  5
203
100
AcDbEntity
  8
A1
  6
CONTINUOUS
 62
7
100
AcDbLine
 10
1584.784892475410
 20
189.8852771250822
 30
0.000000000000000
 11
822.7848924754099
 21
189.8852771250823
 31
0.000000000000000
  0
SPLINE
  5
204
100
AcDbEntity
  8
A1
  6
CONTINUOUS
 62
7
100
AcDbSpline
210
0.000000000000000
220
0.000000000000000
230
1.000000000000000
 70
     8
 71
     3
 72
    17
 73
    13
 74
     0
 42
1.000000000000000e-07
 43
1.000000000000000e-07
 12
-0.007049927407024370
 22
-0.9999751489522168
 32
0.000000000000000
 13
0.9999995238531483
 23
0.0009758660646639328
 33
0.000000000000000
 40
0.000000000000000
 40
0.000000000000000
 40
0.000000000000000
 40
0.000000000000000
 40
0.2816393116382500
 40
0.5634931201143010
 40
0.8349480651393959
 40
1.117917651600729
 40
1.392672024345124
 40
1.687069308203231
 40
1.989579451103476
 40
2.312133100972538
 40
2.570875769953817
 40
2.836914172936818
 40
2.836914172936818
 40
2.836914172936818
 40
2.836914172936818
 10
462.2848924754103
 20
177.0824577704167
 30
0.000000000000000
 10
462.2842306298430
 20
176.9885803328813
 30
0.000000000000000
 10
462.3007205675071
 20
176.8002305212445
 30
0.000000000000000
 10
462.3764341162050
 20
176.5305236885721
 30
0.000000000000000
 10
462.5075269572803
 20
176.2821153398423
 30
0.000000000000000
 10
462.6866807948322
 20
176.0689291558834
 30
0.000000000000000
 10
462.9095584784941
 20
175.8904153623058
 30
0.000000000000000
 10
463.1650558671049
 20
175.7494137913424
 30
0.000000000000000
 10
463.4530913631738
 20
175.6420349733886
 30
0.000000000000000
 10
463.7407240832449
 20
175.5749218125658
 30
0.000000000000000
 10
464.0211858397752
 20
175.5390528216454
 30
0.000000000000000
 10
464.1962130499737
 20
175.5315591344903
 30
0.000000000000000
 10
464.2848924754103
 20
175.5316456737734
 30
0.000000000000000
  0
LINE
  5
205
100
AcDbEntity
  8
A1
  6
CONTINUOUS
 62
7
100
AcDbLine
 10
462.2848924754104
 20
188.1128032297175
 30
0.000000000000000
 11
462.2848924754104
 21
190.4138317847088
 31
0.000000000000000
  0
LINE
  5
206
100
AcDbEntity
  8
A1
  6
CONTINUOUS
 62
7
100
AcDbLine
 10
822.7848924754104
 20
190.4138317847088
 30
0.000000000000000
 11
462.2848924754103
 21
190.4138317847087
 31
0.000000000000000
  0
LINE
  5
207
100
AcDbEntity
  8
A1
  6
CONTINUOUS
 62
7
100
AcDbLine
 10
462.2848924754104
 20
188.1128032297175
 30
0.000000000000000
 11
462.2848924754104
 21
182.2016476679119
 31
0.000000000000000
  0
LINE
  5
208
100
AcDbEntity
  8
A1
  6
CONTINUOUS
 62
7
100
AcDbLine
 10
822.7848924754099
 20
188.1128032297175
 30
0.000000000000000
 11
462.2848924754104
 21
188.1128032297175
 31
0.000000000000000
  0
LINE
  5
209
100
AcDbEntity
  8
A1
  6
CONTINUOUS
 62
7
100
AcDbLine
 10
462.2848924754104
 20
177.0824577704171
 30
0.000000000000000
 11
462.2848924754104
 21
182.2016476679119
 31
0.000000000000000
  0
LINE
  5
20A
100
AcDbEntity
  8
A1
  6
CONTINUOUS
 62
7
100
AcDbLine
 10
1212.884892475410
 20
175.5316456737737
 30
0.000000000000000
 11
464.2848924754104
 21
175.5316456737738
 31
0.000000000000000
  0
LINE
  5
20B
100
AcDbEntity
  8
A1
  6
CONTINUOUS
 62
7
100
AcDbLine
 10
1212.884892475410
 20
175.5316456737737
 30
0.000000000000000
 11
1212.884892475410
 21
180.0138317847123
 31
0.000000000000000
  0
LINE
  5
20C
100
AcDbEntity
  8
A1
  6
CONTINUOUS
 62
7
100
AcDbLine
 10
822.7848924754099
 20
182.2016476679119
 30
0.000000000000000
 11
462.2848924754104
 21
182.2016476679119
 31
0.000000000000000
  0
LINE
  5
20D
100
AcDbEntity
  8
A1
  6
CONTINUOUS
 62
7
100
AcDbLine
 10
1215.884892475412
 20
178.7138317847169
 30
0.000000000000000
 11
1212.884892475409
 21
178.7138317847168
 31
0.000000000000000
  0
LINE
  5
20E
100
AcDbEntity
  8
A1
  6
CONTINUOUS
 62
7
100
AcDbLine
 10
1215.884892475412
 20
180.0138317847127
 30
0.000000000000000
 11
1215.884892475412
 21
178.7138317847166
 31
0.000000000000000
  0
LINE
  5
20F
100
AcDbEntity
  8
A1
  6
CONTINUOUS
 62
7
100
AcDbLine
 10
819.8848924754099
 20
174.9138317847151
 30
0.000000000000000
 11
819.8848924754099
 21
175.5316456737738
 31
0.000000000000000
  0
LINE
  5
210
100
AcDbEntity
  8
A1
  6
CONTINUOUS
 62
7
100
AcDbLine
 10
65.78489247541040
 20
174.9138317847152
 30
0.000000000000000
 11
65.78489247541040
 21
177.8405562996460
 31
0.000000000000000
  0
LINE
  5
211
100
AcDbEntity
  8
A1
  6
CONTINUOUS
 62
7
100
AcDbLine
 10
819.8848924754096
 20
174.9138317847148
 30
0.000000000000000
 11
65.78489247541016
 21
174.9138317847147
 31
0.000000000000000
  0
LINE
  5
212
100
AcDbEntity
  8
A1
  6
CONTINUOUS
 62
7
100
AcDbLine
 10
65.78489247541040
 20
182.6946134169158
 30
0.000000000000000
 11
65.78489247541040
 21
184.3138317847153
 31
0.000000000000000
  0
LINE
  5
213
100
AcDbEntity
  8
A1
  6
CONTINUOUS
 62
7
100
AcDbLine
 10
462.2848924754104
 20
184.3138317847151
 30
0.000000000000000
 11
65.78489247541022
 21
184.3138317847150
 31
0.000000000000000
  0
LINE
  5
214
100
AcDbEntity
  8
A1
  6
CONTINUOUS
 62
7
100
AcDbLine
 10
65.78489247541040
 20
182.5793523717676
 30
0.000000000000000
 11
65.78489247541040
 21
182.6946134169158
 31
0.000000000000000
  0
LINE
  5
215
100
AcDbEntity
  8
A1
  6
CONTINUOUS
 62
7
100
AcDbLine
 10
462.2848924754104
 20
182.6946134169158
 30
0.000000000000000
 11
65.78489247541040
 21
182.6946134169158
 31
0.000000000000000
  0
LINE
  5
216
100
AcDbEntity
  8
A1
  6
CONTINUOUS
 62
7
100
AcDbLine
 10
65.78489247541040
 20
182.5793523717676
 30
0.000000000000000
 11
65.78489247541040
 21
177.8405562996460
 31
0.000000000000000
  0
LINE
  5
217
100
AcDbEntity
  8
A1
  6
CONTINUOUS
 62
7
100
AcDbLine
 10
462.2848924754104
 20
177.8405562996460
 30
0.000000000000000
 11
65.78489247541040
 21
177.8405562996460
 31
0.000000000000000
  0
LINE
  5
218
100
AcDbEntity
  8
A1
  6
CONTINUOUS
 62
7
100
AcDbLine
 10
462.2848924754104
 20
182.5793523717676
 30
0.000000000000000
 11
65.78489247541040
 21
182.5793523717676
 31
0.000000000000000
  0
ENDSEC
  0
SECTION
  2
OBJECTS
  0
DICTIONARY
  5
248
100
AcDbDictionary
  3
ACAD_GROUP
350
249
  3
ACAD_MLINESTYLE
350
24A
  0
DICTIONARY
  5
249
102
{ACAD_REACTORS
330
248
102
}
100
AcDbDictionary
  0
DICTIONARY
  5
24A
102
{ACAD_REACTORS
330
248
102
}
100
AcDbDictionary
  3
STANDARD
350
24B
  0
MLINESTYLE
  5
24B
102
{ACAD_REACTORS
330
24A
102
}
100
AcDbMlineStyle
  2
STANDARD
 70
     0
  3

 62
   256
 51
90.00
 52
90.00
 71
     2
 49
0.50
 62
   256
  6
BYLAYER
 49
-0.50
 62
   256
  6
BYLAYER
  0
ENDSEC
  0
EOF
