  0
SECTION
  2
HEADER
  9
$ACADVER
  1
AC1014
  9
$DWGCODEPAGE
  3
ANSI_932
  9
$LTSCALE
 40
20.0
  9
$FILLMODE
 70
     1
  9
$CLAYER
  8
0
  9
$PDMODE
 70
     0
  9
$SPLFRAME
 70
     0
  9
$SPLINETYPE
 70
     6
  9
$SPLINESEGS
 70
     8
  9
$DIMASZ
 40
2.000000
  9
$DIMEXE
 40
1.500000
  9
$DIMEXO
 40
0.800000
  9
$DIMTAD
 70
     1
  9
$DIMTIH
 70
     0
  9
$DIMTOH
 70
     0
  9
$DIMTVP
 40
0.500000
  9
$DIMTXT
 40
3.100000
  9
$EXTMIN
 10
0.000000
 20
0.000000
 30
0.000000
  9
$EXTMAX
 10
297.000000
 20
420.000000
 30
0.000000
  9
$MEASUREMENT
 70
  1
  9
$LIMMIN
 10
0.000000
 20
0.000000
  9
$LIMMAX
 10
297.000000
 20
420.000000
  9
$HANDLING
 70
     1
  9
$HANDSEED
  5
283
  9
$DIMBLK
  1
_OPEN
  9
$DIMDEC
 70
     2
  9
$DIMAUNIT
 70
     0
  9
$DIMZIN
 70
     8
  9
$DIMTOFL
 70
     1
  0
ENDSEC
  0
SECTION
  2
CLASSES
  0
ENDSEC
  0
SECTION
  2
TABLES
  0
TABLE
  2
VPORT
  5
252
100
AcDbSymbolTable
 70
     1
  0
VPORT
  5
253
100
AcDbSymbolTableRecord
100
AcDbViewportTableRecord
  2
*ACTIVE
 70
     0
 12
874.777302
 22
100.931804
 40
165.863606
 41
10.477548
  0
ENDTAB
  0
TABLE
  2
LTYPE
  5
254
100
AcDbSymbolTable
 70
     3
  0
LTYPE
  5
255
100
AcDbSymbolTableRecord
100
AcDbLinetypeTableRecord
  2
BYBLOCK
 70
     0
  3

 72
    65
 73
     0
 40
0.0
  0
LTYPE
  5
256
100
AcDbSymbolTableRecord
100
AcDbLinetypeTableRecord
  2
BYLAYER
 70
     0
  3

 72
    65
 73
     0
 40
0.0
  0
LTYPE
  5
257
100
AcDbSymbolTableRecord
100
AcDbLinetypeTableRecord
  2
CONTINUOUS
 70
     0
  3
Solid line (NEC CAE2D for Win R18.0 : 2025.01.31)
 72
    65
 73
     0
 40
0.0
  0
LTYPE
  5
258
100
AcDbSymbolTableRecord
100
AcDbLinetypeTableRecord
  2
DASHED
 70
     0
  3
__ __ __ __ __ __ __ __ __ __ __ __ __ _
 72
    65
 73
     2
 40
0.75
 49
0.5
 74
     0
 49
-0.25
 74
     0
  0
LTYPE
  5
259
100
AcDbSymbolTableRecord
100
AcDbLinetypeTableRecord
  2
CENTER
 70
     0
  3
____ _ ____ _ ____ _ ____ _ ____ _ ____
 72
    65
 73
     4
 40
2.0
 49
1.25
 74
     0
 49
-0.25
 74
     0
 49
0.25
 74
     0
 49
-0.25
 74
     0
  0
ENDTAB
  0
TABLE
  2
LAYER
  5
25A
100
AcDbSymbolTable
 70
    17
  0
LAYER
  5
25B
100
AcDbSymbolTableRecord
100
AcDbLayerTableRecord
  2
0
 70
     0
 62
     7
  6
CONTINUOUS
  0
LAYER
  5
25C
100
AcDbSymbolTableRecord
100
AcDbLayerTableRecord
  2
A0
 70
     0
 62
     9
  6
CONTINUOUS
  0
LAYER
  5
25D
100
AcDbSymbolTableRecord
100
AcDbLayerTableRecord
  2
A1
 70
     0
 62
    12
  6
CONTINUOUS
  0
LAYER
  5
25E
100
AcDbSymbolTableRecord
100
AcDbLayerTableRecord
  2
A2
 70
     0
 62
     9
  6
CONTINUOUS
  0
LAYER
  5
25F
100
AcDbSymbolTableRecord
100
AcDbLayerTableRecord
  2
A3
 70
     0
 62
    12
  6
CONTINUOUS
  0
LAYER
  5
260
100
AcDbSymbolTableRecord
100
AcDbLayerTableRecord
  2
A4
 70
     0
 62
     9
  6
CONTINUOUS
  0
LAYER
  5
261
100
AcDbSymbolTableRecord
100
AcDbLayerTableRecord
  2
A5
 70
     0
 62
     8
  6
CONTINUOUS
  0
LAYER
  5
262
100
AcDbSymbolTableRecord
100
AcDbLayerTableRecord
  2
A6
 70
     0
 62
    12
  6
CONTINUOUS
  0
LAYER
  5
263
100
AcDbSymbolTableRecord
100
AcDbLayerTableRecord
  2
A7
 70
     0
 62
    12
  6
CONTINUOUS
  0
LAYER
  5
264
100
AcDbSymbolTableRecord
100
AcDbLayerTableRecord
  2
A8
 70
     0
 62
    10
  6
CONTINUOUS
  0
LAYER
  5
265
100
AcDbSymbolTableRecord
100
AcDbLayerTableRecord
  2
A9
 70
     0
 62
     9
  6
CONTINUOUS
  0
LAYER
  5
266
100
AcDbSymbolTableRecord
100
AcDbLayerTableRecord
  2
A10
 70
     0
 62
     6
  6
CONTINUOUS
  0
LAYER
  5
267
100
AcDbSymbolTableRecord
100
AcDbLayerTableRecord
  2
A20
 70
     0
 62
     1
  6
CONTINUOUS
  0
LAYER
  5
268
100
AcDbSymbolTableRecord
100
AcDbLayerTableRecord
  2
A30
 70
     0
 62
     1
  6
CONTINUOUS
  0
LAYER
  5
269
100
AcDbSymbolTableRecord
100
AcDbLayerTableRecord
  2
A40
 70
     0
 62
     9
  6
CONTINUOUS
  0
LAYER
  5
26A
100
AcDbSymbolTableRecord
100
AcDbLayerTableRecord
  2
A50
 70
     0
 62
    12
  6
CONTINUOUS
  0
LAYER
  5
26B
100
AcDbSymbolTableRecord
100
AcDbLayerTableRecord
  2
A1023
 70
     0
 62
    16
  6
CONTINUOUS
  0
ENDTAB
  0
TABLE
  2
STYLE
  5
26C
100
AcDbSymbolTable
 70
     4
  0
STYLE
  5
26D
100
AcDbSymbolTableRecord
100
AcDbTextStyleTableRecord
  2
STANDARD
 70
    64
 40
0.0
 41
1.0
 50
0.0
 71
     0
 42
3.000000000000000
  3
TXT
  4

  0
STYLE
  5
26E
100
AcDbSymbolTableRecord
100
AcDbTextStyleTableRecord
  2
ANKTATE
 70
    68
 40
0.0
 41
1.0
 50
0.0
 71
     0
 42
3.000000000000000
  3
TXT
  4

  0
STYLE
  5
26F
100
AcDbSymbolTableRecord
100
AcDbTextStyleTableRecord
  2
KNJYOKO
 70
    64
 40
0.0
 41
1.0
 50
0.0
 71
     0
 42
3.000000000000000
  3
TXT
  4
BIGFONT
  0
STYLE
  5
270
100
AcDbSymbolTableRecord
100
AcDbTextStyleTableRecord
  2
KNJTATE
 70
    68
 40
0.0
 41
1.0
 50
0.0
 71
     0
 42
3.000000000000000
  3
TXT
  4
BIGFONT
  0
ENDTAB
  0
TABLE
  2
VIEW
  5
271
100
AcDbSymbolTable
 70
     0
  0
ENDTAB
  0
TABLE
  2
UCS
  5
272
100
AcDbSymbolTable
 70
     0
  0
ENDTAB
  0
TABLE
  2
APPID
  5
273
100
AcDbSymbolTable
 70
     1
  0
APPID
  5
274
100
AcDbSymbolTableRecord
100
AcDbRegAppTableRecord
  2
ACAD
 70
     0
  0
ENDTAB
  0
TABLE
  2
DIMSTYLE
  5
275
100
AcDbSymbolTable
 70
     2
  0
DIMSTYLE
105
276
100
AcDbSymbolTableRecord
100
AcDbDimStyleTableRecord
  2
STANDARD
 70
     0
 41
2.000000
 44
1.500000
 42
0.800000
145
0.661290
140
3.100000
144
1.000000
146
0.645161
340
26D
  0
DIMSTYLE
105
277
100
AcDbSymbolTableRecord
100
AcDbDimStyleTableRecord
  2
A001
 70
     0
 41
2.000000
 44
1.500000
 42
0.800000
145
0.661290
140
3.100000
144
1.000000
146
0.645161
 77
     1
 73
     0
 74
     0
271
     2
275
     0
 78
     8
172
     1
340
26D
  0
ENDTAB
  0
TABLE
  2
BLOCK_RECORD
  5
278
100
AcDbSymbolTable
 70
    12
  0
BLOCK_RECORD
  5
279
100
AcDbSymbolTableRecord
100
AcDbBlockTableRecord
  2
*MODEL_SPACE
  0
BLOCK_RECORD
  5
27A
100
AcDbSymbolTableRecord
100
AcDbBlockTableRecord
  2
*PAPER_SPACE
  0
BLOCK_RECORD
  5
1
100
AcDbSymbolTableRecord
100
AcDbBlockTableRecord
  2
_NONE
  0
BLOCK_RECORD
  5
4
100
AcDbSymbolTableRecord
100
AcDbBlockTableRecord
  2
_CLOSED
  0
BLOCK_RECORD
  5
B
100
AcDbSymbolTableRecord
100
AcDbBlockTableRecord
  2
_DOT
  0
BLOCK_RECORD
  5
13
100
AcDbSymbolTableRecord
100
AcDbBlockTableRecord
  2
_OPEN
  0
BLOCK_RECORD
  5
19
100
AcDbSymbolTableRecord
100
AcDbBlockTableRecord
  2
_ORIGIN
  0
BLOCK_RECORD
  5
1E
100
AcDbSymbolTableRecord
100
AcDbBlockTableRecord
  2
_OPEN30
  0
BLOCK_RECORD
  5
24
100
AcDbSymbolTableRecord
100
AcDbBlockTableRecord
  2
_BOXFILLED
  0
BLOCK_RECORD
  5
29
100
AcDbSymbolTableRecord
100
AcDbBlockTableRecord
  2
_BOXBLANK
  0
BLOCK_RECORD
  5
31
100
AcDbSymbolTableRecord
100
AcDbBlockTableRecord
  2
_OBLIQUE
  0
BLOCK_RECORD
  5
35
100
AcDbSymbolTableRecord
100
AcDbBlockTableRecord
  2
_OPEN90
  0
BLOCK_RECORD
  5
3B
100
AcDbSymbolTableRecord
100
AcDbBlockTableRecord
  2
_CLOSEDBLANK
  0
BLOCK_RECORD
  5
41
100
AcDbSymbolTableRecord
100
AcDbBlockTableRecord
  2
_DOTBLANK
  0
ENDTAB
  0
ENDSEC
  0
SECTION
  2
BLOCKS
  0
BLOCK
  5
27B
100
AcDbEntity
  8
0
100
AcDbBlockBegin
  2
*MODEL_SPACE
 70
     0
 10
0.0
 20
0.0
 30
0.0
  3
*MODEL_SPACE
  1

  0
ENDBLK
  5
27C
100
AcDbEntity
  8
0
100
AcDbBlockEnd
  0
BLOCK
  5
27D
100
AcDbEntity
  8
0
100
AcDbBlockBegin
  2
*PAPER_SPACE
 70
     0
 10
0.0
 20
0.0
 30
0.0
  3
*PAPER_SPACE
  1

  0
ENDBLK
  5
27E
100
AcDbEntity
  8
0
100
AcDbBlockEnd
  0
BLOCK
  5
2
100
AcDbEntity
  8
0
100
AcDbBlockBegin
  2
_NONE
 70
     0
 10
0.0
 20
0.0
 30
0.0
  3
_NONE
  1

  0
ENDBLK
  5
3
100
AcDbEntity
  8
0
100
AcDbBlockEnd
  0
BLOCK
  5
5
100
AcDbEntity
  8
0
100
AcDbBlockBegin
  2
_CLOSED
 70
     0
 10
0.0
 20
0.0
 30
0.0
  3
_CLOSED
  1

  0
LINE
  5
6
100
AcDbEntity
  8
0
  6
BYBLOCK
 62
     0
100
AcDbLine
 10
-1.0
 20
0.166667
 30
0.0
 11
0.0
 21
0.0
 31
0.0
  0
LINE
  5
7
100
AcDbEntity
  8
0
  6
BYBLOCK
 62
     0
100
AcDbLine
 10
0.0
 20
0.0
 30
0.0
 11
-1.0
 21
-0.166667
 31
0.0
  0
LINE
  5
8
100
AcDbEntity
  8
0
  6
BYBLOCK
 62
     0
100
AcDbLine
 10
-1.0
 20
0.166667
 30
0.0
 11
-1.0
 21
-0.166667
 31
0.0
  0
LINE
  5
9
100
AcDbEntity
  8
0
  6
BYBLOCK
 62
     0
100
AcDbLine
 10
0.0
 20
0.0
 30
0.0
 11
-1.0
 21
0.0
 31
0.0
  0
ENDBLK
  5
A
100
AcDbEntity
  8
0
100
AcDbBlockEnd
  0
BLOCK
  5
C
100
AcDbEntity
  8
0
100
AcDbBlockBegin
  2
_DOT
 70
     0
 10
0.0
 20
0.0
 30
0.0
  3
_DOT
  1

  0
POLYLINE
  5
D
100
AcDbEntity
  8
0
  6
BYBLOCK
 62
     0
100
AcDb2dPolyline
 66
     1
 10
0.0
 20
0.0
 30
0.0
 70
     1
 40
0.5
 41
0.5
  0
VERTEX
  5
E
100
AcDbEntity
  8
0
  6
BYBLOCK
 62
     0
100
AcDbVertex
100
AcDb2dVertex
 10
-0.25
 20
0.0
 30
0.0
 42
1.0
  0
VERTEX
  5
F
100
AcDbEntity
  8
0
  6
BYBLOCK
 62
     0
100
AcDbVertex
100
AcDb2dVertex
 10
0.25
 20
0.0
 30
0.0
 42
1.0
  0
SEQEND
  5
10
100
AcDbEntity
  8
0
  6
BYBLOCK
 62
     0
  0
LINE
  5
11
100
AcDbEntity
  8
0
  6
BYBLOCK
 62
     0
100
AcDbLine
 10
-0.5
 20
0.0
 30
0.0
 11
-1.0
 21
0.0
 31
0.0
  0
ENDBLK
  5
12
100
AcDbEntity
  8
0
100
AcDbBlockEnd
  0
BLOCK
  5
14
100
AcDbEntity
  8
0
100
AcDbBlockBegin
  2
_OPEN
 70
     0
 10
0.0
 20
0.0
 30
0.0
  3
_OPEN
  1

  0
LINE
  5
15
100
AcDbEntity
  8
0
  6
BYBLOCK
 62
     0
100
AcDbLine
 10
-1.0
 20
0.166667
 30
0.0
 11
0.0
 21
0.0
 31
0.0
  0
LINE
  5
16
100
AcDbEntity
  8
0
  6
BYBLOCK
 62
     0
100
AcDbLine
 10
0.0
 20
0.0
 30
0.0
 11
-1.0
 21
-0.166667
 31
0.0
  0
LINE
  5
17
100
AcDbEntity
  8
0
  6
BYBLOCK
 62
     0
100
AcDbLine
 10
0.0
 20
0.0
 30
0.0
 11
-1.0
 21
0.0
 31
0.0
  0
ENDBLK
  5
18
100
AcDbEntity
  8
0
100
AcDbBlockEnd
  0
BLOCK
  5
1A
100
AcDbEntity
  8
0
100
AcDbBlockBegin
  2
_ORIGIN
 70
     0
 10
0.0
 20
0.0
 30
0.0
  3
_ORIGIN
  1

  0
CIRCLE
  5
1B
100
AcDbEntity
  8
0
  6
BYBLOCK
 62
     0
100
AcDbCircle
 10
0.0
 20
0.0
 30
0.0
 40
0.5
  0
LINE
  5
1C
100
AcDbEntity
  8
0
  6
BYBLOCK
 62
     0
100
AcDbLine
 10
0.0
 20
0.0
 30
0.0
 11
-1.0
 21
0.0
 31
0.0
  0
ENDBLK
  5
1D
100
AcDbEntity
  8
0
100
AcDbBlockEnd
  0
BLOCK
  5
1F
100
AcDbEntity
  8
0
100
AcDbBlockBegin
  2
_OPEN30
 70
     0
 10
0.0
 20
0.0
 30
0.0
  3
_OPEN30
  1

  0
LINE
  5
20
100
AcDbEntity
  8
0
  6
BYBLOCK
 62
     0
100
AcDbLine
 10
-1.0
 20
0.267949
 30
0.0
 11
0.0
 21
0.0
 31
0.0
  0
LINE
  5
21
100
AcDbEntity
  8
0
  6
BYBLOCK
 62
     0
100
AcDbLine
 10
0.0
 20
0.0
 30
0.0
 11
-1.0
 21
-0.267949
 31
0.0
  0
LINE
  5
22
100
AcDbEntity
  8
0
  6
BYBLOCK
 62
     0
100
AcDbLine
 10
0.0
 20
0.0
 30
0.0
 11
-1.0
 21
0.0
 31
0.0
  0
ENDBLK
  5
23
100
AcDbEntity
  8
0
100
AcDbBlockEnd
  0
BLOCK
  5
25
100
AcDbEntity
  8
0
100
AcDbBlockBegin
  2
_BOXFILLED
 70
     0
 10
0.0
 20
0.0
 30
0.0
  3
_BOXFILLED
  1

  0
SOLID
  5
26
100
AcDbEntity
  8
0
  6
BYBLOCK
 62
     0
100
AcDbTrace
 10
-0.5
 20
0.5
 30
0.0
 11
0.5
 21
0.5
 31
0.0
 12
-0.5
 22
-0.5
 32
0.0
 13
0.5
 23
-0.5
 33
0.0
  0
LINE
  5
27
100
AcDbEntity
  8
0
  6
BYBLOCK
 62
     0
100
AcDbLine
 10
-0.5
 20
0.0
 30
0.0
 11
-1.0
 21
0.0
 31
0.0
  0
ENDBLK
  5
28
100
AcDbEntity
  8
0
100
AcDbBlockEnd
  0
BLOCK
  5
2A
100
AcDbEntity
  8
0
100
AcDbBlockBegin
  2
_BOXBLANK
 70
     0
 10
0.0
 20
0.0
 30
0.0
  3
_BOXBLANK
  1

  0
LINE
  5
2B
100
AcDbEntity
  8
0
  6
BYBLOCK
 62
     0
100
AcDbLine
 10
-0.5
 20
-0.5
 30
0.0
 11
0.5
 21
-0.5
 31
0.0
  0
LINE
  5
2C
100
AcDbEntity
  8
0
  6
BYBLOCK
 62
     0
100
AcDbLine
 10
0.5
 20
-0.5
 30
0.0
 11
0.5
 21
0.5
 31
0.0
  0
LINE
  5
2D
100
AcDbEntity
  8
0
  6
BYBLOCK
 62
     0
100
AcDbLine
 10
0.5
 20
0.5
 30
0.0
 11
-0.5
 21
0.5
 31
0.0
  0
LINE
  5
2E
100
AcDbEntity
  8
0
  6
BYBLOCK
 62
     0
100
AcDbLine
 10
-0.5
 20
0.5
 30
0.0
 11
-0.5
 21
-0.5
 31
0.0
  0
LINE
  5
2F
100
AcDbEntity
  8
0
  6
BYBLOCK
 62
     0
100
AcDbLine
 10
-0.5
 20
0.0
 30
0.0
 11
-1.0
 21
0.0
 31
0.0
  0
ENDBLK
  5
30
100
AcDbEntity
  8
0
100
AcDbBlockEnd
  0
BLOCK
  5
32
100
AcDbEntity
  8
0
100
AcDbBlockBegin
  2
_OBLIQUE
 70
     0
 10
0.0
 20
0.0
 30
0.0
  3
_OBLIQUE
  1

  0
LINE
  5
33
100
AcDbEntity
  8
0
  6
BYBLOCK
 62
     0
100
AcDbLine
 10
-0.5
 20
-0.5
 30
0.0
 11
0.5
 21
0.5
 31
0.0
  0
ENDBLK
  5
34
100
AcDbEntity
  8
0
100
AcDbBlockEnd
  0
BLOCK
  5
36
100
AcDbEntity
  8
0
100
AcDbBlockBegin
  2
_OPEN90
 70
     0
 10
0.0
 20
0.0
 30
0.0
  3
_OPEN90
  1

  0
LINE
  5
37
100
AcDbEntity
  8
0
  6
BYBLOCK
 62
     0
100
AcDbLine
 10
-0.5
 20
0.5
 30
0.0
 11
0.0
 21
0.0
 31
0.0
  0
LINE
  5
38
100
AcDbEntity
  8
0
  6
BYBLOCK
 62
     0
100
AcDbLine
 10
0.0
 20
0.0
 30
0.0
 11
-0.5
 21
-0.5
 31
0.0
  0
LINE
  5
39
100
AcDbEntity
  8
0
  6
BYBLOCK
 62
     0
100
AcDbLine
 10
0.0
 20
0.0
 30
0.0
 11
-1.0
 21
0.0
 31
0.0
  0
ENDBLK
  5
3A
100
AcDbEntity
  8
0
100
AcDbBlockEnd
  0
BLOCK
  5
3C
100
AcDbEntity
  8
0
100
AcDbBlockBegin
  2
_CLOSEDBLANK
 70
     0
 10
0.0
 20
0.0
 30
0.0
  3
_CLOSEDBLANK
  1

  0
LINE
  5
3D
100
AcDbEntity
  8
0
  6
BYBLOCK
 62
     0
100
AcDbLine
 10
-1.0
 20
0.1666666666666666
 30
0.0
 11
0.0
 21
0.0
 31
0.0
  0
LINE
  5
3E
100
AcDbEntity
  8
0
  6
BYBLOCK
 62
     0
100
AcDbLine
 10
0.0
 20
0.0
 30
0.0
 11
-1.0
 21
-0.1666666666666666
 31
0.0
  0
LINE
  5
3F
100
AcDbEntity
  8
0
  6
BYBLOCK
 62
     0
100
AcDbLine
 10
-1.0
 20
0.1666666666666666
 30
0.0
 11
-1.0
 21
-0.1666666666666666
 31
0.0
  0
ENDBLK
  5
40
100
AcDbEntity
  8
0
100
AcDbBlockEnd
  0
BLOCK
  5
42
100
AcDbEntity
  8
0
100
AcDbBlockBegin
  2
_DOTBLANK
 70
     0
 10
0.0
 20
0.0
 30
0.0
  3
_DOTBLANK
  1

  0
CIRCLE
  5
43
100
AcDbEntity
  8
0
  6
BYBLOCK
 62
     0
100
AcDbCircle
 10
0.0
 20
0.0
 30
0.0
 40
0.5
  0
LINE
  5
44
100
AcDbEntity
  8
0
  6
BYBLOCK
 62
     0
100
AcDbLine
 10
-0.5
 20
0.0
 30
0.0
 11
-1.0
 21
0.0
 31
0.0
  0
ENDBLK
  5
45
100
AcDbEntity
  8
0
100
AcDbBlockEnd
  0
ENDSEC
  0
SECTION
  2
ENTITIES
  0
MTEXT
  5
46
100
AcDbEntity
  8
A7
  6
CONTINUOUS
 62
3
100
AcDbMText
 10
9.999997526638502
 20
18.00000076076889
 30
0.000000000000000
 40
3.000000000000000
 41
0.000000000000000
 71
     7
 72
     1
  1
{\H0.94x;{TYPE No.TL-377-32}}
 11
1.000000000000000
 21
0.000000000000000
 31
0.000000000000000
  7
STANDARD
  0
POINT
  5
47
100
AcDbEntity
  8
A10
  6
CONTINUOUS
 62
3
100
AcDbPoint
 10
9.999997526638502
 20
18.00000076076889
 30
0.000000000000000
  0
POINT
  5
48
100
AcDbEntity
  8
A10
  6
CONTINUOUS
 62
3
100
AcDbPoint
 10
69.87730183275846
 20
45.67786257341891
 30
0.000000000000000
  0
LINE
  5
49
100
AcDbEntity
  8
A1
  6
CONTINUOUS
 62
7
100
AcDbLine
 10
1690.677301832748
 20
99.37786257341475
 30
0.000000000000000
 11
877.8773018327488
 21
99.37786257341861
 31
0.000000000000000
  0
LINE
  5
4A
100
AcDbEntity
  8
A1
  6
CONTINUOUS
 62
7
100
AcDbLine
 10
1690.566360459401
 20
94.97786257341818
 30
0.000000000000000
 11
877.8773018327489
 21
94.97786257341818
 31
0.000000000000000
  0
LINE
  5
4B
100
AcDbEntity
  8
A1
  6
CONTINUOUS
 62
7
100
AcDbLine
 10
1688.177301832759
 20
39.47786257341818
 30
0.000000000000000
 11
1690.677301832749
 21
39.47786257341818
 31
0.000000000000000
  0
LINE
  5
4C
100
AcDbEntity
  8
A1
  6
CONTINUOUS
 62
7
100
AcDbLine
 10
1688.177301832759
 20
89.47786257341818
 30
0.000000000000000
 11
1690.677301832749
 21
89.47786257341818
 31
0.000000000000000
  0
LINE
  5
4D
100
AcDbEntity
  8
A1
  6
CONTINUOUS
 62
7
100
AcDbLine
 10
1688.763088270391
 20
92.89207613579231
 30
0.000000000000000
 11
1690.091515395131
 21
94.22050326053363
 31
0.000000000000000
  0
ARC
  5
4E
100
AcDbEntity
  8
A1
  6
CONTINUOUS
 62
7
100
AcDbCircle
 10
1688.677301832749
 20
95.63471682290606
 30
0.000000000000000
 40
2.000000000000000
100
AcDbArc
 50
315.0000000000000
 51
360.0000000000000
  0
LINE
  5
4F
100
AcDbEntity
  8
A1
  6
CONTINUOUS
 62
7
100
AcDbLine
 10
1690.677301832749
 20
99.37786257341600
 30
0.000000000000000
 11
1690.677301832749
 21
95.63471682290606
 31
0.000000000000000
  0
LINE
  5
50
100
AcDbEntity
  8
A1
  6
CONTINUOUS
 62
7
100
AcDbLine
 10
1690.677301832749
 20
89.47786257341818
 30
0.000000000000000
 11
1690.677301832749
 21
39.47786257341818
 31
0.000000000000000
  0
LINE
  5
51
100
AcDbEntity
  8
A1
  6
CONTINUOUS
 62
7
100
AcDbLine
 10
1690.677301832749
 20
33.32100832393212
 30
0.000000000000000
 11
1690.677301832749
 21
29.57786257342036
 31
0.000000000000000
  0
LINE
  5
52
100
AcDbEntity
  8
A1
  6
CONTINUOUS
 62
7
100
AcDbLine
 10
1688.177301832759
 20
89.47786257341818
 30
0.000000000000000
 11
1688.177301832759
 21
39.47786257341818
 31
0.000000000000000
  0
ARC
  5
53
100
AcDbEntity
  8
A1
  6
CONTINUOUS
 62
7
100
AcDbCircle
 10
1690.177301832759
 20
91.47786257341818
 30
0.000000000000000
 40
2.000000000000000
100
AcDbArc
 50
135.0000000000000
 51
270.0000000000000
  0
LINE
  5
54
100
AcDbEntity
  8
A1
  6
CONTINUOUS
 62
7
100
AcDbLine
 10
1688.763088270390
 20
36.06364901104257
 30
0.000000000000000
 11
1690.091515395128
 21
34.73522188630204
 31
0.000000000000000
  0
ARC
  5
55
100
AcDbEntity
  8
A1
  6
CONTINUOUS
 62
7
100
AcDbCircle
 10
1688.677301832749
 20
33.32100832393212
 30
0.000000000000000
 40
2.000000000000000
100
AcDbArc
 50
0.000000000000000
 51
45.00000000000000
  0
ARC
  5
56
100
AcDbEntity
  8
A1
  6
CONTINUOUS
 62
7
100
AcDbCircle
 10
1690.177301832759
 20
37.47786257342000
 30
0.000000000000000
 40
2.000000000000000
100
AcDbArc
 50
90.00000000000000
 51
225.0000000000000
  0
CIRCLE
  5
57
100
AcDbEntity
  8
A1
  6
CONTINUOUS
 62
7
100
AcDbCircle
 10
890.5773018327483
 20
64.47786257342000
 30
0.000000000000000
 40
2.600000000000000
  0
CIRCLE
  5
58
100
AcDbEntity
  8
A1
  6
CONTINUOUS
 62
7
100
AcDbCircle
 10
909.6773018327468
 20
64.47786257342000
 30
0.000000000000000
 40
3.299999999999999
  0
CIRCLE
  5
59
100
AcDbEntity
  8
A3
  6
DASHED
 62
2
100
AcDbCircle
 10
966.7773018327490
 20
64.47786257342000
 30
0.000000000000000
 40
3.299999999999999
  0
LINE
  5
5A
100
AcDbEntity
  8
A3
  6
DASHED
 62
2
100
AcDbLine
 10
935.0273018327490
 20
61.17786257342073
 30
0.000000000000000
 11
928.9273018327468
 21
61.17786257342073
 31
0.000000000000000
  0
ARC
  5
5B
100
AcDbEntity
  8
A3
  6
DASHED
 62
2
100
AcDbCircle
 10
935.0273018327490
 20
64.47786257342000
 30
0.000000000000000
 40
3.299999999999999
100
AcDbArc
 50
270.0000000000000
 51
450.0000000000000
  0
ARC
  5
5C
100
AcDbEntity
  8
A3
  6
DASHED
 62
2
100
AcDbCircle
 10
928.9273018327468
 20
64.47786257342000
 30
0.000000000000000
 40
3.299999999999999
100
AcDbArc
 50
90.00000000000000
 51
270.0000000000000
  0
LINE
  5
5D
100
AcDbEntity
  8
A3
  6
DASHED
 62
2
100
AcDbLine
 10
935.0273018327490
 20
67.77786257341927
 30
0.000000000000000
 11
928.9273018327468
 21
67.77786257341927
 31
0.000000000000000
  0
LINE
  5
5E
100
AcDbEntity
  8
A1
  6
CONTINUOUS
 62
7
100
AcDbLine
 10
896.7273018327479
 20
61.12786257342145
 30
0.000000000000000
 11
896.7273018327479
 21
67.82786257342036
 31
0.000000000000000
  0
LINE
  5
5F
100
AcDbEntity
  8
A1
  6
CONTINUOUS
 62
7
100
AcDbLine
 10
903.4273018327468
 20
61.12786257342145
 30
0.000000000000000
 11
903.4273018327468
 21
67.82786257342036
 31
0.000000000000000
  0
LINE
  5
60
100
AcDbEntity
  8
A1
  6
CONTINUOUS
 62
7
100
AcDbLine
 10
896.7273018327479
 20
61.12786257342145
 30
0.000000000000000
 11
903.4273018327468
 21
61.12786257342145
 31
0.000000000000000
  0
LINE
  5
61
100
AcDbEntity
  8
A1
  6
CONTINUOUS
 62
7
100
AcDbLine
 10
896.7273018327479
 20
67.82786257342036
 30
0.000000000000000
 11
903.4273018327468
 21
67.82786257342036
 31
0.000000000000000
  0
LINE
  5
62
100
AcDbEntity
  8
A3
  6
DASHED
 62
2
100
AcDbLine
 10
919.2773018327498
 20
60.80090731124903
 30
0.000000000000000
 11
917.4585114589911
 21
62.61969768500791
 31
0.000000000000000
  0
LINE
  5
63
100
AcDbEntity
  8
A3
  6
DASHED
 62
2
100
AcDbLine
 10
922.9542570949236
 20
64.47786257342170
 30
0.000000000000000
 11
919.2773018327546
 21
68.15481783559119
 31
0.000000000000000
  0
LINE
  5
64
100
AcDbEntity
  8
A3
  6
DASHED
 62
2
100
AcDbLine
 10
917.4585114589906
 20
66.33602746183499
 30
0.000000000000000
 11
919.2773018327482
 21
68.15481783559250
 31
0.000000000000000
  0
LINE
  5
65
100
AcDbEntity
  8
A3
  6
DASHED
 62
2
100
AcDbLine
 10
919.2773018327471
 20
60.80090731125108
 30
0.000000000000000
 11
922.9542570949181
 21
64.47786257342125
 31
0.000000000000000
  0
CIRCLE
  5
66
100
AcDbEntity
  8
A3
  6
DASHED
 62
2
100
AcDbCircle
 10
954.0773018327483
 20
64.47786257342000
 30
0.000000000000000
 40
2.600000000000000
  0
CIRCLE
  5
67
100
AcDbEntity
  8
A1
  6
CONTINUOUS
 62
7
100
AcDbCircle
 10
1125.477301832747
 20
64.47786257341818
 30
0.000000000000000
 40
3.299999999999999
  0
CIRCLE
  5
68
100
AcDbEntity
  8
A1
  6
CONTINUOUS
 62
7
100
AcDbCircle
 10
1112.777301832748
 20
64.47786257341818
 30
0.000000000000000
 40
2.600000000000000
  0
LINE
  5
69
100
AcDbEntity
  8
A1
  6
CONTINUOUS
 62
7
100
AcDbLine
 10
1138.177301832747
 20
60.80090731125154
 30
0.000000000000000
 11
1134.500346570577
 21
64.47786257342204
 31
0.000000000000000
  0
LINE
  5
6A
100
AcDbEntity
  8
A1
  6
CONTINUOUS
 62
7
100
AcDbLine
 10
1140.808680646743
 20
65.52343902159294
 30
0.000000000000000
 11
1138.177301832749
 21
68.15481783558710
 31
0.000000000000000
  0
LINE
  5
6B
100
AcDbEntity
  8
A1
  6
CONTINUOUS
 62
7
100
AcDbLine
 10
1134.500346570574
 20
64.47786257341772
 30
0.000000000000000
 11
1138.177301832744
 21
68.15481783558835
 31
0.000000000000000
  0
LINE
  5
6C
100
AcDbEntity
  8
A1
  6
CONTINUOUS
 62
7
100
AcDbLine
 10
1138.177301832748
 20
60.80090731124778
 30
0.000000000000000
 11
1140.808680646742
 21
63.43228612524149
 31
0.000000000000000
  0
LINE
  5
6D
100
AcDbEntity
  8
A3
  6
DASHED
 62
2
100
AcDbLine
 10
1147.527301832746
 20
61.12786257341781
 30
0.000000000000000
 11
1147.527301832746
 21
67.82786257341854
 31
0.000000000000000
  0
LINE
  5
6E
100
AcDbEntity
  8
A3
  6
DASHED
 62
2
100
AcDbLine
 10
1154.227301832747
 20
61.12786257341963
 30
0.000000000000000
 11
1154.227301832747
 21
67.82786257341854
 31
0.000000000000000
  0
LINE
  5
6F
100
AcDbEntity
  8
A3
  6
DASHED
 62
2
100
AcDbLine
 10
1147.527301832745
 20
61.12786257342002
 30
0.000000000000000
 11
1154.227301832746
 21
61.12786257342093
 31
0.000000000000000
  0
LINE
  5
70
100
AcDbEntity
  8
A3
  6
DASHED
 62
2
100
AcDbLine
 10
1147.527301832746
 20
67.82786257341854
 30
0.000000000000000
 11
1154.227301832747
 21
67.82786257341854
 31
0.000000000000000
  0
CIRCLE
  5
71
100
AcDbEntity
  8
A1
  6
CONTINUOUS
 62
7
100
AcDbCircle
 10
1443.077301832748
 20
64.47786257341818
 30
0.000000000000000
 40
3.299999999999999
  0
CIRCLE
  5
72
100
AcDbEntity
  8
A1
  6
CONTINUOUS
 62
7
100
AcDbCircle
 10
1430.377301832749
 20
64.47786257341818
 30
0.000000000000000
 40
2.600000000000000
  0
LINE
  5
73
100
AcDbEntity
  8
A1
  6
CONTINUOUS
 62
7
100
AcDbLine
 10
1455.777301832747
 20
60.80090731124972
 30
0.000000000000000
 11
1452.100346570578
 21
64.47786257341897
 31
0.000000000000000
  0
LINE
  5
74
100
AcDbEntity
  8
A1
  6
CONTINUOUS
 62
7
100
AcDbLine
 10
1459.454257094919
 20
64.47786257341852
 30
0.000000000000000
 11
1455.777301832749
 21
68.15481783558914
 31
0.000000000000000
  0
LINE
  5
75
100
AcDbEntity
  8
A1
  6
CONTINUOUS
 62
7
100
AcDbLine
 10
1452.100346570574
 20
64.47786257341761
 30
0.000000000000000
 11
1455.777301832744
 21
68.15481783558812
 31
0.000000000000000
  0
LINE
  5
76
100
AcDbEntity
  8
A1
  6
CONTINUOUS
 62
7
100
AcDbLine
 10
1455.777301832748
 20
60.80090731124938
 30
0.000000000000000
 11
1459.454257094917
 21
64.47786257341693
 31
0.000000000000000
  0
LINE
  5
77
100
AcDbEntity
  8
A1
  6
CONTINUOUS
 62
7
100
AcDbLine
 10
1465.127301832747
 20
61.12786257341781
 30
0.000000000000000
 11
1465.127301832747
 21
67.82786257341854
 31
0.000000000000000
  0
LINE
  5
78
100
AcDbEntity
  8
A1
  6
CONTINUOUS
 62
7
100
AcDbLine
 10
1471.827301832748
 20
61.12786257341963
 30
0.000000000000000
 11
1471.827301832748
 21
67.82786257341854
 31
0.000000000000000
  0
LINE
  5
79
100
AcDbEntity
  8
A1
  6
CONTINUOUS
 62
7
100
AcDbLine
 10
1465.127301832746
 20
61.12786257341948
 30
0.000000000000000
 11
1471.827301832747
 21
61.12786257342039
 31
0.000000000000000
  0
LINE
  5
7A
100
AcDbEntity
  8
A1
  6
CONTINUOUS
 62
7
100
AcDbLine
 10
1465.127301832747
 20
67.82786257341854
 30
0.000000000000000
 11
1471.827301832748
 21
67.82786257341854
 31
0.000000000000000
  0
LINE
  5
7B
100
AcDbEntity
  8
A1
  6
CONTINUOUS
 62
7
100
AcDbLine
 10
1604.827301832748
 20
61.17786257341891
 30
0.000000000000000
 11
1598.727301832748
 21
61.17786257341891
 31
0.000000000000000
  0
ARC
  5
7C
100
AcDbEntity
  8
A1
  6
CONTINUOUS
 62
7
100
AcDbCircle
 10
1604.827301832748
 20
64.47786257341818
 30
0.000000000000000
 40
3.299999999999999
100
AcDbArc
 50
270.0000000000000
 51
450.0000000000000
  0
ARC
  5
7D
100
AcDbEntity
  8
A1
  6
CONTINUOUS
 62
7
100
AcDbCircle
 10
1598.727301832748
 20
64.47786257341818
 30
0.000000000000000
 40
3.299999999999999
100
AcDbArc
 50
90.00000000000000
 51
270.0000000000000
  0
LINE
  5
7E
100
AcDbEntity
  8
A1
  6
CONTINUOUS
 62
7
100
AcDbLine
 10
1604.827301832748
 20
67.77786257341745
 30
0.000000000000000
 11
1598.727301832748
 21
67.77786257341745
 31
0.000000000000000
  0
LINE
  5
7F
100
AcDbEntity
  8
A1
  6
CONTINUOUS
 62
7
100
AcDbLine
 10
1588.027301832749
 20
61.87786257341781
 30
0.000000000000000
 11
1583.727301832750
 21
61.87786257341781
 31
0.000000000000000
  0
ARC
  5
80
100
AcDbEntity
  8
A1
  6
CONTINUOUS
 62
7
100
AcDbCircle
 10
1588.027301832749
 20
64.47786257341818
 30
0.000000000000000
 40
2.600000000000000
100
AcDbArc
 50
270.0000000000000
 51
450.0000000000000
  0
ARC
  5
81
100
AcDbEntity
  8
A1
  6
CONTINUOUS
 62
7
100
AcDbCircle
 10
1583.727301832750
 20
64.47786257341818
 30
0.000000000000000
 40
2.600000000000000
100
AcDbArc
 50
90.00000000000000
 51
270.0000000000000
  0
LINE
  5
82
100
AcDbEntity
  8
A1
  6
CONTINUOUS
 62
7
100
AcDbLine
 10
1588.027301832749
 20
67.07786257341854
 30
0.000000000000000
 11
1583.727301832750
 21
67.07786257341854
 31
0.000000000000000
  0
CIRCLE
  5
83
100
AcDbEntity
  8
A1
  6
CONTINUOUS
 62
7
100
AcDbCircle
 10
1658.977301832748
 20
64.47786257341818
 30
0.000000000000000
 40
3.299999999999999
  0
CIRCLE
  5
84
100
AcDbEntity
  8
A1
  6
CONTINUOUS
 62
7
100
AcDbCircle
 10
1630.377301832747
 20
64.47786257341818
 30
0.000000000000000
 40
3.299999999999999
  0
CIRCLE
  5
85
100
AcDbEntity
  8
A1
  6
CONTINUOUS
 62
7
100
AcDbCircle
 10
1617.677301832749
 20
64.47786257341818
 30
0.000000000000000
 40
2.600000000000000
  0
LINE
  5
86
100
AcDbEntity
  8
A1
  6
CONTINUOUS
 62
7
100
AcDbLine
 10
1575.677301832751
 20
60.80090731124767
 30
0.000000000000000
 11
1572.000346570580
 21
64.47786257341829
 31
0.000000000000000
  0
LINE
  5
87
100
AcDbEntity
  8
A1
  6
CONTINUOUS
 62
7
100
AcDbLine
 10
1579.354257094916
 20
64.47786257341829
 30
0.000000000000000
 11
1575.677301832747
 21
68.15481783558755
 31
0.000000000000000
  0
LINE
  5
88
100
AcDbEntity
  8
A1
  6
CONTINUOUS
 62
7
100
AcDbLine
 10
1572.000346570579
 20
64.47786257341977
 30
0.000000000000000
 11
1575.677301832749
 21
68.15481783559028
 31
0.000000000000000
  0
LINE
  5
89
100
AcDbEntity
  8
A1
  6
CONTINUOUS
 62
7
100
AcDbLine
 10
1575.677301832748
 20
60.80090731124790
 30
0.000000000000000
 11
1579.354257094918
 21
64.47786257341716
 31
0.000000000000000
  0
LINE
  5
8A
100
AcDbEntity
  8
A1
  6
CONTINUOUS
 62
7
100
AcDbLine
 10
1642.927301832749
 20
61.12786257341963
 30
0.000000000000000
 11
1642.927301832749
 21
67.82786257341854
 31
0.000000000000000
  0
LINE
  5
8B
100
AcDbEntity
  8
A1
  6
CONTINUOUS
 62
7
100
AcDbLine
 10
1649.627301832749
 20
61.12786257341963
 30
0.000000000000000
 11
1649.627301832749
 21
67.82786257341854
 31
0.000000000000000
  0
LINE
  5
8C
100
AcDbEntity
  8
A1
  6
CONTINUOUS
 62
7
100
AcDbLine
 10
1642.927301832749
 20
61.12786257341997
 30
0.000000000000000
 11
1649.627301832746
 21
61.12786257342088
 31
0.000000000000000
  0
LINE
  5
8D
100
AcDbEntity
  8
A1
  6
CONTINUOUS
 62
7
100
AcDbLine
 10
1642.927301832749
 20
67.82786257341854
 30
0.000000000000000
 11
1649.627301832749
 21
67.82786257341854
 31
0.000000000000000
  0
CIRCLE
  5
8E
100
AcDbEntity
  8
A1
  6
CONTINUOUS
 62
7
100
AcDbCircle
 10
1284.277301832746
 20
64.47786257341818
 30
0.000000000000000
 40
3.299999999999999
  0
ARC
  5
8F
100
AcDbEntity
  8
A1
  6
CONTINUOUS
 62
7
100
AcDbCircle
 10
1271.577301832745
 20
64.47786257341818
 30
0.000000000000000
 40
2.600000000000000
100
AcDbArc
 50
249.7477532578636
 51
470.2522467421364
  0
LINE
  5
90
100
AcDbEntity
  8
A1
  6
CONTINUOUS
 62
7
100
AcDbLine
 10
1296.977301832746
 20
60.80090731124756
 30
0.000000000000000
 11
1293.300346570575
 21
64.47786257341807
 31
0.000000000000000
  0
LINE
  5
91
100
AcDbEntity
  8
A1
  6
CONTINUOUS
 62
7
100
AcDbLine
 10
1300.654257094916
 20
64.47786257341625
 30
0.000000000000000
 11
1296.977301832747
 21
68.15481783558550
 31
0.000000000000000
  0
LINE
  5
92
100
AcDbEntity
  8
A1
  6
CONTINUOUS
 62
7
100
AcDbLine
 10
1293.300346570573
 20
64.47786257341761
 30
0.000000000000000
 11
1296.977301832743
 21
68.15481783558823
 31
0.000000000000000
  0
LINE
  5
93
100
AcDbEntity
  8
A1
  6
CONTINUOUS
 62
7
100
AcDbLine
 10
1296.977301832746
 20
60.80090731124653
 30
0.000000000000000
 11
1300.654257094917
 21
64.47786257341659
 31
0.000000000000000
  0
LINE
  5
94
100
AcDbEntity
  8
A1
  6
CONTINUOUS
 62
7
100
AcDbLine
 10
1306.327301832745
 20
61.12786257341781
 30
0.000000000000000
 11
1306.327301832745
 21
67.82786257341854
 31
0.000000000000000
  0
LINE
  5
95
100
AcDbEntity
  8
A1
  6
CONTINUOUS
 62
7
100
AcDbLine
 10
1313.027301832746
 20
61.12786257341963
 30
0.000000000000000
 11
1313.027301832746
 21
67.82786257341854
 31
0.000000000000000
  0
LINE
  5
96
100
AcDbEntity
  8
A1
  6
CONTINUOUS
 62
7
100
AcDbLine
 10
1306.327301832746
 20
61.12786257341975
 30
0.000000000000000
 11
1313.027301832747
 21
61.12786257342066
 31
0.000000000000000
  0
LINE
  5
97
100
AcDbEntity
  8
A1
  6
CONTINUOUS
 62
7
100
AcDbLine
 10
1306.327301832745
 20
67.82786257341854
 30
0.000000000000000
 11
1313.027301832746
 21
67.82786257341854
 31
0.000000000000000
  0
LINE
  5
98
100
AcDbEntity
  8
A1
  6
CONTINUOUS
 62
7
100
AcDbLine
 10
1267.677301832748
 20
52.26376095828550
 30
0.000000000000000
 11
1267.677301832748
 21
38.02786257341927
 31
0.000000000000000
  0
LINE
  5
99
100
AcDbEntity
  8
A1
  6
CONTINUOUS
 62
7
100
AcDbLine
 10
1267.677301832748
 20
76.69196418855267
 30
0.000000000000000
 11
1267.677301832748
 21
90.92786257341891
 31
0.000000000000000
  0
LINE
  5
9A
100
AcDbEntity
  8
A1
  6
CONTINUOUS
 62
7
100
AcDbLine
 10
1222.677301832748
 20
44.47786257342000
 30
0.000000000000000
 11
1232.677301832748
 21
44.47786257342000
 31
0.000000000000000
  0
LINE
  5
9B
100
AcDbEntity
  8
A1
  6
CONTINUOUS
 62
7
100
AcDbLine
 10
1222.677301832748
 20
84.47786257342000
 30
0.000000000000000
 11
1232.677301832748
 21
84.47786257342000
 31
0.000000000000000
  0
LINE
  5
9C
100
AcDbEntity
  8
A1
  6
CONTINUOUS
 62
7
100
AcDbLine
 10
1232.677301832748
 20
84.47786257342000
 30
0.000000000000000
 11
1232.677301832748
 21
44.47786257342000
 31
0.000000000000000
  0
LINE
  5
9D
100
AcDbEntity
  8
A1
  6
CONTINUOUS
 62
7
100
AcDbLine
 10
1222.677301832748
 20
84.47786257342000
 30
0.000000000000000
 11
1222.677301832748
 21
44.47786257342000
 31
0.000000000000000
  0
LINE
  5
9E
100
AcDbEntity
  8
A1
  6
CONTINUOUS
 62
7
100
AcDbLine
 10
491.8773018327523
 20
90.92786257341905
 30
0.000000000000000
 11
491.8773018327539
 21
83.27786257341941
 31
0.000000000000000
  0
LINE
  5
9F
100
AcDbEntity
  8
A1
  6
CONTINUOUS
 62
7
100
AcDbLine
 10
1222.677301832748
 20
56.78726365017633
 30
0.000000000000000
 11
1232.677301832748
 21
56.78726365017633
 31
0.000000000000000
  0
LINE
  5
A0
100
AcDbEntity
  8
A1
  6
CONTINUOUS
 62
7
100
AcDbLine
 10
1222.677301832748
 20
72.16846149666003
 30
0.000000000000000
 11
1232.677301832748
 21
72.16846149666003
 31
0.000000000000000
  0
LINE
  5
A1
100
AcDbEntity
  8
A1
  6
CONTINUOUS
 62
7
100
AcDbLine
 10
1258.177301832748
 20
75.35757446058801
 30
0.000000000000000
 11
1249.677301832748
 21
75.35757446058801
 31
0.000000000000000
  0
LINE
  5
A2
100
AcDbEntity
  8
A1
  6
CONTINUOUS
 62
7
100
AcDbLine
 10
1258.177301832748
 20
53.59815068625016
 30
0.000000000000000
 11
1249.677301832748
 21
53.59815068625016
 31
0.000000000000000
  0
ARC
  5
A3
100
AcDbEntity
  8
A1
  6
CONTINUOUS
 62
7
100
AcDbCircle
 10
1132.877301832752
 20
64.47786257342000
 30
0.000000000000000
 40
8.000000000000000
100
AcDbArc
 50
270.0000000000000
 51
450.0000000000000
  0
ARC
  5
A4
100
AcDbEntity
  8
A1
  6
CONTINUOUS
 62
7
100
AcDbCircle
 10
1113.877301832750
 20
64.47786257342000
 30
0.000000000000000
 40
8.000000000000000
100
AcDbArc
 50
90.00000000000000
 51
270.0000000000000
  0
LINE
  5
A5
100
AcDbEntity
  8
A1
  6
CONTINUOUS
 62
7
100
AcDbLine
 10
1113.877301832750
 20
72.47786257342000
 30
0.000000000000000
 11
1132.877301832752
 21
72.47786257342000
 31
0.000000000000000
  0
LINE
  5
A6
100
AcDbEntity
  8
A1
  6
CONTINUOUS
 62
7
100
AcDbLine
 10
1113.877301832750
 20
56.47786257342000
 30
0.000000000000000
 11
1132.877301832752
 21
56.47786257342000
 31
0.000000000000000
  0
ARC
  5
A7
100
AcDbEntity
  8
A1
  6
CONTINUOUS
 62
7
100
AcDbCircle
 10
909.6773018327505
 20
64.47786257342000
 30
0.000000000000000
 40
8.000000000000000
100
AcDbArc
 50
270.0000000000000
 51
450.0000000000000
  0
ARC
  5
A8
100
AcDbEntity
  8
A1
  6
CONTINUOUS
 62
7
100
AcDbCircle
 10
890.6773018327505
 20
64.47786257342000
 30
0.000000000000000
 40
8.000000000000000
100
AcDbArc
 50
90.00000000000000
 51
270.0000000000000
  0
LINE
  5
A9
100
AcDbEntity
  8
A1
  6
CONTINUOUS
 62
7
100
AcDbLine
 10
890.6773018327505
 20
72.47786257342000
 30
0.000000000000000
 11
909.6773018327505
 21
72.47786257342000
 31
0.000000000000000
  0
LINE
  5
AA
100
AcDbEntity
  8
A1
  6
CONTINUOUS
 62
7
100
AcDbLine
 10
890.6773018327505
 20
56.47786257342000
 30
0.000000000000000
 11
909.6773018327505
 21
56.47786257342000
 31
0.000000000000000
  0
ARC
  5
AB
100
AcDbEntity
  8
A1
  6
CONTINUOUS
 62
7
100
AcDbCircle
 10
1242.427686470910
 20
75.97566810540252
 30
0.000000000000000
 40
3.000000000000000
100
AcDbArc
 50
40.95575754733699
 51
120.0000000000000
  0
LINE
  5
AC
100
AcDbEntity
  8
A1
  6
CONTINUOUS
 62
7
100
AcDbLine
 10
1237.782483064430
 20
76.75786028337541
 30
0.000000000000000
 11
1240.927686470907
 21
78.57374431676089
 31
0.000000000000000
  0
LINE
  5
AD
100
AcDbEntity
  8
A1
  6
CONTINUOUS
 62
7
100
AcDbLine
 10
1245.472407959657
 20
77.01363248566088
 30
0.000000000000000
 11
1244.693334316460
 21
77.94209629883733
 31
0.000000000000000
  0
LINE
  5
AE
100
AcDbEntity
  8
A1
  6
CONTINUOUS
 62
7
100
AcDbLine
 10
1237.177301832752
 20
76.10184926055472
 30
0.000000000000000
 11
1237.177301832752
 21
52.85387588628536
 31
0.000000000000000
  0
LINE
  5
AF
100
AcDbEntity
  8
A1
  6
CONTINUOUS
 62
7
100
AcDbLine
 10
1255.027301832750
 20
71.87786257341600
 30
0.000000000000000
 11
1252.827301832749
 21
71.87786257341600
 31
0.000000000000000
  0
LINE
  5
B0
100
AcDbEntity
  8
A1
  6
CONTINUOUS
 62
7
100
AcDbLine
 10
1255.227301832747
 20
71.67786257341709
 30
0.000000000000000
 11
1255.227301832747
 21
66.92735231620304
 31
0.000000000000000
  0
LINE
  5
B1
100
AcDbEntity
  8
A1
  6
CONTINUOUS
 62
7
100
AcDbLine
 10
1252.627301832748
 20
71.67786257341709
 30
0.000000000000000
 11
1252.627301832748
 21
66.92735231620304
 31
0.000000000000000
  0
ARC
  5
B2
100
AcDbEntity
  8
A1
  6
CONTINUOUS
 62
7
100
AcDbCircle
 10
1255.027301832750
 20
71.67786257341709
 30
0.000000000000000
 40
0.2000000000000000
100
AcDbArc
 50
0.000000000000000
 51
90.00000000000000
  0
ARC
  5
B3
100
AcDbEntity
  8
A1
  6
CONTINUOUS
 62
7
100
AcDbCircle
 10
1252.827301832749
 20
71.67786257341709
 30
0.000000000000000
 40
0.2000000000000000
100
AcDbArc
 50
90.00000000000000
 51
180.0000000000000
  0
LINE
  5
B4
100
AcDbEntity
  8
A1
  6
CONTINUOUS
 62
7
100
AcDbLine
 10
1249.677301832748
 20
74.37786257341963
 30
0.000000000000000
 11
1249.677301832748
 21
76.17786257341527
 31
0.000000000000000
  0
LINE
  5
B5
100
AcDbEntity
  8
A1
  6
CONTINUOUS
 62
7
100
AcDbLine
 10
1270.677301832748
 20
55.72786257342364
 30
0.000000000000000
 11
1270.677301832748
 21
73.22786257341636
 31
0.000000000000000
  0
LINE
  5
B6
100
AcDbEntity
  8
A1
  6
CONTINUOUS
 62
7
100
AcDbLine
 10
1267.677301832748
 20
73.22786257341454
 30
0.000000000000000
 11
1267.677301832748
 21
55.72786257342182
 31
0.000000000000000
  0
ARC
  5
B7
100
AcDbEntity
  8
A1
  6
CONTINUOUS
 62
7
100
AcDbCircle
 10
1253.927301832748
 20
64.47786257341818
 30
0.000000000000000
 40
5.500000000000000
100
AcDbArc
 50
323.1301023541835
 51
396.8698976458443
  0
LINE
  5
B8
100
AcDbEntity
  8
A1
  6
CONTINUOUS
 62
7
100
AcDbLine
 10
1257.677301832748
 20
73.87786257341963
 30
0.000000000000000
 11
1250.177301832748
 21
73.87786257341963
 31
0.000000000000000
  0
LINE
  5
B9
100
AcDbEntity
  8
A1
  6
CONTINUOUS
 62
7
100
AcDbLine
 10
1249.427301832748
 20
67.17786257341527
 30
0.000000000000000
 11
1249.427301832748
 21
61.77786257342291
 31
0.000000000000000
  0
LINE
  5
BA
100
AcDbEntity
  8
A1
  6
CONTINUOUS
 62
7
100
AcDbLine
 10
1258.177301832748
 20
76.17786257341527
 30
0.000000000000000
 11
1258.177301832748
 21
74.37786257341963
 31
0.000000000000000
  0
ARC
  5
BB
100
AcDbEntity
  8
A1
  6
CONTINUOUS
 62
7
100
AcDbCircle
 10
1253.927301832748
 20
64.47786257341818
 30
0.000000000000000
 40
2.500000000000000
100
AcDbArc
 50
127.7997224354281
 51
232.2002775645719
  0
ARC
  5
BC
100
AcDbEntity
  8
A1
  6
CONTINUOUS
 62
7
100
AcDbCircle
 10
1253.927301832748
 20
64.47786257341818
 30
0.000000000000000
 40
2.500000000000000
100
AcDbArc
 50
307.7997224354277
 51
412.2002775645719
  0
ARC
  5
BD
100
AcDbEntity
  8
A1
  6
CONTINUOUS
 62
7
100
AcDbCircle
 10
1250.177301832748
 20
74.37786257341963
 30
0.000000000000000
 40
0.5000000000000000
100
AcDbArc
 50
180.0000000000000
 51
270.0000000000000
  0
ARC
  5
BE
100
AcDbEntity
  8
A1
  6
CONTINUOUS
 62
7
100
AcDbCircle
 10
1257.677301832748
 20
74.37786257341963
 30
0.000000000000000
 40
0.5000000000000000
100
AcDbArc
 50
270.0000000000000
 51
360.0000000000000
  0
ARC
  5
BF
100
AcDbEntity
  8
A1
  6
CONTINUOUS
 62
7
100
AcDbCircle
 10
1252.027301832750
 20
66.92735231620304
 30
0.000000000000000
 40
0.6000000000000000
100
AcDbArc
 50
307.7997224354273
 51
360.0000000000000
  0
ARC
  5
C0
100
AcDbEntity
  8
A1
  6
CONTINUOUS
 62
7
100
AcDbCircle
 10
1255.827301832749
 20
66.92735231620304
 30
0.000000000000000
 40
0.6000000000000000
100
AcDbArc
 50
180.0000000000000
 51
232.2002775645709
  0
ARC
  5
C1
100
AcDbEntity
  8
A1
  6
CONTINUOUS
 62
7
100
AcDbCircle
 10
1257.677301832748
 20
74.37786257341963
 30
0.000000000000000
 40
3.500000000000000
100
AcDbArc
 50
285.2184551577777
 51
343.2916562842898
  0
LINE
  5
C2
100
AcDbEntity
  8
A1
  6
CONTINUOUS
 62
7
100
AcDbLine
 10
1258.227301832747
 20
70.51813460373000
 30
0.000000000000000
 11
1258.227301832747
 21
68.07786257341672
 31
0.000000000000000
  0
ARC
  5
C3
100
AcDbEntity
  8
A1
  6
CONTINUOUS
 62
7
100
AcDbCircle
 10
1258.727301832747
 20
70.51813460373000
 30
0.000000000000000
 40
0.5000000000000000
100
AcDbArc
 50
105.2184551577803
 51
180.0000000000000
  0
LINE
  5
C4
100
AcDbEntity
  8
A1
  6
CONTINUOUS
 62
7
100
AcDbLine
 10
1267.177301832748
 20
73.72786257341454
 30
0.000000000000000
 11
1261.508424383646
 21
73.72786257341454
 31
0.000000000000000
  0
ARC
  5
C5
100
AcDbEntity
  8
A1
  6
CONTINUOUS
 62
7
100
AcDbCircle
 10
1267.177301832748
 20
73.22786257341454
 30
0.000000000000000
 40
0.5000000000000000
100
AcDbArc
 50
0.000000000000000
 51
90.00000000000000
  0
ARC
  5
C6
100
AcDbEntity
  8
A1
  6
CONTINUOUS
 62
7
100
AcDbCircle
 10
1267.177301832748
 20
73.22786257341454
 30
0.000000000000000
 40
3.500000000000000
100
AcDbArc
 50
4.653000000000000e-13
 51
90.00000000000000
  0
ARC
  5
C7
100
AcDbEntity
  8
A1
  6
CONTINUOUS
 62
7
100
AcDbCircle
 10
1261.508424383646
 20
73.22786257341454
 30
0.000000000000000
 40
0.5000000000000000
100
AcDbArc
 50
90.00000000000652
 51
163.2916562842906
  0
LINE
  5
C8
100
AcDbEntity
  8
A1
  6
CONTINUOUS
 62
7
100
AcDbLine
 10
1246.085243514153
 20
76.72786257341636
 30
0.000000000000000
 11
1249.127301832748
 21
76.72786257341636
 31
0.000000000000000
  0
LINE
  5
C9
100
AcDbEntity
  8
A1
  6
CONTINUOUS
 62
7
100
AcDbLine
 10
1258.727301832747
 20
76.72786257341636
 30
0.000000000000000
 11
1267.177301832748
 21
76.72786257341636
 31
0.000000000000000
  0
ARC
  5
CA
100
AcDbEntity
  8
A1
  6
CONTINUOUS
 62
7
100
AcDbCircle
 10
1258.727301832747
 20
68.07786257341672
 30
0.000000000000000
 40
0.5000000000000000
100
AcDbArc
 50
180.0000000000000
 51
216.8698976458401
  0
LINE
  5
CB
100
AcDbEntity
  8
A1
  6
CONTINUOUS
 62
7
100
AcDbLine
 10
1255.027301832750
 20
57.07786257342218
 30
0.000000000000000
 11
1252.827301832749
 21
57.07786257342218
 31
0.000000000000000
  0
LINE
  5
CC
100
AcDbEntity
  8
A1
  6
CONTINUOUS
 62
7
100
AcDbLine
 10
1255.227301832747
 20
57.27786257342109
 30
0.000000000000000
 11
1255.227301832747
 21
62.02837283063513
 31
0.000000000000000
  0
LINE
  5
CD
100
AcDbEntity
  8
A1
  6
CONTINUOUS
 62
7
100
AcDbLine
 10
1252.627301832748
 20
57.27786257342109
 30
0.000000000000000
 11
1252.627301832748
 21
62.02837283063513
 31
0.000000000000000
  0
ARC
  5
CE
100
AcDbEntity
  8
A1
  6
CONTINUOUS
 62
7
100
AcDbCircle
 10
1255.027301832750
 20
57.27786257342109
 30
0.000000000000000
 40
0.2000000000000000
100
AcDbArc
 50
270.0000000000000
 51
360.0000000000000
  0
ARC
  5
CF
100
AcDbEntity
  8
A1
  6
CONTINUOUS
 62
7
100
AcDbCircle
 10
1252.827301832749
 20
57.27786257342109
 30
0.000000000000000
 40
0.2000000000000000
100
AcDbArc
 50
180.0000000000000
 51
270.0000000000000
  0
LINE
  5
D0
100
AcDbEntity
  8
A1
  6
CONTINUOUS
 62
7
100
AcDbLine
 10
1249.677301832748
 20
54.57786257341854
 30
0.000000000000000
 11
1249.677301832748
 21
52.77786257342291
 31
0.000000000000000
  0
LINE
  5
D1
100
AcDbEntity
  8
A1
  6
CONTINUOUS
 62
7
100
AcDbLine
 10
1257.677301832748
 20
55.07786257341854
 30
0.000000000000000
 11
1250.177301832748
 21
55.07786257341854
 31
0.000000000000000
  0
LINE
  5
D2
100
AcDbEntity
  8
A1
  6
CONTINUOUS
 62
7
100
AcDbLine
 10
1258.177301832748
 20
52.77786257342291
 30
0.000000000000000
 11
1258.177301832748
 21
54.57786257341854
 31
0.000000000000000
  0
ARC
  5
D3
100
AcDbEntity
  8
A1
  6
CONTINUOUS
 62
7
100
AcDbCircle
 10
1250.177301832748
 20
54.57786257341854
 30
0.000000000000000
 40
0.5000000000000000
100
AcDbArc
 50
90.00000000000000
 51
180.0000000000000
  0
ARC
  5
D4
100
AcDbEntity
  8
A1
  6
CONTINUOUS
 62
7
100
AcDbCircle
 10
1257.677301832748
 20
54.57786257341854
 30
0.000000000000000
 40
0.5000000000000000
100
AcDbArc
 50
0.000000000000000
 51
90.00000000000000
  0
ARC
  5
D5
100
AcDbEntity
  8
A1
  6
CONTINUOUS
 62
7
100
AcDbCircle
 10
1252.027301832750
 20
62.02837283063513
 30
0.000000000000000
 40
0.6000000000000000
100
AcDbArc
 50
0.000000000000000
 51
52.20027756457263
  0
ARC
  5
D6
100
AcDbEntity
  8
A1
  6
CONTINUOUS
 62
7
100
AcDbCircle
 10
1255.827301832749
 20
62.02837283063513
 30
0.000000000000000
 40
0.6000000000000000
100
AcDbArc
 50
127.7997224354290
 51
180.0000000000000
  0
ARC
  5
D7
100
AcDbEntity
  8
A1
  6
CONTINUOUS
 62
7
100
AcDbCircle
 10
1257.677301832748
 20
54.57786257341854
 30
0.000000000000000
 40
3.500000000000000
100
AcDbArc
 50
16.70834371571017
 51
74.78154484222227
  0
LINE
  5
D8
100
AcDbEntity
  8
A1
  6
CONTINUOUS
 62
7
100
AcDbLine
 10
1258.227301832747
 20
58.43759054310817
 30
0.000000000000000
 11
1258.227301832747
 21
60.87786257342145
 31
0.000000000000000
  0
ARC
  5
D9
100
AcDbEntity
  8
A1
  6
CONTINUOUS
 62
7
100
AcDbCircle
 10
1258.727301832747
 20
58.43759054310817
 30
0.000000000000000
 40
0.5000000000000000
100
AcDbArc
 50
180.0000000000000
 51
254.7815448422206
  0
LINE
  5
DA
100
AcDbEntity
  8
A1
  6
CONTINUOUS
 62
7
100
AcDbLine
 10
1267.177301832748
 20
55.22786257342182
 30
0.000000000000000
 11
1261.508424383646
 21
55.22786257342182
 31
0.000000000000000
  0
ARC
  5
DB
100
AcDbEntity
  8
A1
  6
CONTINUOUS
 62
7
100
AcDbCircle
 10
1267.177301832748
 20
55.72786257342182
 30
0.000000000000000
 40
0.5000000000000000
100
AcDbArc
 50
270.0000000000000
 51
360.0000000000000
  0
ARC
  5
DC
100
AcDbEntity
  8
A1
  6
CONTINUOUS
 62
7
100
AcDbCircle
 10
1267.177301832748
 20
55.72786257342182
 30
0.000000000000000
 40
3.500000000000000
100
AcDbArc
 50
270.0000000000000
 51
359.9999999999996
  0
ARC
  5
DD
100
AcDbEntity
  8
A1
  6
CONTINUOUS
 62
7
100
AcDbCircle
 10
1261.508424383646
 20
55.72786257342182
 30
0.000000000000000
 40
0.5000000000000000
100
AcDbArc
 50
196.7083437157113
 51
269.9999999999935
  0
LINE
  5
DE
100
AcDbEntity
  8
A1
  6
CONTINUOUS
 62
7
100
AcDbLine
 10
1258.727301832747
 20
52.22786257342182
 30
0.000000000000000
 11
1267.177301832748
 21
52.22786257342182
 31
0.000000000000000
  0
ARC
  5
DF
100
AcDbEntity
  8
A1
  6
CONTINUOUS
 62
7
100
AcDbCircle
 10
1258.727301832747
 20
60.87786257342145
 30
0.000000000000000
 40
0.5000000000000000
100
AcDbArc
 50
143.1301023541599
 51
180.0000000000000
  0
LINE
  5
E0
100
AcDbEntity
  8
A1
  6
CONTINUOUS
 62
7
100
AcDbLine
 10
1237.177301832748
 20
73.17786257341527
 30
0.000000000000000
 11
1243.427301832748
 21
73.17786257341527
 31
0.000000000000000
  0
ARC
  5
E1
100
AcDbEntity
  8
A1
  6
CONTINUOUS
 62
7
100
AcDbCircle
 10
1243.427301832748
 20
67.17786257341527
 30
0.000000000000000
 40
6.000000000000000
100
AcDbArc
 50
0.000000000000000
 51
90.00000000000000
  0
LINE
  5
E2
100
AcDbEntity
  8
A1
  6
CONTINUOUS
 62
7
100
AcDbLine
 10
1237.177301832748
 20
55.77786257342291
 30
0.000000000000000
 11
1243.427301832748
 21
55.77786257342291
 31
0.000000000000000
  0
ARC
  5
E3
100
AcDbEntity
  8
A1
  6
CONTINUOUS
 62
7
100
AcDbCircle
 10
1243.427301832748
 20
61.77786257342291
 30
0.000000000000000
 40
6.000000000000000
100
AcDbArc
 50
270.0000000000000
 51
360.0000000000000
  0
LINE
  5
E4
100
AcDbEntity
  8
A1
  6
CONTINUOUS
 62
7
100
AcDbLine
 10
1246.085243514153
 20
52.22786257342364
 30
0.000000000000000
 11
1249.127301832748
 21
52.22786257342364
 31
0.000000000000000
  0
ARC
  5
E5
100
AcDbEntity
  8
A1
  6
CONTINUOUS
 62
7
100
AcDbCircle
 10
1249.127301832748
 20
52.77786257342291
 30
0.000000000000000
 40
0.5500000000000000
100
AcDbArc
 50
270.0000000000000
 51
359.9999999999970
  0
ARC
  5
E6
100
AcDbEntity
  8
A1
  6
CONTINUOUS
 62
7
100
AcDbCircle
 10
1258.727301832747
 20
52.77786257342291
 30
0.000000000000000
 40
0.5500000000000000
100
AcDbArc
 50
180.0000000000000
 51
270.0000000000000
  0
ARC
  5
E7
100
AcDbEntity
  8
A1
  6
CONTINUOUS
 62
7
100
AcDbCircle
 10
1249.127301832748
 20
76.17786257341527
 30
0.000000000000000
 40
0.5500000000000000
100
AcDbArc
 50
2.960800000000000e-12
 51
90.00000000000000
  0
ARC
  5
E8
100
AcDbEntity
  8
A1
  6
CONTINUOUS
 62
7
100
AcDbCircle
 10
1258.727301832747
 20
76.17786257341527
 30
0.000000000000000
 40
0.5500000000000000
100
AcDbArc
 50
90.00000000000000
 51
180.0000000000000
  0
ARC
  5
E9
100
AcDbEntity
  8
A1
  6
CONTINUOUS
 62
7
100
AcDbCircle
 10
1242.427686470910
 20
52.98005704143566
 30
0.000000000000000
 40
3.000000000000000
100
AcDbArc
 50
240.0000000000000
 51
319.0442424526630
  0
LINE
  5
EA
100
AcDbEntity
  8
A1
  6
CONTINUOUS
 62
7
100
AcDbLine
 10
1237.782483064435
 20
52.19786486346868
 30
0.000000000000000
 11
1240.927686470912
 21
50.38198083008342
 31
0.000000000000000
  0
LINE
  5
EB
100
AcDbEntity
  8
A1
  6
CONTINUOUS
 62
7
100
AcDbLine
 10
1245.472407959656
 20
51.94209266116900
 30
0.000000000000000
 11
1244.693334316459
 21
51.01362884799266
 31
0.000000000000000
  0
ARC
  5
EC
100
AcDbEntity
  8
A1
  6
CONTINUOUS
 62
7
100
AcDbCircle
 10
1246.085243514153
 20
77.52786257341563
 30
0.000000000000000
 40
0.8000000000000000
100
AcDbArc
 50
219.9999999999991
 51
270.0000000000000
  0
ARC
  5
ED
100
AcDbEntity
  8
A1
  6
CONTINUOUS
 62
7
100
AcDbCircle
 10
1246.085243514153
 20
51.42786257342254
 30
0.000000000000000
 40
0.8000000000000000
100
AcDbArc
 50
90.00000000000000
 51
140.0000000000009
  0
ARC
  5
EE
100
AcDbEntity
  8
A1
  6
CONTINUOUS
 62
7
100
AcDbCircle
 10
1238.532483064431
 20
53.49690296914400
 30
0.000000000000000
 40
1.500000000000000
100
AcDbArc
 50
205.3841182138332
 51
240.0000000000000
  0
ARC
  5
EF
100
AcDbEntity
  8
A1
  6
CONTINUOUS
 62
7
100
AcDbCircle
 10
1238.532483064431
 20
75.45882217769417
 30
0.000000000000000
 40
1.500000000000000
100
AcDbArc
 50
120.0000000000000
 51
154.6158817861668
  0
LINE
  5
F0
100
AcDbEntity
  8
A1
  6
CONTINUOUS
 62
7
100
AcDbLine
 10
1222.677301832748
 20
75.35757446058983
 30
0.000000000000000
 11
874.7773018327572
 21
75.35757446058983
 31
0.000000000000000
  0
LINE
  5
F1
100
AcDbEntity
  8
A1
  6
CONTINUOUS
 62
7
100
AcDbLine
 10
1222.677301832748
 20
53.59815068625198
 30
0.000000000000000
 11
874.7773018327572
 21
53.59815068625198
 31
0.000000000000000
  0
LINE
  5
F2
100
AcDbEntity
  8
A1
  6
CONTINUOUS
 62
7
100
AcDbLine
 10
1267.677301832748
 20
87.26370786953908
 30
0.000000000000000
 11
491.8773018327512
 21
87.26370786953908
 31
0.000000000000000
  0
LINE
  5
F3
100
AcDbEntity
  8
A1
  6
CONTINUOUS
 62
7
100
AcDbLine
 10
1267.677301832748
 20
90.92786257341891
 30
0.000000000000000
 11
491.8773018327512
 21
90.92786257341891
 31
0.000000000000000
  0
CIRCLE
  5
F4
100
AcDbEntity
  8
A3
  6
DASHED
 62
2
100
AcDbCircle
 10
1242.677301832748
 20
71.92755701244482
 30
0.000000000000000
 40
2.100000000000000
  0
CIRCLE
  5
F5
100
AcDbEntity
  8
A3
  6
DASHED
 62
2
100
AcDbCircle
 10
1242.677301832748
 20
56.92755701244482
 30
0.000000000000000
 40
2.100000000000000
  0
LINE
  5
F6
100
AcDbEntity
  8
A1
  6
CONTINUOUS
 62
7
100
AcDbLine
 10
1237.177301832749
 20
75.35757446058919
 30
0.000000000000000
 11
1232.677301832749
 21
75.35757446058899
 31
0.000000000000000
  0
LINE
  5
F7
100
AcDbEntity
  8
A1
  6
CONTINUOUS
 62
7
100
AcDbLine
 10
1237.177301832748
 20
53.59815068625016
 30
0.000000000000000
 11
1232.677301832748
 21
53.59815068625016
 31
0.000000000000000
  0
CIRCLE
  5
F8
100
AcDbEntity
  8
A1
  6
CONTINUOUS
 62
7
100
AcDbCircle
 10
101.6773018327577
 20
64.47786257341818
 30
0.000000000000000
 40
2.600000000000000
  0
CIRCLE
  5
F9
100
AcDbEntity
  8
A1
  6
CONTINUOUS
 62
7
100
AcDbCircle
 10
120.7773018327581
 20
64.47786257341818
 30
0.000000000000000
 40
3.299999999999999
  0
CIRCLE
  5
FA
100
AcDbEntity
  8
A1
  6
CONTINUOUS
 62
7
100
AcDbCircle
 10
165.1773018327596
 20
64.47786257341818
 30
0.000000000000000
 40
3.299999999999999
  0
CIRCLE
  5
FB
100
AcDbEntity
  8
A1
  6
CONTINUOUS
 62
7
100
AcDbCircle
 10
152.4773018327552
 20
64.47786257341818
 30
0.000000000000000
 40
2.600000000000000
  0
CIRCLE
  5
FC
100
AcDbEntity
  8
A1
  6
CONTINUOUS
 62
7
100
AcDbCircle
 10
292.1773018327577
 20
64.47786257341818
 30
0.000000000000000
 40
3.299999999999999
  0
CIRCLE
  5
FD
100
AcDbEntity
  8
A1
  6
CONTINUOUS
 62
7
100
AcDbCircle
 10
279.4773018327588
 20
64.47786257341818
 30
0.000000000000000
 40
2.600000000000000
  0
CIRCLE
  5
FE
100
AcDbEntity
  8
A1
  6
CONTINUOUS
 62
7
100
AcDbCircle
 10
139.7773018327581
 20
64.47786257341818
 30
0.000000000000000
 40
3.299999999999999
  0
CIRCLE
  5
FF
100
AcDbEntity
  8
A1
  6
CONTINUOUS
 62
7
100
AcDbCircle
 10
228.6773018327577
 20
64.47786257341818
 30
0.000000000000000
 40
3.299999999999999
  0
CIRCLE
  5
100
100
AcDbEntity
  8
A1
  6
CONTINUOUS
 62
7
100
AcDbCircle
 10
215.9773018327588
 20
64.47786257341818
 30
0.000000000000000
 40
2.600000000000000
  0
CIRCLE
  5
101
100
AcDbEntity
  8
A1
  6
CONTINUOUS
 62
7
100
AcDbCircle
 10
311.2773018327581
 20
64.47786257341818
 30
0.000000000000000
 40
3.550000000000000
  0
CIRCLE
  5
102
100
AcDbEntity
  8
A1
  6
CONTINUOUS
 62
7
100
AcDbCircle
 10
469.9773018327570
 20
64.47786257341818
 30
0.000000000000000
 40
3.299999999999999
  0
CIRCLE
  5
103
100
AcDbEntity
  8
A1
  6
CONTINUOUS
 62
7
100
AcDbCircle
 10
457.2773018327581
 20
64.47786257341818
 30
0.000000000000000
 40
2.600000000000000
  0
LINE
  5
104
100
AcDbEntity
  8
A1
  6
CONTINUOUS
 62
7
100
AcDbLine
 10
708.0273018327608
 20
61.17786257341891
 30
0.000000000000000
 11
698.7273018327506
 21
61.17786257341891
 31
0.000000000000000
  0
ARC
  5
105
100
AcDbEntity
  8
A1
  6
CONTINUOUS
 62
7
100
AcDbCircle
 10
708.0273018327608
 20
64.47786257341818
 30
0.000000000000000
 40
3.299999999999999
100
AcDbArc
 50
270.0000000000000
 51
450.0000000000000
  0
ARC
  5
106
100
AcDbEntity
  8
A1
  6
CONTINUOUS
 62
7
100
AcDbCircle
 10
698.7273018327506
 20
64.47786257341818
 30
0.000000000000000
 40
3.299999999999999
100
AcDbArc
 50
90.00000000000000
 51
270.0000000000000
  0
LINE
  5
107
100
AcDbEntity
  8
A1
  6
CONTINUOUS
 62
7
100
AcDbLine
 10
708.0273018327608
 20
67.77786257341745
 30
0.000000000000000
 11
698.7273018327506
 21
67.77786257341745
 31
0.000000000000000
  0
CIRCLE
  5
108
100
AcDbEntity
  8
A1
  6
CONTINUOUS
 62
7
100
AcDbCircle
 10
685.8773018327521
 20
64.47786257341818
 30
0.000000000000000
 40
3.550000000000000
  0
CIRCLE
  5
109
100
AcDbEntity
  8
A1
  6
CONTINUOUS
 62
7
100
AcDbCircle
 10
763.5773018327465
 20
64.47786257341818
 30
0.000000000000000
 40
3.299999999999999
  0
CIRCLE
  5
10A
100
AcDbEntity
  8
A1
  6
CONTINUOUS
 62
7
100
AcDbCircle
 10
776.2773018327472
 20
64.47786257341818
 30
0.000000000000000
 40
2.600000000000000
  0
LINE
  5
10B
100
AcDbEntity
  8
A1
  6
CONTINUOUS
 62
7
100
AcDbLine
 10
791.1273018327475
 20
61.87786257341781
 30
0.000000000000000
 11
786.8273018327574
 21
61.87786257341781
 31
0.000000000000000
  0
ARC
  5
10C
100
AcDbEntity
  8
A1
  6
CONTINUOUS
 62
7
100
AcDbCircle
 10
791.1273018327475
 20
64.47786257341818
 30
0.000000000000000
 40
2.600000000000000
100
AcDbArc
 50
270.0000000000000
 51
450.0000000000000
  0
ARC
  5
10D
100
AcDbEntity
  8
A1
  6
CONTINUOUS
 62
7
100
AcDbCircle
 10
786.8273018327574
 20
64.47786257341818
 30
0.000000000000000
 40
2.600000000000000
100
AcDbArc
 50
90.00000000000000
 51
270.0000000000000
  0
LINE
  5
10E
100
AcDbEntity
  8
A1
  6
CONTINUOUS
 62
7
100
AcDbLine
 10
791.1273018327475
 20
67.07786257341854
 30
0.000000000000000
 11
786.8273018327574
 21
67.07786257341854
 31
0.000000000000000
  0
LINE
  5
10F
100
AcDbEntity
  8
A1
  6
CONTINUOUS
 62
7
100
AcDbLine
 10
874.7773018327572
 20
83.27786257341927
 30
0.000000000000000
 11
69.87730183275846
 21
83.27786257341927
 31
0.000000000000000
  0
LINE
  5
110
100
AcDbEntity
  8
A1
  6
CONTINUOUS
 62
7
100
AcDbLine
 10
874.7773018327572
 20
79.57786257342036
 30
0.000000000000000
 11
70.07360329954929
 21
79.57786257342036
 31
0.000000000000000
  0
LINE
  5
111
100
AcDbEntity
  8
A1
  6
CONTINUOUS
 62
7
100
AcDbLine
 10
837.4773018332704
 20
75.97786257333961
 30
0.000000000000000
 11
839.9773018332631
 21
75.97786257334188
 31
0.000000000000000
  0
LINE
  5
112
100
AcDbEntity
  8
A1
  6
CONTINUOUS
 62
7
100
AcDbLine
 10
837.4773018332712
 20
75.97786257333942
 30
0.000000000000000
 11
837.4773018332929
 21
52.97786257333760
 31
0.000000000000000
  0
LINE
  5
113
100
AcDbEntity
  8
A1
  6
CONTINUOUS
 62
7
100
AcDbLine
 10
839.9773018332708
 20
75.97786257334349
 30
0.000000000000000
 11
839.9773018332817
 21
52.97786257334349
 31
0.000000000000000
  0
LINE
  5
114
100
AcDbEntity
  8
A1
  6
CONTINUOUS
 62
7
100
AcDbLine
 10
833.1773018332681
 20
73.97786257333775
 30
0.000000000000000
 11
833.1773018332790
 21
54.97786257333775
 31
0.000000000000000
  0
ARC
  5
115
100
AcDbEntity
  8
A1
  6
CONTINUOUS
 62
7
100
AcDbCircle
 10
835.1773018332689
 20
73.97786257333996
 30
0.000000000000000
 40
2.000000000000000
100
AcDbArc
 50
90.00000000005539
 51
180.0000000000521
  0
ARC
  5
116
100
AcDbEntity
  8
A1
  6
CONTINUOUS
 62
7
100
AcDbCircle
 10
835.1773018332798
 20
54.97786257333996
 30
0.000000000000000
 40
2.000000000000000
100
AcDbArc
 50
180.0000000000521
 51
270.0000000000554
  0
LINE
  5
117
100
AcDbEntity
  8
A1
  6
CONTINUOUS
 62
7
100
AcDbLine
 10
837.4773018332934
 20
52.97786257334150
 30
0.000000000000000
 11
839.9773018332825
 21
52.97786257334381
 31
0.000000000000000
  0
LINE
  5
118
100
AcDbEntity
  8
A1
  6
CONTINUOUS
 62
7
100
AcDbLine
 10
874.7773018327574
 20
45.67786257341922
 30
0.000000000000000
 11
874.7773018327573
 21
83.27786257341776
 31
0.000000000000000
  0
LINE
  5
119
100
AcDbEntity
  8
A1
  6
CONTINUOUS
 62
7
100
AcDbLine
 10
835.1773018332667
 20
75.97786257333944
 30
0.000000000000000
 11
837.4773018332696
 21
75.97786257334165
 31
0.000000000000000
  0
LINE
  5
11A
100
AcDbEntity
  8
A1
  6
CONTINUOUS
 62
7
100
AcDbLine
 10
835.1773018332824
 20
52.97786257333748
 30
0.000000000000000
 11
837.4773018332926
 21
52.97786257333978
 31
0.000000000000000
  0
LINE
  5
11B
100
AcDbEntity
  8
A1
  6
CONTINUOUS
 62
7
100
AcDbLine
 10
69.87730183276567
 20
75.97786257341691
 30
0.000000000000000
 11
72.37730183276021
 21
75.97786257341942
 31
0.000000000000000
  0
ARC
  5
11C
100
AcDbEntity
  8
A1
  6
CONTINUOUS
 62
7
100
AcDbCircle
 10
71.87730183276392
 20
76.97786257342000
 30
0.000000000000000
 40
1.000000000000000
100
AcDbArc
 50
270.0000000000521
 51
420.0000000000475
  0
LINE
  5
11D
100
AcDbEntity
  8
A1
  6
CONTINUOUS
 62
7
100
AcDbLine
 10
70.87730183276400
 20
78.70991338099374
 30
0.000000000000000
 11
72.37730183276551
 21
77.84388797720973
 31
0.000000000000000
  0
LINE
  5
11E
100
AcDbEntity
  8
A1
  6
CONTINUOUS
 62
7
100
AcDbLine
 10
69.87730183275815
 20
83.27786257342005
 30
0.000000000000000
 11
69.87730183276065
 21
80.44196418855709
 31
0.000000000000000
  0
ARC
  5
11F
100
AcDbEntity
  8
A1
  6
CONTINUOUS
 62
7
100
AcDbCircle
 10
71.87730183276028
 20
80.44196418855995
 30
0.000000000000000
 40
2.000000000000000
100
AcDbArc
 50
180.0000000000554
 51
240.0000000000566
  0
LINE
  5
120
100
AcDbEntity
  8
A1
  6
CONTINUOUS
 62
7
100
AcDbLine
 10
69.87730183276393
 20
75.97786257342004
 30
0.000000000000000
 11
69.87730183278576
 21
52.97786257341821
 31
0.000000000000000
  0
LINE
  5
121
100
AcDbEntity
  8
A1
  6
CONTINUOUS
 62
7
100
AcDbLine
 10
72.37730183276460
 20
75.97786257342126
 30
0.000000000000000
 11
72.37730183277552
 21
52.97786257342126
 31
0.000000000000000
  0
LINE
  5
122
100
AcDbEntity
  8
A1
  6
CONTINUOUS
 62
7
100
AcDbLine
 10
69.87730183278686
 20
52.97786257341692
 30
0.000000000000000
 11
72.37730183277594
 21
52.97786257341942
 31
0.000000000000000
  0
ARC
  5
123
100
AcDbEntity
  8
A1
  6
CONTINUOUS
 62
7
100
AcDbCircle
 10
71.87730183278757
 20
51.97786257342000
 30
0.000000000000000
 40
1.000000000000000
100
AcDbArc
 50
300.0000000000687
 51
450.0000000000521
  0
LINE
  5
124
100
AcDbEntity
  8
A1
  6
CONTINUOUS
 62
7
100
AcDbLine
 10
70.87730183278897
 20
50.24581176585131
 30
0.000000000000000
 11
72.37730183278718
 21
51.11183716963740
 31
0.000000000000000
  0
LINE
  5
125
100
AcDbEntity
  8
A1
  6
CONTINUOUS
 62
7
100
AcDbLine
 10
69.87730183279375
 20
45.67786257341847
 30
0.000000000000000
 11
69.87730183279102
 21
48.51376095828324
 31
0.000000000000000
  0
ARC
  5
126
100
AcDbEntity
  8
A1
  6
CONTINUOUS
 62
7
100
AcDbCircle
 10
71.87730183279120
 20
48.51376095828368
 30
0.000000000000000
 40
2.000000000000000
100
AcDbArc
 50
120.0000000000517
 51
180.0000000000554
  0
LINE
  5
127
100
AcDbEntity
  8
A1
  6
CONTINUOUS
 62
7
100
AcDbLine
 10
874.7773018327572
 20
78.18554737209547
 30
0.000000000000000
 11
1222.677301832748
 21
78.18554737209547
 31
0.000000000000000
  0
LINE
  5
128
100
AcDbEntity
  8
A1
  6
CONTINUOUS
 62
7
100
AcDbLine
 10
874.7773018327571
 20
50.77017777474313
 30
0.000000000000000
 11
1222.677301832747
 21
50.77017777474131
 31
0.000000000000000
  0
LINE
  5
129
100
AcDbEntity
  8
A1
  6
CONTINUOUS
 62
7
100
AcDbLine
 10
491.8773018327601
 20
45.67786257342092
 30
0.000000000000000
 11
491.8773018327617
 21
38.02786257341946
 31
0.000000000000000
  0
LINE
  5
12A
100
AcDbEntity
  8
A1
  6
CONTINUOUS
 62
7
100
AcDbLine
 10
874.7773018327572
 20
45.67786257341891
 30
0.000000000000000
 11
69.87730183275846
 21
45.67786257341891
 31
0.000000000000000
  0
LINE
  5
12B
100
AcDbEntity
  8
A1
  6
CONTINUOUS
 62
7
100
AcDbLine
 10
874.7773018327572
 20
49.37786257341963
 30
0.000000000000000
 11
70.07360329954747
 21
49.37786257341963
 31
0.000000000000000
  0
LINE
  5
12C
100
AcDbEntity
  8
A1
  6
CONTINUOUS
 62
7
100
AcDbLine
 10
1267.677301832748
 20
41.69201727729728
 30
0.000000000000000
 11
491.8773018327521
 21
41.69201727729728
 31
0.000000000000000
  0
LINE
  5
12D
100
AcDbEntity
  8
A1
  6
CONTINUOUS
 62
7
100
AcDbLine
 10
1267.677301832748
 20
38.02786257341745
 30
0.000000000000000
 11
491.8773018327503
 21
38.02786257341745
 31
0.000000000000000
  0
LINE
  5
12E
100
AcDbEntity
  8
A1
  6
CONTINUOUS
 62
7
100
AcDbLine
 10
1690.677301832749
 20
29.57786257342343
 30
0.000000000000000
 11
877.8773018327489
 21
29.57786257341956
 31
0.000000000000000
  0
LINE
  5
12F
100
AcDbEntity
  8
A1
  6
CONTINUOUS
 62
7
100
AcDbLine
 10
1690.566360459401
 20
33.97786257342000
 30
0.000000000000000
 11
877.8773018327491
 21
33.97786257342000
 31
0.000000000000000
  0
LINE
  5
130
100
AcDbEntity
  8
A1
  6
CONTINUOUS
 62
7
100
AcDbLine
 10
915.6003465705803
 20
64.47786257341875
 30
0.000000000000000
 11
917.4585114589905
 21
66.33602746182953
 31
0.000000000000000
  0
LINE
  5
131
100
AcDbEntity
  8
A1
  6
CONTINUOUS
 62
7
100
AcDbLine
 10
917.4585114589922
 20
62.61969768500569
 30
0.000000000000000
 11
915.6003465705817
 21
64.47786257341608
 31
0.000000000000000
  0
LINE
  5
132
100
AcDbEntity
  8
A3
  6
DASHED
 62
2
100
AcDbLine
 10
1141.854257094917
 20
64.47786257341636
 30
0.000000000000000
 11
1140.808680646742
 21
63.43228612524138
 31
0.000000000000000
  0
LINE
  5
133
100
AcDbEntity
  8
A3
  6
DASHED
 62
2
100
AcDbLine
 10
1140.808680646743
 20
65.52343902159248
 30
0.000000000000000
 11
1141.854257094918
 21
64.47786257341477
 31
0.000000000000000
  0
ARC
  5
134
100
AcDbEntity
  8
A3
  6
DASHED
 62
2
100
AcDbCircle
 10
1271.577301832745
 20
64.47786257341818
 30
0.000000000000000
 40
2.600000000000001
100
AcDbArc
 50
110.2522467421364
 51
249.7477532578636
  0
LINE
  5
135
100
AcDbEntity
  8
A1
  6
CONTINUOUS
 62
7
100
AcDbLine
 10
1232.677301832750
 20
78.18554737209685
 30
0.000000000000000
 11
1240.255309639416
 21
78.18554737209696
 31
0.000000000000000
  0
LINE
  5
136
100
AcDbEntity
  8
A1
  6
CONTINUOUS
 62
7
100
AcDbLine
 10
1244.456586080706
 20
78.18554737209563
 30
0.000000000000000
 11
1267.677301832749
 21
78.18554737209585
 31
0.000000000000000
  0
LINE
  5
137
100
AcDbEntity
  8
A1
  6
CONTINUOUS
 62
7
100
AcDbLine
 10
1240.255309639415
 20
50.77017777474271
 30
0.000000000000000
 11
1232.677301832748
 21
50.77017777474271
 31
0.000000000000000
  0
LINE
  5
138
100
AcDbEntity
  8
A1
  6
CONTINUOUS
 62
7
100
AcDbLine
 10
1267.677301832747
 20
50.77017777474341
 30
0.000000000000000
 11
1244.456586080706
 21
50.77017777474352
 31
0.000000000000000
  0
LINE
  5
139
100
AcDbEntity
  8
A1
  6
CONTINUOUS
 62
7
100
AcDbLine
 10
1252.627301832748
 20
66.92735231620297
 30
0.000000000000000
 11
1252.627301832748
 21
62.02837283063506
 31
0.000000000000000
  0
LINE
  5
13A
100
AcDbEntity
  8
A1
  6
CONTINUOUS
 62
7
100
AcDbLine
 10
1255.227301832747
 20
66.92735231620297
 30
0.000000000000000
 11
1255.227301832747
 21
62.02837283063506
 31
0.000000000000000
  0
LINE
  5
13B
100
AcDbEntity
  8
A4
  6
CENTER
 62
1
100
AcDbLine
 10
1112.777301832748
 20
76.07786257341854
 30
0.000000000000000
 11
1112.777301832748
 21
52.87786257341963
 31
0.000000000000000
  0
LINE
  5
13C
100
AcDbEntity
  8
A4
  6
CENTER
 62
1
100
AcDbLine
 10
1125.477301832747
 20
76.77786257341927
 30
0.000000000000000
 11
1125.477301832747
 21
52.17786257341891
 31
0.000000000000000
  0
LINE
  5
13D
100
AcDbEntity
  8
A4
  6
CENTER
 62
1
100
AcDbLine
 10
1150.877301832748
 20
52.12786257341963
 30
0.000000000000000
 11
1150.877301832748
 21
76.82786257341854
 31
0.000000000000000
  0
LINE
  5
13E
100
AcDbEntity
  8
A4
  6
CENTER
 62
1
100
AcDbLine
 10
1138.177301832748
 20
51.80090731124824
 30
0.000000000000000
 11
1138.177301832748
 21
77.15481783558994
 31
0.000000000000000
  0
LINE
  5
13F
100
AcDbEntity
  8
A4
  6
CENTER
 62
1
100
AcDbLine
 10
120.7773018327581
 20
75.27786257341745
 30
0.000000000000000
 11
120.7773018327581
 21
53.67786257341891
 31
0.000000000000000
  0
LINE
  5
140
100
AcDbEntity
  8
A4
  6
CENTER
 62
1
100
AcDbLine
 10
139.7773018327581
 20
75.27786257341745
 30
0.000000000000000
 11
139.7773018327581
 21
53.67786257341891
 31
0.000000000000000
  0
LINE
  5
141
100
AcDbEntity
  8
A4
  6
CENTER
 62
1
100
AcDbLine
 10
152.4773018327552
 20
74.57786257341854
 30
0.000000000000000
 11
152.4773018327552
 21
54.37786257341781
 31
0.000000000000000
  0
LINE
  5
142
100
AcDbEntity
  8
A4
  6
CENTER
 62
1
100
AcDbLine
 10
165.1773018327596
 20
75.27786257341745
 30
0.000000000000000
 11
165.1773018327596
 21
53.67786257341891
 31
0.000000000000000
  0
LINE
  5
143
100
AcDbEntity
  8
A4
  6
CENTER
 62
1
100
AcDbLine
 10
215.9773018327588
 20
74.57786257341854
 30
0.000000000000000
 11
215.9773018327588
 21
54.37786257341781
 31
0.000000000000000
  0
LINE
  5
144
100
AcDbEntity
  8
A4
  6
CENTER
 62
1
100
AcDbLine
 10
228.6773018327577
 20
75.27786257341745
 30
0.000000000000000
 11
228.6773018327577
 21
53.67786257341891
 31
0.000000000000000
  0
LINE
  5
145
100
AcDbEntity
  8
A4
  6
CENTER
 62
1
100
AcDbLine
 10
279.4773018327588
 20
74.57786257341854
 30
0.000000000000000
 11
279.4773018327588
 21
54.37786257341781
 31
0.000000000000000
  0
LINE
  5
146
100
AcDbEntity
  8
A4
  6
CENTER
 62
1
100
AcDbLine
 10
292.1773018327577
 20
75.27786257341745
 30
0.000000000000000
 11
292.1773018327577
 21
53.67786257341891
 31
0.000000000000000
  0
LINE
  5
147
100
AcDbEntity
  8
A4
  6
CENTER
 62
1
100
AcDbLine
 10
311.2773018327581
 20
75.52786257341927
 30
0.000000000000000
 11
311.2773018327581
 21
53.42786257341891
 31
0.000000000000000
  0
LINE
  5
148
100
AcDbEntity
  8
A4
  6
CENTER
 62
1
100
AcDbLine
 10
457.2773018327581
 20
74.57786257341854
 30
0.000000000000000
 11
457.2773018327581
 21
54.37786257341781
 31
0.000000000000000
  0
LINE
  5
149
100
AcDbEntity
  8
A4
  6
CENTER
 62
1
100
AcDbLine
 10
469.9773018327570
 20
75.27786257341745
 30
0.000000000000000
 11
469.9773018327570
 21
53.67786257341891
 31
0.000000000000000
  0
LINE
  5
14A
100
AcDbEntity
  8
A4
  6
CENTER
 62
1
100
AcDbLine
 10
685.8773018327521
 20
75.52786257341927
 30
0.000000000000000
 11
685.8773018327521
 21
53.42786257341891
 31
0.000000000000000
  0
LINE
  5
14B
100
AcDbEntity
  8
A4
  6
CENTER
 62
1
100
AcDbLine
 10
703.3773018327557
 20
53.67786257341891
 30
0.000000000000000
 11
703.3773018327557
 21
75.27786257341745
 31
0.000000000000000
  0
LINE
  5
14C
100
AcDbEntity
  8
A4
  6
CENTER
 62
1
100
AcDbLine
 10
763.5773018327465
 20
75.27786257341927
 30
0.000000000000000
 11
763.5773018327465
 21
53.67786257341891
 31
0.000000000000000
  0
LINE
  5
14D
100
AcDbEntity
  8
A4
  6
CENTER
 62
1
100
AcDbLine
 10
776.2773018327472
 20
74.57786257341854
 30
0.000000000000000
 11
776.2773018327472
 21
54.37786257341963
 31
0.000000000000000
  0
LINE
  5
14E
100
AcDbEntity
  8
A4
  6
CENTER
 62
1
100
AcDbLine
 10
788.9773018327534
 20
54.37786257341781
 30
0.000000000000000
 11
788.9773018327534
 21
74.57786257341854
 31
0.000000000000000
  0
LINE
  5
14F
100
AcDbEntity
  8
A4
  6
CENTER
 62
1
100
AcDbLine
 10
890.5773018327483
 20
74.57786257342036
 30
0.000000000000000
 11
890.5773018327483
 21
54.37786257341963
 31
0.000000000000000
  0
LINE
  5
150
100
AcDbEntity
  8
A4
  6
CENTER
 62
1
100
AcDbLine
 10
900.0773018327483
 20
53.62786257342145
 30
0.000000000000000
 11
900.0773018327483
 21
75.32786257342036
 31
0.000000000000000
  0
LINE
  5
151
100
AcDbEntity
  8
A4
  6
CENTER
 62
1
100
AcDbLine
 10
909.6773018327468
 20
75.27786257341927
 30
0.000000000000000
 11
909.6773018327468
 21
53.67786257342073
 31
0.000000000000000
  0
LINE
  5
152
100
AcDbEntity
  8
A4
  6
CENTER
 62
1
100
AcDbLine
 10
931.9773018327534
 20
53.67786257342982
 30
0.000000000000000
 11
931.9773018327534
 21
75.27786257341927
 31
0.000000000000000
  0
LINE
  5
153
100
AcDbEntity
  8
A4
  6
CENTER
 62
1
100
AcDbLine
 10
966.7773018327490
 20
75.27786257341927
 30
0.000000000000000
 11
966.7773018327490
 21
53.67786257342073
 31
0.000000000000000
  0
LINE
  5
154
100
AcDbEntity
  8
A4
  6
CENTER
 62
1
100
AcDbLine
 10
954.0773018327483
 20
74.57786257342036
 30
0.000000000000000
 11
954.0773018327483
 21
54.37786257341963
 31
0.000000000000000
  0
LINE
  5
155
100
AcDbEntity
  8
A4
  6
CENTER
 62
1
100
AcDbLine
 10
919.2773018327490
 20
53.30090731125006
 30
0.000000000000000
 11
919.2773018327490
 21
75.65481783558994
 31
0.000000000000000
  0
LINE
  5
156
100
AcDbEntity
  8
A4
  6
CENTER
 62
1
100
AcDbLine
 10
1271.577301832745
 20
74.57786257341854
 30
0.000000000000000
 11
1271.577301832745
 21
54.37786257341963
 31
0.000000000000000
  0
LINE
  5
157
100
AcDbEntity
  8
A4
  6
CENTER
 62
1
100
AcDbLine
 10
1284.277301832746
 20
75.27786257341927
 30
0.000000000000000
 11
1284.277301832746
 21
53.67786257341891
 31
0.000000000000000
  0
LINE
  5
158
100
AcDbEntity
  8
A4
  6
CENTER
 62
1
100
AcDbLine
 10
1296.977301832747
 20
53.30090731124824
 30
0.000000000000000
 11
1296.977301832747
 21
75.65481783558994
 31
0.000000000000000
  0
LINE
  5
159
100
AcDbEntity
  8
A4
  6
CENTER
 62
1
100
AcDbLine
 10
1309.677301832744
 20
53.62786257341963
 30
0.000000000000000
 11
1309.677301832744
 21
75.32786257341854
 31
0.000000000000000
  0
LINE
  5
15A
100
AcDbEntity
  8
A4
  6
CENTER
 62
1
100
AcDbLine
 10
1430.377301832749
 20
74.57786257341854
 30
0.000000000000000
 11
1430.377301832749
 21
54.37786257341963
 31
0.000000000000000
  0
LINE
  5
15B
100
AcDbEntity
  8
A4
  6
CENTER
 62
1
100
AcDbLine
 10
1443.077301832748
 20
75.27786257341927
 30
0.000000000000000
 11
1443.077301832748
 21
53.67786257341891
 31
0.000000000000000
  0
LINE
  5
15C
100
AcDbEntity
  8
A4
  6
CENTER
 62
1
100
AcDbLine
 10
1455.777301832747
 20
53.30090731124824
 30
0.000000000000000
 11
1455.777301832747
 21
75.65481783558812
 31
0.000000000000000
  0
LINE
  5
15D
100
AcDbEntity
  8
A4
  6
CENTER
 62
1
100
AcDbLine
 10
1468.477301832748
 20
53.62786257341963
 30
0.000000000000000
 11
1468.477301832748
 21
75.32786257341854
 31
0.000000000000000
  0
LINE
  5
15E
100
AcDbEntity
  8
A4
  6
CENTER
 62
1
100
AcDbLine
 10
1575.677301832749
 20
53.30090731124824
 30
0.000000000000000
 11
1575.677301832749
 21
75.65481783558812
 31
0.000000000000000
  0
LINE
  5
15F
100
AcDbEntity
  8
A4
  6
CENTER
 62
1
100
AcDbLine
 10
1585.877301832749
 20
54.37786257341781
 30
0.000000000000000
 11
1585.877301832749
 21
74.57786257341854
 31
0.000000000000000
  0
LINE
  5
160
100
AcDbEntity
  8
A4
  6
CENTER
 62
1
100
AcDbLine
 10
1601.777301832771
 20
53.67786257341891
 30
0.000000000000000
 11
1601.777301832771
 21
75.27786257341745
 31
0.000000000000000
  0
LINE
  5
161
100
AcDbEntity
  8
A4
  6
CENTER
 62
1
100
AcDbLine
 10
1617.677301832749
 20
74.57786257341854
 30
0.000000000000000
 11
1617.677301832749
 21
54.37786257341781
 31
0.000000000000000
  0
LINE
  5
162
100
AcDbEntity
  8
A4
  6
CENTER
 62
1
100
AcDbLine
 10
1630.377301832747
 20
75.27786257341745
 30
0.000000000000000
 11
1630.377301832747
 21
53.67786257341891
 31
0.000000000000000
  0
LINE
  5
163
100
AcDbEntity
  8
A4
  6
CENTER
 62
1
100
AcDbLine
 10
1646.277301832749
 20
53.62786257341963
 30
0.000000000000000
 11
1646.277301832749
 21
75.32786257341854
 31
0.000000000000000
  0
LINE
  5
164
100
AcDbEntity
  8
A1
  6
CONTINUOUS
 62
7
100
AcDbLine
 10
877.8773018327489
 20
99.37786257341872
 30
0.000000000000000
 11
877.8773018327489
 21
90.92786257341891
 31
0.000000000000000
  0
LINE
  5
165
100
AcDbEntity
  8
A1
  6
CONTINUOUS
 62
7
100
AcDbLine
 10
877.8773018327489
 20
38.02786257341745
 30
0.000000000000000
 11
877.8773018327489
 21
29.57786257341945
 31
0.000000000000000
  0
LINE
  5
166
100
AcDbEntity
  8
A4
  6
CENTER
 62
1
100
AcDbLine
 10
101.6773018327577
 20
75.27786257341745
 30
0.000000000000000
 11
101.6773018327577
 21
53.67786257341891
 31
0.000000000000000
  0
LINE
  5
167
100
AcDbEntity
  8
A4
  6
CENTER
 62
1
100
AcDbLine
 10
1658.977301832748
 20
75.32786257341854
 30
0.000000000000000
 11
1658.977301832748
 21
53.62786257341963
 31
0.000000000000000
  0
LINE
  5
168
100
AcDbEntity
  8
A4
  6
CENTER
 62
1
100
AcDbLine
 10
97.57730183275774
 20
64.47786257341818
 30
0.000000000000000
 11
1663.777301832748
 21
64.47786257341818
 31
0.000000000000000
  0
LINE
  5
169
100
AcDbEntity
  8
A4
  6
CENTER
 62
1
100
AcDbLine
 10
28.65534549067917
 20
64.47786257341818
 30
0.000000000000000
 11
5.855345490679149
 21
64.47786257341818
 31
0.000000000000000
  0
ARC
  5
16A
100
AcDbEntity
  8
A1
  6
CONTINUOUS
 62
7
100
AcDbCircle
 10
16.75534549067920
 20
36.04286257341687
 30
0.000000000000000
 40
6.464999999999999
100
AcDbArc
 50
225.0000000000139
 51
325.0646696619304
  0
LINE
  5
16B
100
AcDbEntity
  8
A1
  6
CONTINUOUS
 62
7
100
AcDbLine
 10
14.15534549067883
 20
47.10385103640732
 30
0.000000000000000
 11
14.15534549067906
 21
42.40204952039693
 31
0.000000000000000
  0
ARC
  5
16C
100
AcDbEntity
  8
A1
  6
CONTINUOUS
 62
7
100
AcDbCircle
 10
22.15534549067917
 20
43.70286257341809
 30
0.000000000000000
 40
5.674999999999999
100
AcDbArc
 50
65.44387469328805
 51
140.8349970654087
  0
LINE
  5
16D
100
AcDbEntity
  8
A1
  6
CONTINUOUS
 62
7
100
AcDbLine
 10
9.855345490679163
 20
37.33550579861435
 30
0.000000000000000
 11
9.855345490679163
 21
91.62021934822181
 31
0.000000000000000
  0
LINE
  5
16E
100
AcDbEntity
  8
A1
  6
CONTINUOUS
 62
7
100
AcDbLine
 10
7.355345490679163
 20
37.00413494871418
 30
0.000000000000000
 11
7.355345490679163
 21
91.95159019812198
 31
0.000000000000000
  0
LINE
  5
16F
100
AcDbEntity
  8
A1
  6
CONTINUOUS
 62
7
100
AcDbLine
 10
27.15534549067917
 20
47.44841565534807
 30
0.000000000000000
 11
27.15534549067917
 21
81.50730949148809
 31
0.000000000000000
  0
LINE
  5
170
100
AcDbEntity
  8
A1
  6
CONTINUOUS
 62
7
100
AcDbLine
 10
9.855345490679108
 20
37.33550579861448
 30
0.000000000000000
 11
13.95166710327446
 21
33.23918418601745
 31
0.000000000000000
  0
LINE
  5
171
100
AcDbEntity
  8
A1
  6
CONTINUOUS
 62
7
100
AcDbLine
 10
7.853263962661554
 20
35.80205342069745
 30
0.000000000000000
 11
12.18390015030812
 21
31.47141723304787
 31
0.000000000000000
  0
LINE
  5
172
100
AcDbEntity
  8
A1
  6
CONTINUOUS
 62
7
100
AcDbLine
 10
15.95534549067930
 20
53.59918291697818
 30
0.000000000000000
 11
15.95534549067930
 21
75.35654222985821
 31
0.000000000000000
  0
LINE
  5
173
100
AcDbEntity
  8
A1
  6
CONTINUOUS
 62
7
100
AcDbLine
 10
18.45534549067907
 20
53.59918291697818
 30
0.000000000000000
 11
18.45534549067907
 21
75.35654222985821
 31
0.000000000000000
  0
ARC
  5
174
100
AcDbEntity
  8
A1
  6
CONTINUOUS
 62
7
100
AcDbCircle
 10
16.76315102266307
 20
36.04286257341687
 30
0.000000000000000
 40
6.464999999999999
100
AcDbArc
 50
64.34116408558700
 51
109.9462850724337
  0
ARC
  5
175
100
AcDbEntity
  8
A1
  6
CONTINUOUS
 62
7
100
AcDbCircle
 10
13.95534549067907
 20
41.14343871293772
 30
0.000000000000000
 40
2.299999999999999
100
AcDbArc
 50
180.0000000000000
 51
269.8314188142185
  0
ARC
  5
176
100
AcDbEntity
  8
A1
  6
CONTINUOUS
 62
7
100
AcDbCircle
 10
14.45534549067867
 20
42.40204952039699
 30
0.000000000000000
 40
0.3000000000000000
100
AcDbArc
 50
180.0000000000000
 51
289.9462850724159
  0
LINE
  5
177
100
AcDbEntity
  8
A1
  6
CONTINUOUS
 62
7
100
AcDbLine
 10
19.37456385847884
 20
45.42786257341782
 30
0.000000000000000
 11
17.75534549067926
 21
46.36271873394491
 31
0.000000000000000
  0
LINE
  5
178
100
AcDbEntity
  8
A1
  6
CONTINUOUS
 62
7
100
AcDbLine
 10
11.65534549067911
 20
47.10385103640726
 30
0.000000000000000
 11
11.65534549067917
 21
41.14343871293789
 31
0.000000000000000
  0
ARC
  5
179
100
AcDbEntity
  8
A1
  6
CONTINUOUS
 62
7
100
AcDbCircle
 10
15.45534549067998
 20
47.10385103640715
 30
0.000000000000000
 40
1.299999999999999
100
AcDbArc
 50
134.9999999999982
 51
180.0000000000000
  0
LINE
  5
17A
100
AcDbEntity
  8
A1
  6
CONTINUOUS
 62
7
100
AcDbLine
 10
14.53610667513735
 20
48.02308985194789
 30
0.000000000000000
 11
17.28377261542667
 21
50.77075579223701
 31
0.000000000000000
  0
LINE
  5
17B
100
AcDbEntity
  8
A1
  6
CONTINUOUS
 62
7
100
AcDbLine
 10
12.76833972217072
 20
49.79085680491724
 30
0.000000000000000
 11
15.51600566246072
 21
52.53852274519724
 31
0.000000000000000
  0
ARC
  5
17C
100
AcDbEntity
  8
A1
  6
CONTINUOUS
 62
7
100
AcDbCircle
 10
14.45534549067970
 20
53.59918291697818
 30
0.000000000000000
 40
1.499999999999999
100
AcDbArc
 50
315.0000000000169
 51
360.0000000000000
  0
ARC
  5
17D
100
AcDbEntity
  8
A1
  6
CONTINUOUS
 62
7
100
AcDbCircle
 10
14.45534549067970
 20
53.59918291697818
 30
0.000000000000000
 40
3.999999999999999
100
AcDbArc
 50
314.9999999999931
 51
360.0000000000000
  0
ARC
  5
17E
100
AcDbEntity
  8
A1
  6
CONTINUOUS
 62
7
100
AcDbCircle
 10
15.45534549067902
 20
47.10385103640715
 30
0.000000000000000
 40
3.800000000000001
100
AcDbArc
 50
135.0000000000043
 51
180.0000000000000
  0
ARC
  5
17F
100
AcDbEntity
  8
A1
  6
CONTINUOUS
 62
7
100
AcDbCircle
 10
9.055345490679208
 20
37.00413494871418
 30
0.000000000000000
 40
1.700000000000000
100
AcDbArc
 50
180.0000000000000
 51
224.9999999999810
  0
LINE
  5
180
100
AcDbEntity
  8
A1
  6
CONTINUOUS
 62
7
100
AcDbLine
 10
22.05534549067909
 20
32.80945486715132
 30
0.000000000000000
 11
22.05534549067909
 21
32.34067065510681
 31
0.000000000000000
  0
LINE
  5
181
100
AcDbEntity
  8
A1
  6
CONTINUOUS
 62
7
100
AcDbLine
 10
20.14016454049631
 20
33.97786257341806
 30
0.000000000000000
 11
22.05534549067912
 21
32.80945486715120
 31
0.000000000000000
  0
ARC
  5
182
100
AcDbEntity
  8
A1
  6
CONTINUOUS
 62
7
100
AcDbCircle
 10
22.15534549067917
 20
43.70286257341809
 30
0.000000000000000
 40
5.674999999999999
100
AcDbArc
 50
246.0925117444462
 51
320.5510832248698
  0
LINE
  5
183
100
AcDbEntity
  8
A1
  6
CONTINUOUS
 62
7
100
AcDbLine
 10
26.53753160161446
 20
40.09702426740284
 30
0.000000000000000
 11
24.61240189928549
 21
41.69201727729831
 31
0.000000000000000
  0
LINE
  5
184
100
AcDbEntity
  8
A1
  6
CONTINUOUS
 62
7
100
AcDbLine
 10
17.75534549067931
 20
47.28694195311959
 30
0.000000000000000
 11
17.75534549067931
 21
46.36271873394503
 31
0.000000000000000
  0
LINE
  5
185
100
AcDbEntity
  8
A1
  6
CONTINUOUS
 62
7
100
AcDbLine
 10
19.48982490362688
 20
45.42786257341800
 30
0.000000000000000
 11
19.37456385847890
 21
45.42786257341800
 31
0.000000000000000
  0
ARC
  5
186
100
AcDbEntity
  8
A1
  6
CONTINUOUS
 62
7
100
AcDbCircle
 10
25.38479240874927
 20
47.44841565534807
 30
0.000000000000000
 40
1.770553081929961
100
AcDbArc
 50
229.2318156757769
 51
360.0000000000018
  0
ARC
  5
187
100
AcDbEntity
  8
A1
  6
CONTINUOUS
 62
7
100
AcDbCircle
 10
24.55534549067921
 20
48.95554046188613
 30
0.000000000000000
 40
0.1000000000000000
100
AcDbArc
 50
245.4438746932937
 51
360.0000000000000
  0
ARC
  5
188
100
AcDbEntity
  8
A1
  6
CONTINUOUS
 62
7
100
AcDbCircle
 10
16.75534549067920
 20
92.91286257341952
 30
0.000000000000000
 40
6.464999999999999
100
AcDbArc
 50
34.93533033806960
 51
134.9999999999861
  0
LINE
  5
189
100
AcDbEntity
  8
A1
  6
CONTINUOUS
 62
7
100
AcDbLine
 10
14.15534549067886
 20
81.85187411042924
 30
0.000000000000000
 11
14.15534549067909
 21
86.55367562643917
 31
0.000000000000000
  0
ARC
  5
18A
100
AcDbEntity
  8
A1
  6
CONTINUOUS
 62
7
100
AcDbCircle
 10
22.15534549067917
 20
85.25286257341807
 30
0.000000000000000
 40
5.674999999999999
100
AcDbArc
 50
219.1650029345913
 51
294.5561253067119
  0
LINE
  5
18B
100
AcDbEntity
  8
A1
  6
CONTINUOUS
 62
7
100
AcDbLine
 10
9.855345490679042
 20
91.62021934822172
 30
0.000000000000000
 11
13.95166710327445
 21
95.71654096081861
 31
0.000000000000000
  0
LINE
  5
18C
100
AcDbEntity
  8
A1
  6
CONTINUOUS
 62
7
100
AcDbLine
 10
7.853263962661842
 20
93.15367172613864
 30
0.000000000000000
 11
12.18390015030842
 21
97.48430791378803
 31
0.000000000000000
  0
ARC
  5
18D
100
AcDbEntity
  8
A1
  6
CONTINUOUS
 62
7
100
AcDbCircle
 10
16.76315102266307
 20
92.91286257341952
 30
0.000000000000000
 40
6.464999999999999
100
AcDbArc
 50
250.0537149275663
 51
295.6588359144130
  0
ARC
  5
18E
100
AcDbEntity
  8
A1
  6
CONTINUOUS
 62
7
100
AcDbCircle
 10
13.95534549067907
 20
87.81228643389866
 30
0.000000000000000
 40
2.299999999999999
100
AcDbArc
 50
90.16858118578155
 51
180.0000000000000
  0
ARC
  5
18F
100
AcDbEntity
  8
A1
  6
CONTINUOUS
 62
7
100
AcDbCircle
 10
14.45534549067867
 20
86.55367562643940
 30
0.000000000000000
 40
0.3000000000000000
100
AcDbArc
 50
70.05371492758402
 51
180.0000000000000
  0
LINE
  5
190
100
AcDbEntity
  8
A1
  6
CONTINUOUS
 62
7
100
AcDbLine
 10
19.37456385847878
 20
83.52786257341829
 30
0.000000000000000
 11
17.75534549067926
 21
82.59300641289153
 31
0.000000000000000
  0
LINE
  5
191
100
AcDbEntity
  8
A1
  6
CONTINUOUS
 62
7
100
AcDbLine
 10
11.65534549067917
 20
81.85187411042926
 30
0.000000000000000
 11
11.65534549067923
 21
87.81228643389846
 31
0.000000000000000
  0
ARC
  5
192
100
AcDbEntity
  8
A1
  6
CONTINUOUS
 62
7
100
AcDbCircle
 10
15.45534549067998
 20
81.85187411042924
 30
0.000000000000000
 40
1.299999999999999
100
AcDbArc
 50
180.0000000000000
 51
225.0000000000018
  0
LINE
  5
193
100
AcDbEntity
  8
A1
  6
CONTINUOUS
 62
7
100
AcDbLine
 10
14.53610667513730
 20
80.93263529488863
 30
0.000000000000000
 11
17.28377261542665
 21
78.18496935459939
 31
0.000000000000000
  0
LINE
  5
194
100
AcDbEntity
  8
A1
  6
CONTINUOUS
 62
7
100
AcDbLine
 10
12.76833972217062
 20
79.16486834191912
 30
0.000000000000000
 11
15.51600566246061
 21
76.41720240163905
 31
0.000000000000000
  0
ARC
  5
195
100
AcDbEntity
  8
A1
  6
CONTINUOUS
 62
7
100
AcDbCircle
 10
14.45534549067970
 20
75.35654222985821
 30
0.000000000000000
 40
1.499999999999999
100
AcDbArc
 50
0.000000000000000
 51
44.99999999998312
  0
ARC
  5
196
100
AcDbEntity
  8
A1
  6
CONTINUOUS
 62
7
100
AcDbCircle
 10
14.45534549067970
 20
75.35654222985821
 30
0.000000000000000
 40
3.999999999999999
100
AcDbArc
 50
0.000000000000000
 51
45.00000000000691
  0
ARC
  5
197
100
AcDbEntity
  8
A1
  6
CONTINUOUS
 62
7
100
AcDbCircle
 10
15.45534549067902
 20
81.85187411042924
 30
0.000000000000000
 40
3.800000000000001
100
AcDbArc
 50
180.0000000000000
 51
224.9999999999957
  0
ARC
  5
198
100
AcDbEntity
  8
A1
  6
CONTINUOUS
 62
7
100
AcDbCircle
 10
9.055345490679208
 20
91.95159019812198
 30
0.000000000000000
 40
1.700000000000000
100
AcDbArc
 50
135.0000000000190
 51
180.0000000000000
  0
LINE
  5
199
100
AcDbEntity
  8
A1
  6
CONTINUOUS
 62
7
100
AcDbLine
 10
22.05534549067909
 20
96.14627027968507
 30
0.000000000000000
 11
22.05534549067909
 21
96.61505449172981
 31
0.000000000000000
  0
LINE
  5
19A
100
AcDbEntity
  8
A1
  6
CONTINUOUS
 62
7
100
AcDbLine
 10
20.14016454049632
 20
94.97786257341775
 30
0.000000000000000
 11
22.05534549067909
 21
96.14627027968510
 31
0.000000000000000
  0
ARC
  5
19B
100
AcDbEntity
  8
A1
  6
CONTINUOUS
 62
7
100
AcDbCircle
 10
22.15534549067917
 20
85.25286257341807
 30
0.000000000000000
 40
5.674999999999999
100
AcDbArc
 50
39.44891677513021
 51
113.9074882555569
  0
LINE
  5
19C
100
AcDbEntity
  8
A1
  6
CONTINUOUS
 62
7
100
AcDbLine
 10
26.53753160161459
 20
88.85870087943320
 30
0.000000000000000
 11
24.61240189928564
 21
87.26370786953807
 31
0.000000000000000
  0
LINE
  5
19D
100
AcDbEntity
  8
A1
  6
CONTINUOUS
 62
7
100
AcDbLine
 10
17.75534549067931
 20
81.66878319371679
 30
0.000000000000000
 11
17.75534549067931
 21
82.59300641289136
 31
0.000000000000000
  0
LINE
  5
19E
100
AcDbEntity
  8
A1
  6
CONTINUOUS
 62
7
100
AcDbLine
 10
19.48982490362688
 20
83.52786257341816
 30
0.000000000000000
 11
19.37456385847890
 21
83.52786257341816
 31
0.000000000000000
  0
ARC
  5
19F
100
AcDbEntity
  8
A1
  6
CONTINUOUS
 62
7
100
AcDbCircle
 10
25.38479240874927
 20
81.50730949148809
 30
0.000000000000000
 40
1.770553081929961
100
AcDbArc
 50
359.9999999999982
 51
490.7681843242231
  0
ARC
  5
1A0
100
AcDbEntity
  8
A1
  6
CONTINUOUS
 62
7
100
AcDbCircle
 10
24.55534549067921
 20
80.00018468495026
 30
0.000000000000000
 40
0.1000000000000000
100
AcDbArc
 50
0.000000000000000
 51
114.5561253067063
  0
LINE
  5
1A1
100
AcDbEntity
  8
A1
  6
CONTINUOUS
 62
7
100
AcDbLine
 10
26.65534549067917
 20
44.70286257341809
 30
0.000000000000000
 11
17.45534549067896
 21
44.70286257341809
 31
0.000000000000000
  0
LINE
  5
1A2
100
AcDbEntity
  8
A1
  6
CONTINUOUS
 62
7
100
AcDbLine
 10
26.65534549067917
 20
43.70286257341809
 30
0.000000000000000
 11
26.65534549067917
 21
44.70286257341809
 31
0.000000000000000
  0
LINE
  5
1A3
100
AcDbEntity
  8
A1
  6
CONTINUOUS
 62
7
100
AcDbLine
 10
26.65534549067917
 20
43.70286257341809
 30
0.000000000000000
 11
17.45534549067896
 21
43.70286257341809
 31
0.000000000000000
  0
LINE
  5
1A4
100
AcDbEntity
  8
A1
  6
CONTINUOUS
 62
7
100
AcDbLine
 10
15.45534549067887
 20
46.97958696769542
 30
0.000000000000000
 11
15.45534549067895
 21
45.70286257341804
 31
0.000000000000000
  0
LINE
  5
1A5
100
AcDbEntity
  8
A1
  6
CONTINUOUS
 62
7
100
AcDbLine
 10
16.45534549067888
 20
46.97958696769536
 30
0.000000000000000
 11
16.45534549067895
 21
45.70286257341798
 31
0.000000000000000
  0
ARC
  5
1A6
100
AcDbEntity
  8
A1
  6
CONTINUOUS
 62
7
100
AcDbCircle
 10
17.45534549067896
 20
45.70286257341809
 30
0.000000000000000
 40
1.000000000000000
100
AcDbArc
 50
180.0000000000000
 51
270.0000000000000
  0
ARC
  5
1A7
100
AcDbEntity
  8
A1
  6
CONTINUOUS
 62
7
100
AcDbCircle
 10
17.45534549067896
 20
45.70286257341809
 30
0.000000000000000
 40
2.000000000000000
100
AcDbArc
 50
180.0000000000000
 51
270.0000000000000
  0
LINE
  5
1A8
100
AcDbEntity
  8
A1
  6
CONTINUOUS
 62
7
100
AcDbLine
 10
16.54321345632299
 20
47.19171900205144
 30
0.000000000000000
 11
22.32935702769684
 21
52.97786257341870
 31
0.000000000000000
  0
LINE
  5
1A9
100
AcDbEntity
  8
A1
  6
CONTINUOUS
 62
7
100
AcDbLine
 10
15.83610667513684
 20
47.89882578323836
 30
0.000000000000000
 11
20.92809599107156
 21
52.99081509916729
 31
0.000000000000000
  0
ARC
  5
1AA
100
AcDbEntity
  8
A1
  6
CONTINUOUS
 62
7
100
AcDbCircle
 10
16.75534549067886
 20
46.97958696769535
 30
0.000000000000000
 40
0.3000000000000000
100
AcDbArc
 50
134.9999999999654
 51
180.0000000000000
  0
ARC
  5
1AB
100
AcDbEntity
  8
A1
  6
CONTINUOUS
 62
7
100
AcDbCircle
 10
16.75534549067886
 20
46.97958696769547
 30
0.000000000000000
 40
1.300000000000000
100
AcDbArc
 50
134.9999999999672
 51
180.0000000000000
  0
LINE
  5
1AC
100
AcDbEntity
  8
A1
  6
CONTINUOUS
 62
7
100
AcDbLine
 10
16.54321345632314
 20
81.76400614478473
 30
0.000000000000000
 11
22.32935702769083
 21
75.97786257342366
 31
0.000000000000000
  0
LINE
  5
1AD
100
AcDbEntity
  8
A1
  6
CONTINUOUS
 62
7
100
AcDbLine
 10
15.83610667513676
 20
81.05689936359772
 30
0.000000000000000
 11
20.92809599106831
 21
75.96491004767196
 31
0.000000000000000
  0
LINE
  5
1AE
100
AcDbEntity
  8
A1
  6
CONTINUOUS
 62
7
100
AcDbLine
 10
26.65534549067917
 20
84.25286257341818
 30
0.000000000000000
 11
17.45534549067896
 21
84.25286257341818
 31
0.000000000000000
  0
LINE
  5
1AF
100
AcDbEntity
  8
A1
  6
CONTINUOUS
 62
7
100
AcDbLine
 10
26.65534549067917
 20
85.25286257341818
 30
0.000000000000000
 11
26.65534549067917
 21
84.25286257341818
 31
0.000000000000000
  0
LINE
  5
1B0
100
AcDbEntity
  8
A1
  6
CONTINUOUS
 62
7
100
AcDbLine
 10
26.65534549067917
 20
85.25286257341818
 30
0.000000000000000
 11
17.45534549067896
 21
85.25286257341818
 31
0.000000000000000
  0
ARC
  5
1B1
100
AcDbEntity
  8
A1
  6
CONTINUOUS
 62
7
100
AcDbCircle
 10
17.45534549067896
 20
83.25286257341818
 30
0.000000000000000
 40
2.000000000000000
100
AcDbArc
 50
90.00000000000000
 51
180.0000000000000
  0
ARC
  5
1B2
100
AcDbEntity
  8
A1
  6
CONTINUOUS
 62
7
100
AcDbCircle
 10
17.45534549067896
 20
83.25286257341818
 30
0.000000000000000
 40
1.000000000000000
100
AcDbArc
 50
90.00000000000000
 51
180.0000000000000
  0
LINE
  5
1B3
100
AcDbEntity
  8
A1
  6
CONTINUOUS
 62
7
100
AcDbLine
 10
16.45534549067888
 20
81.97613817914089
 30
0.000000000000000
 11
16.45534549067895
 21
83.25286257341816
 31
0.000000000000000
  0
ARC
  5
1B4
100
AcDbEntity
  8
A1
  6
CONTINUOUS
 62
7
100
AcDbCircle
 10
16.75534549067886
 20
81.97613817914080
 30
0.000000000000000
 40
0.3000000000000000
100
AcDbArc
 50
180.0000000000000
 51
225.0000000000346
  0
LINE
  5
1B5
100
AcDbEntity
  8
A1
  6
CONTINUOUS
 62
7
100
AcDbLine
 10
15.45534549067889
 20
81.97613817914082
 30
0.000000000000000
 11
15.45534549067896
 21
83.25286257341820
 31
0.000000000000000
  0
ARC
  5
1B6
100
AcDbEntity
  8
A1
  6
CONTINUOUS
 62
7
100
AcDbCircle
 10
16.75534549067886
 20
81.97613817914069
 30
0.000000000000000
 40
1.300000000000000
100
AcDbArc
 50
180.0000000000000
 51
225.0000000000328
  0
LINE
  5
1B7
100
AcDbEntity
  8
A1
  6
CONTINUOUS
 62
7
100
AcDbLine
 10
10.35534549067916
 20
38.75941099384551
 30
0.000000000000000
 11
10.35534549067916
 21
49.47786257342943
 31
0.000000000000000
  0
LINE
  5
1B8
100
AcDbEntity
  8
A1
  6
CONTINUOUS
 62
7
100
AcDbLine
 10
11.35534549067916
 20
38.75941099384551
 30
0.000000000000000
 11
11.35534549067916
 21
49.47786257342943
 31
0.000000000000000
  0
LINE
  5
1B9
100
AcDbEntity
  8
A1
  6
CONTINUOUS
 62
7
100
AcDbLine
 10
12.13890587674105
 20
37.78311498672555
 30
0.000000000000000
 11
22.35534549067852
 21
35.51818485310174
 31
0.000000000000000
  0
LINE
  5
1BA
100
AcDbEntity
  8
A1
  6
CONTINUOUS
 62
7
100
AcDbLine
 10
11.92246626280301
 20
36.80681897960577
 30
0.000000000000000
 11
22.13890587674042
 21
34.54188884598195
 31
0.000000000000000
  0
ARC
  5
1BB
100
AcDbEntity
  8
A1
  6
CONTINUOUS
 62
7
100
AcDbCircle
 10
12.35534549067916
 20
38.75941099384551
 30
0.000000000000000
 40
1.000000000000000
100
AcDbArc
 50
180.0000000000000
 51
257.4999999999999
  0
ARC
  5
1BC
100
AcDbEntity
  8
A1
  6
CONTINUOUS
 62
7
100
AcDbCircle
 10
12.35534549067916
 20
38.75941099384551
 30
0.000000000000000
 40
2.000000000000000
100
AcDbArc
 50
180.0000000000000
 51
257.5000000000001
  0
LINE
  5
1BD
100
AcDbEntity
  8
A1
  6
CONTINUOUS
 62
7
100
AcDbLine
 10
22.13890587674037
 20
34.54188884598193
 30
0.000000000000000
 11
22.35534549067847
 21
35.51818485310186
 31
0.000000000000000
  0
LINE
  5
1BE
100
AcDbEntity
  8
A1
  6
CONTINUOUS
 62
7
100
AcDbLine
 10
11.35534549066786
 20
49.47786257341816
 30
0.000000000000000
 11
12.76955905305175
 21
50.89207613580204
 31
0.000000000000000
  0
LINE
  5
1BF
100
AcDbEntity
  8
A1
  6
CONTINUOUS
 62
7
100
AcDbLine
 10
10.64823870948122
 20
50.18496935460477
 30
0.000000000000000
 11
12.06245227186513
 21
51.59918291698867
 31
0.000000000000000
  0
ARC
  5
1C0
100
AcDbEntity
  8
A1
  6
CONTINUOUS
 62
7
100
AcDbCircle
 10
11.35534549067916
 20
49.47786257342943
 30
0.000000000000000
 40
1.000000000000000
100
AcDbArc
 50
134.9999999999994
 51
180.0000000000000
  0
LINE
  5
1C1
100
AcDbEntity
  8
A1
  6
CONTINUOUS
 62
7
100
AcDbLine
 10
14.06747752503515
 20
58.38999460777409
 30
0.000000000000000
 11
11.94113192829501
 21
56.26364901103470
 31
0.000000000000000
  0
LINE
  5
1C2
100
AcDbEntity
  8
A1
  6
CONTINUOUS
 62
7
100
AcDbLine
 10
14.77458430622163
 20
57.68288782658749
 30
0.000000000000000
 11
12.64823870948142
 21
55.55654222984801
 31
0.000000000000000
  0
ARC
  5
1C3
100
AcDbEntity
  8
A1
  6
CONTINUOUS
 62
7
100
AcDbCircle
 10
13.85534549067928
 20
58.60212664213009
 30
0.000000000000000
 40
0.3000000000000000
100
AcDbArc
 50
314.9999999999885
 51
360.0000000000000
  0
ARC
  5
1C4
100
AcDbEntity
  8
A1
  6
CONTINUOUS
 62
7
100
AcDbCircle
 10
13.85534549067928
 20
58.60212664213009
 30
0.000000000000000
 40
1.300000000000000
100
AcDbArc
 50
314.9999999999903
 51
360.0000000000000
  0
ARC
  5
1C5
100
AcDbEntity
  8
A1
  6
CONTINUOUS
 62
7
100
AcDbCircle
 10
13.35534549066785
 20
54.84943544866132
 30
0.000000000000000
 40
2.000000000000000
100
AcDbArc
 50
134.9999999999902
 51
209.8279761925665
  0
ARC
  5
1C6
100
AcDbEntity
  8
A1
  6
CONTINUOUS
 62
7
100
AcDbCircle
 10
13.35534549066785
 20
54.84943544866132
 30
0.000000000000000
 40
1.000000000000000
100
AcDbArc
 50
134.9999999999902
 51
209.8279761925667
  0
ARC
  5
1C7
100
AcDbEntity
  8
A1
  6
CONTINUOUS
 62
7
100
AcDbCircle
 10
11.35534549067859
 20
52.30628969817508
 30
0.000000000000000
 40
2.000000000000000
100
AcDbArc
 50
315.0000000000000
 51
389.8279761925668
  0
ARC
  5
1C8
100
AcDbEntity
  8
A1
  6
CONTINUOUS
 62
7
100
AcDbCircle
 10
11.35534549067859
 20
52.30628969817508
 30
0.000000000000000
 40
1.000000000000000
100
AcDbArc
 50
315.0000000000006
 51
389.8279761925668
  0
LINE
  5
1C9
100
AcDbEntity
  8
A1
  6
CONTINUOUS
 62
7
100
AcDbLine
 10
11.62030011238227
 20
53.85464022586950
 30
0.000000000000000
 11
12.22286817982144
 21
52.80368730957116
 31
0.000000000000000
  0
LINE
  5
1CA
100
AcDbEntity
  8
A1
  6
CONTINUOUS
 62
7
100
AcDbLine
 10
13.09039086896421
 20
53.30108492096710
 30
0.000000000000000
 11
12.48782280152503
 21
54.35203783726544
 31
0.000000000000000
  0
LINE
  5
1CB
100
AcDbEntity
  8
A1
  6
CONTINUOUS
 62
7
100
AcDbLine
 10
10.35534549067916
 20
90.19631415299071
 30
0.000000000000000
 11
10.35534549067916
 21
79.47786257340672
 31
0.000000000000000
  0
LINE
  5
1CC
100
AcDbEntity
  8
A1
  6
CONTINUOUS
 62
7
100
AcDbLine
 10
11.35534549067916
 20
90.19631415299071
 30
0.000000000000000
 11
11.35534549067916
 21
79.47786257340672
 31
0.000000000000000
  0
LINE
  5
1CD
100
AcDbEntity
  8
A1
  6
CONTINUOUS
 62
7
100
AcDbLine
 10
12.13890587674103
 20
91.17261016011069
 30
0.000000000000000
 11
22.35534549067849
 21
93.43754029373450
 31
0.000000000000000
  0
LINE
  5
1CE
100
AcDbEntity
  8
A1
  6
CONTINUOUS
 62
7
100
AcDbLine
 10
11.92246626280296
 20
92.14890616723044
 30
0.000000000000000
 11
22.13890587674037
 21
94.41383630085424
 31
0.000000000000000
  0
ARC
  5
1CF
100
AcDbEntity
  8
A1
  6
CONTINUOUS
 62
7
100
AcDbCircle
 10
12.35534549067916
 20
90.19631415299071
 30
0.000000000000000
 40
1.000000000000000
100
AcDbArc
 50
102.5000000000001
 51
180.0000000000000
  0
ARC
  5
1D0
100
AcDbEntity
  8
A1
  6
CONTINUOUS
 62
7
100
AcDbCircle
 10
12.35534549067916
 20
90.19631415299071
 30
0.000000000000000
 40
2.000000000000000
100
AcDbArc
 50
102.4999999999999
 51
180.0000000000000
  0
LINE
  5
1D1
100
AcDbEntity
  8
A1
  6
CONTINUOUS
 62
7
100
AcDbLine
 10
22.13890587674030
 20
94.41383630085444
 30
0.000000000000000
 11
22.35534549067841
 21
93.43754029373451
 31
0.000000000000000
  0
LINE
  5
1D2
100
AcDbEntity
  8
A1
  6
CONTINUOUS
 62
7
100
AcDbLine
 10
11.35534549066782
 20
79.47786257341804
 30
0.000000000000000
 11
12.76955905305169
 21
78.06364901103419
 31
0.000000000000000
  0
LINE
  5
1D3
100
AcDbEntity
  8
A1
  6
CONTINUOUS
 62
7
100
AcDbLine
 10
10.64823870948126
 20
78.77075579223147
 30
0.000000000000000
 11
12.06245227186510
 21
77.35654222984766
 31
0.000000000000000
  0
ARC
  5
1D4
100
AcDbEntity
  8
A1
  6
CONTINUOUS
 62
7
100
AcDbCircle
 10
11.35534549067916
 20
79.47786257340672
 30
0.000000000000000
 40
1.000000000000000
100
AcDbArc
 50
180.0000000000000
 51
225.0000000000006
  0
LINE
  5
1D5
100
AcDbEntity
  8
A1
  6
CONTINUOUS
 62
7
100
AcDbLine
 10
14.06747752503514
 20
70.56573053906212
 30
0.000000000000000
 11
11.94113192829505
 21
72.69207613580147
 31
0.000000000000000
  0
LINE
  5
1D6
100
AcDbEntity
  8
A1
  6
CONTINUOUS
 62
7
100
AcDbLine
 10
14.77458430622153
 20
71.27283732024867
 30
0.000000000000000
 11
12.64823870948132
 21
73.39918291698814
 31
0.000000000000000
  0
ARC
  5
1D7
100
AcDbEntity
  8
A1
  6
CONTINUOUS
 62
7
100
AcDbCircle
 10
13.85534549067928
 20
70.35359850470607
 30
0.000000000000000
 40
0.3000000000000000
100
AcDbArc
 50
0.000000000000000
 51
45.00000000001150
  0
ARC
  5
1D8
100
AcDbEntity
  8
A1
  6
CONTINUOUS
 62
7
100
AcDbCircle
 10
13.85534549067928
 20
70.35359850470607
 30
0.000000000000000
 40
1.300000000000000
100
AcDbArc
 50
0.000000000000000
 51
45.00000000000972
  0
ARC
  5
1D9
100
AcDbEntity
  8
A1
  6
CONTINUOUS
 62
7
100
AcDbCircle
 10
13.35534549066785
 20
74.10628969817483
 30
0.000000000000000
 40
2.000000000000000
100
AcDbArc
 50
150.1720238074335
 51
225.0000000000098
  0
ARC
  5
1DA
100
AcDbEntity
  8
A1
  6
CONTINUOUS
 62
7
100
AcDbCircle
 10
13.35534549066785
 20
74.10628969817483
 30
0.000000000000000
 40
1.000000000000000
100
AcDbArc
 50
150.1720238074333
 51
225.0000000000098
  0
ARC
  5
1DB
100
AcDbEntity
  8
A1
  6
CONTINUOUS
 62
7
100
AcDbCircle
 10
11.35534549067859
 20
76.64943544866108
 30
0.000000000000000
 40
2.000000000000000
100
AcDbArc
 50
330.1720238074332
 51
404.9999999999999
  0
ARC
  5
1DC
100
AcDbEntity
  8
A1
  6
CONTINUOUS
 62
7
100
AcDbCircle
 10
11.35534549067859
 20
76.64943544866108
 30
0.000000000000000
 40
1.000000000000000
100
AcDbArc
 50
330.1720238074332
 51
404.9999999999994
  0
LINE
  5
1DD
100
AcDbEntity
  8
A1
  6
CONTINUOUS
 62
7
100
AcDbLine
 10
11.62030011238233
 20
75.10108492096694
 30
0.000000000000000
 11
12.22286817982151
 21
76.15203783726528
 31
0.000000000000000
  0
LINE
  5
1DE
100
AcDbEntity
  8
A1
  6
CONTINUOUS
 62
7
100
AcDbLine
 10
13.09039086896430
 20
75.65464022586933
 30
0.000000000000000
 11
12.48782280152512
 21
74.60368730957099
 31
0.000000000000000
  0
LINE
  5
1DF
100
AcDbEntity
  8
A1
  6
CONTINUOUS
 62
7
100
AcDbLine
 10
15.15534549067929
 20
58.60212664213009
 30
0.000000000000000
 11
15.15534549067929
 21
70.35359850470607
 31
0.000000000000000
  0
LINE
  5
1E0
100
AcDbEntity
  8
A1
  6
CONTINUOUS
 62
7
100
AcDbLine
 10
14.15534549067929
 20
58.60212664213009
 30
0.000000000000000
 11
14.15534549067929
 21
70.35359850470607
 31
0.000000000000000
  0
ARC
  5
1E1
100
AcDbEntity
  8
A1
  6
CONTINUOUS
 62
7
100
AcDbCircle
 10
16.75534549067920
 20
36.04286257341687
 30
0.000000000000000
 40
3.964999999999999
100
AcDbArc
 50
357.6659397403221
 51
517.3340602596779
  0
ARC
  5
1E2
100
AcDbEntity
  8
A1
  6
CONTINUOUS
 62
7
100
AcDbCircle
 10
16.75534549067920
 20
36.04286257341687
 30
0.000000000000000
 40
3.964999999999999
100
AcDbArc
 50
171.8418556335158
 51
343.1581443664844
  0
ARC
  5
1E3
100
AcDbEntity
  8
A1
  6
CONTINUOUS
 62
7
100
AcDbCircle
 10
22.15534549067917
 20
43.70286257341809
 30
0.000000000000000
 40
3.174999999999999
100
AcDbArc
 50
180.0000000000000
 51
360.0000000000000
  0
ARC
  5
1E4
100
AcDbEntity
  8
A1
  6
CONTINUOUS
 62
7
100
AcDbCircle
 10
22.15534549067917
 20
43.70286257341809
 30
0.000000000000000
 40
3.174999999999999
100
AcDbArc
 50
18.35843707533010
 51
161.6415629246699
  0
ARC
  5
1E5
100
AcDbEntity
  8
A1
  6
CONTINUOUS
 62
7
100
AcDbCircle
 10
22.15534549067917
 20
85.25286257341807
 30
0.000000000000000
 40
3.174999999999999
100
AcDbArc
 50
198.3584370753279
 51
341.6415629246720
  0
ARC
  5
1E6
100
AcDbEntity
  8
A1
  6
CONTINUOUS
 62
7
100
AcDbCircle
 10
22.15534549067917
 20
85.25286257341807
 30
0.000000000000000
 40
3.174999999999999
100
AcDbArc
 50
0.000000000000000
 51
180.0000000000000
  0
ARC
  5
1E7
100
AcDbEntity
  8
A1
  6
CONTINUOUS
 62
7
100
AcDbCircle
 10
16.75534549067920
 20
92.91286257341952
 30
0.000000000000000
 40
3.964999999999999
100
AcDbArc
 50
16.84185563351389
 51
188.1581443664863
  0
ARC
  5
1E8
100
AcDbEntity
  8
A1
  6
CONTINUOUS
 62
7
100
AcDbCircle
 10
16.75534549067920
 20
92.91286257341952
 30
0.000000000000000
 40
3.964999999999999
100
AcDbArc
 50
202.6659397403229
 51
362.3340602596767
  0
SPLINE
  5
1E9
100
AcDbEntity
  8
A1
  6
CONTINUOUS
 62
7
100
AcDbSpline
210
0.000000000000000
220
0.000000000000000
230
1.000000000000000
 70
     8
 71
     3
 72
    12
 73
     8
 74
     0
 42
1.000000000000000e-07
 43
1.000000000000000e-07
 12
-0.8305197131048772
 22
0.5569892334297037
 32
0.000000000000000
 13
-0.9922250697854906
 23
0.1244564616827120
 33
0.000000000000000
 40
0.000000000000000
 40
0.000000000000000
 40
0.000000000000000
 40
0.000000000000000
 40
0.1476387386511086
 40
0.2822857224892344
 40
0.4255565306640163
 40
0.5380608954055829
 40
0.6041930190002790
 40
0.6041930190002790
 40
0.6041930190002790
 40
0.6041930190002790
 10
1688.763088832748
 20
183.5797582147336
 30
0.000000000000000
 10
1688.722216538459
 20
183.6071692773555
 30
0.000000000000000
 10
1688.643477530126
 20
183.6586459250304
 30
0.000000000000000
 10
1688.523847320233
 20
183.7350973740042
 30
0.000000000000000
 10
1688.411251547641
 20
183.7997640851438
 30
0.000000000000000
 10
1688.315034296695
 20
183.8494249457965
 30
0.000000000000000
 10
1688.256088525573
 20
183.8608630829997
 30
0.000000000000000
 10
1688.234215875257
 20
183.8636066063684
 30
0.000000000000000
  0
ARC
  5
1EA
100
AcDbEntity
  8
A1
  6
CONTINUOUS
 62
7
100
AcDbCircle
 10
1688.177301832749
 20
181.3636066063684
 30
0.000000000000000
 40
2.500000000000000
100
AcDbArc
 50
0.000000000000000
 51
36.86992168959740
  0
ARC
  5
1EB
100
AcDbEntity
  8
A1
  6
CONTINUOUS
 62
7
100
AcDbCircle
 10
1688.177301832749
 20
181.3636066063675
 30
0.000000000000000
 40
2.500000000001169
100
AcDbArc
 50
36.86992168961419
 51
88.73278272353420
  0
ARC
  5
1EC
100
AcDbEntity
  8
A1
  6
CONTINUOUS
 62
7
100
AcDbCircle
 10
1687.822602457448
 20
182.1636066063686
 30
0.000000000000000
 40
1.699999999999980
100
AcDbArc
 50
45.00000000001079
 51
56.41129919730332
  0
ARC
  5
1ED
100
AcDbEntity
  8
A1
  6
CONTINUOUS
 62
7
100
AcDbCircle
 10
1688.677298110591
 20
180.8846416205899
 30
0.000000000000000
 40
2.000003722157540
100
AcDbArc
 50
0.000000000000000
 51
44.99993810155833
  0
LINE
  5
1EE
100
AcDbEntity
  8
A1
  6
CONTINUOUS
 62
7
100
AcDbLine
 10
1688.177301832749
 20
163.3636066063688
 30
0.000000000000000
 11
1688.177301832749
 21
168.3636066063688
 31
0.000000000000000
  0
LINE
  5
1EF
100
AcDbEntity
  8
A1
  6
CONTINUOUS
 62
7
100
AcDbLine
 10
1690.677301832749
 20
168.3636066063688
 30
0.000000000000000
 11
1690.677301832749
 21
163.3636066063688
 31
0.000000000000000
  0
LINE
  5
1F0
100
AcDbEntity
  8
A1
  6
CONTINUOUS
 62
7
100
AcDbLine
 10
1690.677301832749
 20
163.3636066063688
 30
0.000000000000000
 11
1688.177301832749
 21
163.3636066063688
 31
0.000000000000000
  0
LINE
  5
1F1
100
AcDbEntity
  8
A1
  6
CONTINUOUS
 62
7
100
AcDbLine
 10
1688.177301832749
 20
168.3636066063688
 30
0.000000000000000
 11
1688.177301832749
 21
169.1636066063653
 31
0.000000000000000
  0
LINE
  5
1F2
100
AcDbEntity
  8
A1
  6
CONTINUOUS
 62
7
100
AcDbLine
 10
1690.677301832749
 20
180.8846426205943
 30
0.000000000000000
 11
1690.677301832749
 21
181.3636066063688
 31
0.000000000000000
  0
LINE
  5
1F3
100
AcDbEntity
  8
A1
  6
CONTINUOUS
 62
7
100
AcDbLine
 10
1690.677301832749
 20
168.3636066063688
 30
0.000000000000000
 11
1690.677301832749
 21
169.1636066063653
 31
0.000000000000000
  0
LINE
  5
1F4
100
AcDbEntity
  8
A1
  6
CONTINUOUS
 62
7
100
AcDbLine
 10
1688.177301832749
 20
168.3636066063688
 30
0.000000000000000
 11
1690.677301832749
 21
168.3636066063688
 31
0.000000000000000
  0
LINE
  5
1F5
100
AcDbEntity
  8
A1
  6
CONTINUOUS
 62
7
100
AcDbLine
 10
1690.177301203285
 20
182.2075193967104
 30
0.000000000000000
 11
1690.177301203285
 21
182.8636074456541
 31
0.000000000000000
  0
LINE
  5
1F6
100
AcDbEntity
  8
A1
  6
CONTINUOUS
 62
7
100
AcDbLine
 10
877.8773018327489
 20
183.3656881343865
 30
0.000000000000000
 11
877.8773018327489
 21
183.8636066063688
 31
0.000000000000000
  0
LINE
  5
1F7
100
AcDbEntity
  8
A1
  6
CONTINUOUS
 62
7
100
AcDbLine
 10
1688.234215875257
 20
183.8636066063688
 30
0.000000000000000
 11
877.8773018327489
 21
183.8636066063688
 31
0.000000000000000
  0
LINE
  5
1F8
100
AcDbEntity
  8
A1
  6
CONTINUOUS
 62
7
100
AcDbLine
 10
877.8773018327489
 20
179.0350519467362
 30
0.000000000000000
 11
877.8773018327489
 21
183.3656881343865
 31
0.000000000000000
  0
LINE
  5
1F9
100
AcDbEntity
  8
A1
  6
CONTINUOUS
 62
7
100
AcDbLine
 10
1690.677301832749
 20
179.0350519467362
 30
0.000000000000000
 11
1690.677301832749
 21
180.8846416205903
 31
0.000000000000000
  0
LINE
  5
1FA
100
AcDbEntity
  8
A1
  6
CONTINUOUS
 62
7
100
AcDbLine
 10
1690.091515832747
 20
182.2988562871019
 30
0.000000000000000
 11
1689.024683985464
 21
183.3656881343857
 31
0.000000000000000
  0
LINE
  5
1FB
100
AcDbEntity
  8
A1
  6
CONTINUOUS
 62
7
100
AcDbLine
 10
1689.024683985465
 20
183.3656881343862
 30
0.000000000000000
 11
877.8773018327491
 21
183.3656881343861
 31
0.000000000000000
  0
LINE
  5
1FC
100
AcDbEntity
  8
A1
  6
CONTINUOUS
 62
7
100
AcDbLine
 10
877.8773018327489
 20
169.1636066063654
 30
0.000000000000000
 11
877.8773018327489
 21
179.0350519467362
 31
0.000000000000000
  0
LINE
  5
1FD
100
AcDbEntity
  8
A1
  6
CONTINUOUS
 62
7
100
AcDbLine
 10
1690.677301832749
 20
169.1636066063646
 30
0.000000000000000
 11
877.8773018327491
 21
169.1636066063646
 31
0.000000000000000
  0
LINE
  5
1FE
100
AcDbEntity
  8
A1
  6
CONTINUOUS
 62
7
100
AcDbLine
 10
1690.677301832749
 20
169.1636066063653
 30
0.000000000000000
 11
1690.677301832749
 21
179.0350519467362
 31
0.000000000000000
  0
LINE
  5
1FF
100
AcDbEntity
  8
A1
  6
CONTINUOUS
 62
7
100
AcDbLine
 10
1690.677301832749
 20
179.0350519467355
 30
0.000000000000000
 11
877.8773018327491
 21
179.0350519467355
 31
0.000000000000000
  0
SPLINE
  5
200
100
AcDbEntity
  8
A1
  6
CONTINUOUS
 62
7
100
AcDbSpline
210
0.000000000000000
220
0.000000000000000
230
1.000000000000000
 70
     8
 71
     3
 72
    17
 73
    13
 74
     0
 42
1.000000000000000e-07
 43
1.000000000000000e-07
 12
-0.007049927406114875
 22
-0.9999751489519895
 32
0.000000000000000
 13
0.9999995238476913
 23
0.0009758660537499964
 33
0.000000000000000
 40
0.000000000000000
 40
0.000000000000000
 40
0.000000000000000
 40
0.000000000000000
 40
0.2816393116382500
 40
0.5634931201143010
 40
0.8349480651394083
 40
1.117917651600876
 40
1.392672024345272
 40
1.687069308203180
 40
1.989579451103424
 40
2.312133100972483
 40
2.570875769953764
 40
2.836914172936765
 40
2.836914172936765
 40
2.836914172936765
 40
2.836914172936765
 10
466.3773018327493
 20
166.2322325920697
 30
0.000000000000000
 10
466.3766399871820
 20
166.1383551545343
 30
0.000000000000000
 10
466.3931299248461
 20
165.9500053428981
 30
0.000000000000000
 10
466.4688434735440
 20
165.6802985102252
 30
0.000000000000000
 10
466.5999363146193
 20
165.4318901614954
 30
0.000000000000000
 10
466.7790901521712
 20
165.2187039775374
 30
0.000000000000000
 10
467.0019678358331
 20
165.0401901839589
 30
0.000000000000000
 10
467.2574652244439
 20
164.8991886129954
 30
0.000000000000000
 10
467.5455007205132
 20
164.7918097950421
 30
0.000000000000000
 10
467.8331334405839
 20
164.7246966342193
 30
0.000000000000000
 10
468.1135951971141
 20
164.6888276432985
 30
0.000000000000000
 10
468.2886224073131
 20
164.6813339561443
 30
0.000000000000000
 10
468.3773018327493
 20
164.6814204954264
 30
0.000000000000000
  0
LINE
  5
201
100
AcDbEntity
  8
A1
  6
CONTINUOUS
 62
7
100
AcDbLine
 10
466.3773018327493
 20
177.2625780513715
 30
0.000000000000000
 11
466.3773018327493
 21
179.5636066063623
 31
0.000000000000000
  0
LINE
  5
202
100
AcDbEntity
  8
A1
  6
CONTINUOUS
 62
7
100
AcDbLine
 10
877.8773018327491
 20
179.5636066063623
 30
0.000000000000000
 11
466.3773018327491
 21
179.5636066063622
 31
0.000000000000000
  0
LINE
  5
203
100
AcDbEntity
  8
A1
  6
CONTINUOUS
 62
7
100
AcDbLine
 10
466.3773018327493
 20
177.2625780513710
 30
0.000000000000000
 11
466.3773018327493
 21
171.3514224895650
 31
0.000000000000000
  0
LINE
  5
204
100
AcDbEntity
  8
A1
  6
CONTINUOUS
 62
7
100
AcDbLine
 10
877.8773018327489
 20
177.2625780513715
 30
0.000000000000000
 11
466.3773018327493
 21
177.2625780513715
 31
0.000000000000000
  0
LINE
  5
205
100
AcDbEntity
  8
A1
  6
CONTINUOUS
 62
7
100
AcDbLine
 10
466.3773018327493
 20
166.2322325920702
 30
0.000000000000000
 11
466.3773018327493
 21
171.3514224895650
 31
0.000000000000000
  0
LINE
  5
206
100
AcDbEntity
  8
A1
  6
CONTINUOUS
 62
7
100
AcDbLine
 10
1267.777301832749
 20
164.6814204954268
 30
0.000000000000000
 11
468.3773018327493
 21
164.6814204954269
 31
0.000000000000000
  0
LINE
  5
207
100
AcDbEntity
  8
A1
  6
CONTINUOUS
 62
7
100
AcDbLine
 10
1267.777301832749
 20
164.6814204954268
 30
0.000000000000000
 11
1267.777301832749
 21
169.1636066063662
 31
0.000000000000000
  0
LINE
  5
208
100
AcDbEntity
  8
A1
  6
CONTINUOUS
 62
7
100
AcDbLine
 10
877.8773018327489
 20
171.3514224895650
 30
0.000000000000000
 11
466.3773018327493
 21
171.3514224895650
 31
0.000000000000000
  0
LINE
  5
209
100
AcDbEntity
  8
A1
  6
CONTINUOUS
 62
7
100
AcDbLine
 10
1270.777301832751
 20
167.8636066063697
 30
0.000000000000000
 11
1267.777301832749
 21
167.8636066063697
 31
0.000000000000000
  0
LINE
  5
20A
100
AcDbEntity
  8
A1
  6
CONTINUOUS
 62
7
100
AcDbLine
 10
1270.777301832751
 20
169.1636066063662
 30
0.000000000000000
 11
1270.777301832751
 21
167.8636066063697
 31
0.000000000000000
  0
LINE
  5
20B
100
AcDbEntity
  8
A1
  6
CONTINUOUS
 62
7
100
AcDbLine
 10
69.87730183274947
 20
164.0636066063687
 30
0.000000000000000
 11
69.87730183274947
 21
166.9903311213000
 31
0.000000000000000
  0
LINE
  5
20C
100
AcDbEntity
  8
A1
  6
CONTINUOUS
 62
7
100
AcDbLine
 10
874.7773018327490
 20
164.0636066063686
 30
0.000000000000000
 11
874.7773018327490
 21
164.6814204954268
 31
0.000000000000000
  0
LINE
  5
20D
100
AcDbEntity
  8
A1
  6
CONTINUOUS
 62
7
100
AcDbLine
 10
874.7773018327488
 20
164.0636066063683
 30
0.000000000000000
 11
69.87730183274904
 21
164.0636066063682
 31
0.000000000000000
  0
LINE
  5
20E
100
AcDbEntity
  8
A1
  6
CONTINUOUS
 62
7
100
AcDbLine
 10
69.87730183274947
 20
171.8443882385689
 30
0.000000000000000
 11
69.87730183274947
 21
173.4636066063692
 31
0.000000000000000
  0
LINE
  5
20F
100
AcDbEntity
  8
A1
  6
CONTINUOUS
 62
7
100
AcDbLine
 10
466.3773018327491
 20
173.4636066063686
 30
0.000000000000000
 11
69.87730183274918
 21
173.4636066063686
 31
0.000000000000000
  0
LINE
  5
210
100
AcDbEntity
  8
A1
  6
CONTINUOUS
 62
7
100
AcDbLine
 10
69.87730183274947
 20
171.7291271934212
 30
0.000000000000000
 11
69.87730183274947
 21
166.9903311213000
 31
0.000000000000000
  0
LINE
  5
211
100
AcDbEntity
  8
A1
  6
CONTINUOUS
 62
7
100
AcDbLine
 10
466.3773018327493
 20
166.9903311212999
 30
0.000000000000000
 11
69.87730183274947
 21
166.9903311213000
 31
0.000000000000000
  0
LINE
  5
212
100
AcDbEntity
  8
A1
  6
CONTINUOUS
 62
7
100
AcDbLine
 10
69.87730183274947
 20
171.7291271934212
 30
0.000000000000000
 11
69.87730183274947
 21
171.8443882385689
 31
0.000000000000000
  0
LINE
  5
213
100
AcDbEntity
  8
A1
  6
CONTINUOUS
 62
7
100
AcDbLine
 10
466.3773018327493
 20
171.7291271934211
 30
0.000000000000000
 11
69.87730183274947
 21
171.7291271934212
 31
0.000000000000000
  0
LINE
  5
214
100
AcDbEntity
  8
A1
  6
CONTINUOUS
 62
7
100
AcDbLine
 10
466.3773018327493
 20
171.8443882385688
 30
0.000000000000000
 11
69.87730183274947
 21
171.8443882385689
 31
0.000000000000000
  0
LINE
  5
215
100
AcDbEntity
  8
A1
  6
CONTINUOUS
 62
7
100
AcDbLine
 10
27.85534549067916
 20
44.47786257341130
 30
0.000000000000000
 11
27.85534549067916
 21
84.47786257112347
 31
0.000000000000000
  0
ARC
  5
216
100
AcDbEntity
  8
A1
  6
CONTINUOUS
 62
7
100
AcDbCircle
 10
22.85534549067916
 20
84.47786257112347
 30
0.000000000000000
 40
5.000000000000000
100
AcDbArc
 50
0.000000000000000
 51
51.46273202952467
  0
ARC
  5
217
100
AcDbEntity
  8
A1
  6
CONTINUOUS
 62
7
100
AcDbCircle
 10
22.85534549067916
 20
44.47786257341130
 30
0.000000000000000
 40
5.000000000000000
100
AcDbArc
 50
308.5372679912219
 51
360.0000000000000
  0
LINE
  5
218
100
AcDbEntity
  8
A1
  6
CONTINUOUS
 62
7
100
AcDbLine
 10
10.35534549067916
 20
39.47786257339405
 30
0.000000000000000
 11
9.855345508340669
 21
39.47786257339337
 31
0.000000000000000
  0
LINE
  5
219
100
AcDbEntity
  8
A1
  6
CONTINUOUS
 62
7
100
AcDbLine
 10
12.36920043949614
 20
39.47786257339683
 30
0.000000000000000
 11
11.35534549067916
 21
39.47786257339543
 31
0.000000000000000
  0
LINE
  5
21A
100
AcDbEntity
  8
A1
  6
CONTINUOUS
 62
7
100
AcDbLine
 10
10.35534549067916
 20
89.47786257110624
 30
0.000000000000000
 11
9.855345508271746
 21
89.47786257110556
 31
0.000000000000000
  0
LINE
  5
21B
100
AcDbEntity
  8
A1
  6
CONTINUOUS
 62
7
100
AcDbLine
 10
12.36920043704893
 20
89.47786257110903
 30
0.000000000000000
 11
11.35534549067916
 21
89.47786257110764
 31
0.000000000000000
  0
LINE
  5
21C
100
AcDbEntity
  8
A1
  6
CONTINUOUS
 62
7
100
AcDbLine
 10
19.15534549067917
 20
54.97786257341849
 30
0.000000000000000
 11
19.15534549067917
 21
73.97786257342113
 31
0.000000000000000
  0
LINE
  5
21D
100
AcDbEntity
  8
A1
  6
CONTINUOUS
 62
7
100
AcDbLine
 10
21.15534549067494
 20
75.97786257342116
 30
0.000000000000000
 11
27.15534549067912
 21
75.97786257343387
 31
0.000000000000000
  0
LINE
  5
21E
100
AcDbEntity
  8
A1
  6
CONTINUOUS
 62
7
100
AcDbLine
 10
21.15534549067944
 20
52.97786257341851
 30
0.000000000000000
 11
27.15534549067912
 21
52.97786257341931
 31
0.000000000000000
  0
ARC
  5
21F
100
AcDbEntity
  8
A1
  6
CONTINUOUS
 62
7
100
AcDbCircle
 10
21.15534549067917
 20
73.97786257342113
 30
0.000000000000000
 40
2.000000000000000
100
AcDbArc
 50
90.00000000000000
 51
180.0000000000000
  0
ARC
  5
220
100
AcDbEntity
  8
A1
  6
CONTINUOUS
 62
7
100
AcDbCircle
 10
21.15534549067917
 20
54.97786257341849
 30
0.000000000000000
 40
2.000000000000000
100
AcDbArc
 50
180.0000000000000
 51
270.0000000000000
  0
LINE
  5
221
100
AcDbEntity
  8
A1
  6
CONTINUOUS
 62
7
100
AcDbLine
 10
24.65534549067912
 20
48.95554046188613
 30
0.000000000000000
 11
24.65534549067912
 21
52.97786257341897
 31
0.000000000000000
  0
LINE
  5
222
100
AcDbEntity
  8
A1
  6
CONTINUOUS
 62
7
100
AcDbLine
 10
24.65534549067912
 20
75.97786257342858
 30
0.000000000000000
 11
24.65534549067912
 21
80.00018468495026
 31
0.000000000000000
  0
LINE
  5
223
100
AcDbEntity
  8
A4
  6
CENTER
 62
1
100
AcDbLine
 10
1720.899258174835
 20
64.47786257342329
 30
0.000000000000000
 11
1743.699258174835
 21
64.47786257342344
 31
0.000000000000000
  0
ARC
  5
224
100
AcDbEntity
  8
A1
  6
CONTINUOUS
 62
7
100
AcDbCircle
 10
1732.799258174835
 20
36.04286257342207
 30
0.000000000000000
 40
6.464999999999999
100
AcDbArc
 50
214.9353303380699
 51
314.9999999999864
  0
LINE
  5
225
100
AcDbEntity
  8
A1
  6
CONTINUOUS
 62
7
100
AcDbLine
 10
1742.199258174835
 20
37.00413494871943
 30
0.000000000000000
 11
1742.199258174835
 21
91.95159019812722
 31
0.000000000000000
  0
LINE
  5
226
100
AcDbEntity
  8
A1
  6
CONTINUOUS
 62
7
100
AcDbLine
 10
1739.699258174835
 20
37.33550579861947
 30
0.000000000000000
 11
1735.602936562240
 21
33.23918418602250
 31
0.000000000000000
  0
LINE
  5
227
100
AcDbEntity
  8
A1
  6
CONTINUOUS
 62
7
100
AcDbLine
 10
1741.701339702852
 20
35.80205342070269
 30
0.000000000000000
 11
1737.370703515206
 21
31.47141723305310
 31
0.000000000000000
  0
ARC
  5
228
100
AcDbEntity
  8
A1
  6
CONTINUOUS
 62
7
100
AcDbCircle
 10
1735.599258174835
 20
41.14343871294292
 30
0.000000000000000
 40
2.299999999999999
100
AcDbArc
 50
270.1685811857819
 51
313.6006914558748
  0
ARC
  5
229
100
AcDbEntity
  8
A1
  6
CONTINUOUS
 62
7
100
AcDbCircle
 10
1740.499258174835
 20
37.00413494871941
 30
0.000000000000000
 40
1.700000000000000
100
AcDbArc
 50
315.0000000000193
 51
360.0000000000003
  0
LINE
  5
22A
100
AcDbEntity
  8
A1
  6
CONTINUOUS
 62
7
100
AcDbLine
 10
1727.499258174835
 20
32.80945486715648
 30
0.000000000000000
 11
1727.499258174835
 21
32.34067065511196
 31
0.000000000000000
  0
LINE
  5
22B
100
AcDbEntity
  8
A1
  6
CONTINUOUS
 62
7
100
AcDbLine
 10
1729.414439125019
 20
33.97786257342307
 30
0.000000000000000
 11
1727.499258174836
 21
32.80945486715621
 31
0.000000000000000
  0
ARC
  5
22C
100
AcDbEntity
  8
A1
  6
CONTINUOUS
 62
7
100
AcDbCircle
 10
1727.399258174835
 20
43.70286257342326
 30
0.000000000000000
 40
5.674999999999999
100
AcDbArc
 50
219.4489167751305
 51
293.9074882555542
  0
LINE
  5
22D
100
AcDbEntity
  8
A1
  6
CONTINUOUS
 62
7
100
AcDbLine
 10
1723.017072063901
 20
40.09702426740841
 30
0.000000000000000
 11
1723.584140416206
 21
40.56684718737324
 31
0.000000000000000
  0
ARC
  5
22E
100
AcDbEntity
  8
A1
  6
CONTINUOUS
 62
7
100
AcDbCircle
 10
1732.799258174835
 20
92.91286257342472
 30
0.000000000000000
 40
6.464999999999999
100
AcDbArc
 50
45.00000000001420
 51
145.0646696619307
  0
LINE
  5
22F
100
AcDbEntity
  8
A1
  6
CONTINUOUS
 62
7
100
AcDbLine
 10
1739.699258174835
 20
91.62021934822701
 30
0.000000000000000
 11
1735.602936562239
 21
95.71654096082386
 31
0.000000000000000
  0
LINE
  5
230
100
AcDbEntity
  8
A1
  6
CONTINUOUS
 62
7
100
AcDbLine
 10
1741.701339702852
 20
93.15367172614390
 30
0.000000000000000
 11
1737.370703515205
 21
97.48430791379337
 31
0.000000000000000
  0
ARC
  5
231
100
AcDbEntity
  8
A1
  6
CONTINUOUS
 62
7
100
AcDbCircle
 10
1735.599258174835
 20
87.81228643390386
 30
0.000000000000000
 40
2.299999999999999
100
AcDbArc
 50
46.39930845994111
 51
89.83141881421876
  0
ARC
  5
232
100
AcDbEntity
  8
A1
  6
CONTINUOUS
 62
7
100
AcDbCircle
 10
1740.499258174835
 20
91.95159019812721
 30
0.000000000000000
 40
1.700000000000000
100
AcDbArc
 50
3.053332494204976e-13
 51
44.99999999998132
  0
LINE
  5
233
100
AcDbEntity
  8
A1
  6
CONTINUOUS
 62
7
100
AcDbLine
 10
1727.499258174835
 20
96.14627027969023
 30
0.000000000000000
 11
1727.499258174835
 21
96.61505449173497
 31
0.000000000000000
  0
LINE
  5
234
100
AcDbEntity
  8
A1
  6
CONTINUOUS
 62
7
100
AcDbLine
 10
1729.414439125018
 20
94.97786257342284
 30
0.000000000000000
 11
1727.499258174835
 21
96.14627027969016
 31
0.000000000000000
  0
ARC
  5
235
100
AcDbEntity
  8
A1
  6
CONTINUOUS
 62
7
100
AcDbCircle
 10
1727.399258174835
 20
85.25286257342324
 30
0.000000000000000
 40
5.674999999999999
100
AcDbArc
 50
66.09251174444336
 51
140.5510832248701
  0
LINE
  5
236
100
AcDbEntity
  8
A1
  6
CONTINUOUS
 62
7
100
AcDbLine
 10
1739.199258174835
 20
38.75941099385074
 30
0.000000000000000
 11
1739.199258174835
 21
39.47786257339928
 31
0.000000000000000
  0
LINE
  5
237
100
AcDbEntity
  8
A1
  6
CONTINUOUS
 62
7
100
AcDbLine
 10
1738.199258174835
 20
38.75941099385074
 30
0.000000000000000
 11
1738.199258174835
 21
39.47786257340067
 31
0.000000000000000
  0
LINE
  5
238
100
AcDbEntity
  8
A1
  6
CONTINUOUS
 62
7
100
AcDbLine
 10
1737.415697788774
 20
37.78311498673077
 30
0.000000000000000
 11
1727.199258174836
 21
35.51818485310690
 31
0.000000000000000
  0
LINE
  5
239
100
AcDbEntity
  8
A1
  6
CONTINUOUS
 62
7
100
AcDbLine
 10
1737.632137402712
 20
36.80681897961102
 30
0.000000000000000
 11
1727.415697788774
 21
34.54188884598710
 31
0.000000000000000
  0
ARC
  5
23A
100
AcDbEntity
  8
A1
  6
CONTINUOUS
 62
7
100
AcDbCircle
 10
1737.199258174835
 20
38.75941099385074
 30
0.000000000000000
 40
1.000000000000000
100
AcDbArc
 50
282.5000000000005
 51
360.0000000000003
  0
ARC
  5
23B
100
AcDbEntity
  8
A1
  6
CONTINUOUS
 62
7
100
AcDbCircle
 10
1737.199258174835
 20
38.75941099385074
 30
0.000000000000000
 40
2.000000000000000
100
AcDbArc
 50
282.5000000000002
 51
360.0000000000003
  0
LINE
  5
23C
100
AcDbEntity
  8
A1
  6
CONTINUOUS
 62
7
100
AcDbLine
 10
1727.415697788774
 20
34.54188884598710
 30
0.000000000000000
 11
1727.199258174836
 21
35.51818485310707
 31
0.000000000000000
  0
LINE
  5
23D
100
AcDbEntity
  8
A1
  6
CONTINUOUS
 62
7
100
AcDbLine
 10
1737.415697788773
 20
91.17261016011582
 30
0.000000000000000
 11
1727.199258174836
 21
93.43754029373963
 31
0.000000000000000
  0
LINE
  5
23E
100
AcDbEntity
  8
A1
  6
CONTINUOUS
 62
7
100
AcDbLine
 10
1737.632137402711
 20
92.14890616723557
 30
0.000000000000000
 11
1727.415697788774
 21
94.41383630085937
 31
0.000000000000000
  0
ARC
  5
23F
100
AcDbEntity
  8
A1
  6
CONTINUOUS
 62
7
100
AcDbCircle
 10
1737.199258174835
 20
90.19631415299594
 30
0.000000000000000
 40
1.000000000000000
100
AcDbArc
 50
3.053332494204976e-13
 51
77.50000000000017
  0
ARC
  5
240
100
AcDbEntity
  8
A1
  6
CONTINUOUS
 62
7
100
AcDbCircle
 10
1737.199258174835
 20
90.19631415299594
 30
0.000000000000000
 40
2.000000000000000
100
AcDbArc
 50
3.053332494204976e-13
 51
77.50000000000047
  0
LINE
  5
241
100
AcDbEntity
  8
A1
  6
CONTINUOUS
 62
7
100
AcDbLine
 10
1727.415697788774
 20
94.41383630085954
 30
0.000000000000000
 11
1727.199258174836
 21
93.43754029373963
 31
0.000000000000000
  0
ARC
  5
242
100
AcDbEntity
  8
A1
  6
CONTINUOUS
 62
7
100
AcDbCircle
 10
1732.799258174835
 20
36.04286257342207
 30
0.000000000000000
 40
3.964999999999999
100
AcDbArc
 50
196.8418556335159
 51
368.1581443664846
  0
ARC
  5
243
100
AcDbEntity
  8
A1
  6
CONTINUOUS
 62
7
100
AcDbCircle
 10
1732.799258174835
 20
92.91286257342472
 30
0.000000000000000
 40
3.964999999999999
100
AcDbArc
 50
351.8418556335140
 51
523.1581443664865
  0
LINE
  5
244
100
AcDbEntity
  8
A1
  6
CONTINUOUS
 62
7
100
AcDbLine
 10
1721.699258174835
 20
44.47786257341642
 30
0.000000000000000
 11
1721.699258174835
 21
84.47786257112860
 31
0.000000000000000
  0
ARC
  5
245
100
AcDbEntity
  8
A1
  6
CONTINUOUS
 62
7
100
AcDbCircle
 10
1726.699258174835
 20
84.47786257112861
 30
0.000000000000000
 40
5.000000000000000
100
AcDbArc
 50
90.00000000000000
 51
180.0000000000003
  0
ARC
  5
246
100
AcDbEntity
  8
A1
  6
CONTINUOUS
 62
7
100
AcDbCircle
 10
1726.699258174835
 20
44.47786257341645
 30
0.000000000000000
 40
5.000000000000000
100
AcDbArc
 50
180.0000000000003
 51
270.0000000000000
  0
LINE
  5
247
100
AcDbEntity
  8
A1
  6
CONTINUOUS
 62
7
100
AcDbLine
 10
1726.699258174842
 20
89.47786257112867
 30
0.000000000000000
 11
1742.199258174835
 21
89.47786257110735
 31
0.000000000000000
  0
LINE
  5
248
100
AcDbEntity
  8
A1
  6
CONTINUOUS
 62
7
100
AcDbLine
 10
1726.699258174829
 20
39.47786257341647
 30
0.000000000000000
 11
1742.199258174835
 21
39.47786257339516
 31
0.000000000000000
  0
LINE
  5
249
100
AcDbEntity
  8
A1
  6
CONTINUOUS
 62
7
100
AcDbLine
 10
1739.699258174835
 20
37.33550579861958
 30
0.000000000000000
 11
1739.699258174835
 21
39.47786257339857
 31
0.000000000000000
  0
LINE
  5
24A
100
AcDbEntity
  8
A1
  6
CONTINUOUS
 62
7
100
AcDbLine
 10
1739.699258174835
 20
89.47786257111079
 30
0.000000000000000
 11
1739.699258174835
 21
91.62021934822704
 31
0.000000000000000
  0
LINE
  5
24B
100
AcDbEntity
  8
A1
  6
CONTINUOUS
 62
7
100
AcDbLine
 10
1739.199258174835
 20
89.47786257111079
 30
0.000000000000000
 11
1739.199258174835
 21
90.19631415299594
 31
0.000000000000000
  0
LINE
  5
24C
100
AcDbEntity
  8
A1
  6
CONTINUOUS
 62
7
100
AcDbLine
 10
1738.199258174835
 20
89.47786257111079
 30
0.000000000000000
 11
1738.199258174835
 21
90.19631415299594
 31
0.000000000000000
  0
ARC
  5
24D
100
AcDbEntity
  8
A1
  6
CONTINUOUS
 62
7
100
AcDbCircle
 10
1732.799258174835
 20
92.91286257342472
 30
0.000000000000000
 40
3.964999999999999
100
AcDbArc
 50
177.6659397403237
 51
240.0349675016015
  0
ARC
  5
24E
100
AcDbEntity
  8
A1
  6
CONTINUOUS
 62
7
100
AcDbCircle
 10
1732.799258174835
 20
92.91286257342472
 30
0.000000000000000
 40
3.964999999999999
100
AcDbArc
 50
299.9650324982392
 51
337.3340602596774
  0
ARC
  5
24F
100
AcDbEntity
  8
A1
  6
CONTINUOUS
 62
7
100
AcDbCircle
 10
1732.799258174835
 20
36.04286257342207
 30
0.000000000000000
 40
3.964999999999999
100
AcDbArc
 50
22.66593974032231
 51
60.03496743452570
  0
ARC
  5
250
100
AcDbEntity
  8
A1
  6
CONTINUOUS
 62
7
100
AcDbCircle
 10
1732.799258174835
 20
36.04286257342207
 30
0.000000000000000
 40
3.964999999999999
100
AcDbArc
 50
119.9650325653150
 51
182.3340602596782
  0
LINE
  5
251
100
AcDbEntity
  8
A1
  6
CONTINUOUS
 62
7
100
AcDbLine
 10
1723.017072063901
 20
88.85870087943658
 30
0.000000000000000
 11
1723.584140416206
 21
88.38887795947176
 31
0.000000000000000
  0
ENDSEC
  0
SECTION
  2
OBJECTS
  0
DICTIONARY
  5
27F
100
AcDbDictionary
  3
ACAD_GROUP
350
280
  3
ACAD_MLINESTYLE
350
281
  0
DICTIONARY
  5
280
102
{ACAD_REACTORS
330
27F
102
}
100
AcDbDictionary
  0
DICTIONARY
  5
281
102
{ACAD_REACTORS
330
27F
102
}
100
AcDbDictionary
  3
STANDARD
350
282
  0
MLINESTYLE
  5
282
102
{ACAD_REACTORS
330
281
102
}
100
AcDbMlineStyle
  2
STANDARD
 70
     0
  3

 62
   256
 51
90.00
 52
90.00
 71
     2
 49
0.50
 62
   256
  6
BYLAYER
 49
-0.50
 62
   256
  6
BYLAYER
  0
ENDSEC
  0
EOF
