  0
SECTION
  2
HEADER
  9
$ACADVER
  1
AC1014
  9
$DWGCODEPAGE
  3
ANSI_932
  9
$LTSCALE
 40
20.0
  9
$FILLMODE
 70
     1
  9
$CLAYER
  8
0
  9
$PDMODE
 70
     0
  9
$SPLFRAME
 70
     0
  9
$SPLINETYPE
 70
     6
  9
$SPLINESEGS
 70
     8
  9
$DIMASZ
 40
2.000000
  9
$DIMEXE
 40
1.500000
  9
$DIMEXO
 40
0.800000
  9
$DIMTAD
 70
     1
  9
$DIMTIH
 70
     0
  9
$DIMTOH
 70
     0
  9
$DIMTVP
 40
0.500000
  9
$DIMTXT
 40
3.100000
  9
$EXTMIN
 10
0.000000
 20
0.000000
 30
0.000000
  9
$EXTMAX
 10
297.000000
 20
420.000000
 30
0.000000
  9
$MEASUREMENT
 70
  1
  9
$LIMMIN
 10
0.000000
 20
0.000000
  9
$LIMMAX
 10
297.000000
 20
420.000000
  9
$HANDLING
 70
     1
  9
$HANDSEED
  5
286
  9
$DIMBLK
  1
_OPEN
  9
$DIMDEC
 70
     2
  9
$DIMAUNIT
 70
     0
  9
$DIMZIN
 70
     8
  9
$DIMTOFL
 70
     1
  0
ENDSEC
  0
SECTION
  2
CLASSES
  0
ENDSEC
  0
SECTION
  2
TABLES
  0
TABLE
  2
VPORT
  5
255
100
AcDbSymbolTable
 70
     1
  0
VPORT
  5
256
100
AcDbSymbolTableRecord
100
AcDbViewportTableRecord
  2
*ACTIVE
 70
     0
 12
914.434553
 22
87.993440
 40
139.986878
 41
12.953641
  0
ENDTAB
  0
TABLE
  2
LTYPE
  5
257
100
AcDbSymbolTable
 70
     3
  0
LTYPE
  5
258
100
AcDbSymbolTableRecord
100
AcDbLinetypeTableRecord
  2
BYBLOCK
 70
     0
  3

 72
    65
 73
     0
 40
0.0
  0
LTYPE
  5
259
100
AcDbSymbolTableRecord
100
AcDbLinetypeTableRecord
  2
BYLAYER
 70
     0
  3

 72
    65
 73
     0
 40
0.0
  0
LTYPE
  5
25A
100
AcDbSymbolTableRecord
100
AcDbLinetypeTableRecord
  2
CONTINUOUS
 70
     0
  3
Solid line (NEC CAE2D for Win R18.0 : 2025.01.31)
 72
    65
 73
     0
 40
0.0
  0
LTYPE
  5
25B
100
AcDbSymbolTableRecord
100
AcDbLinetypeTableRecord
  2
DASHED
 70
     0
  3
__ __ __ __ __ __ __ __ __ __ __ __ __ _
 72
    65
 73
     2
 40
0.75
 49
0.5
 74
     0
 49
-0.25
 74
     0
  0
LTYPE
  5
25C
100
AcDbSymbolTableRecord
100
AcDbLinetypeTableRecord
  2
CENTER
 70
     0
  3
____ _ ____ _ ____ _ ____ _ ____ _ ____
 72
    65
 73
     4
 40
2.0
 49
1.25
 74
     0
 49
-0.25
 74
     0
 49
0.25
 74
     0
 49
-0.25
 74
     0
  0
ENDTAB
  0
TABLE
  2
LAYER
  5
25D
100
AcDbSymbolTable
 70
    17
  0
LAYER
  5
25E
100
AcDbSymbolTableRecord
100
AcDbLayerTableRecord
  2
0
 70
     0
 62
     7
  6
CONTINUOUS
  0
LAYER
  5
25F
100
AcDbSymbolTableRecord
100
AcDbLayerTableRecord
  2
A0
 70
     0
 62
     9
  6
CONTINUOUS
  0
LAYER
  5
260
100
AcDbSymbolTableRecord
100
AcDbLayerTableRecord
  2
A1
 70
     0
 62
    12
  6
CONTINUOUS
  0
LAYER
  5
261
100
AcDbSymbolTableRecord
100
AcDbLayerTableRecord
  2
A2
 70
     0
 62
     9
  6
CONTINUOUS
  0
LAYER
  5
262
100
AcDbSymbolTableRecord
100
AcDbLayerTableRecord
  2
A3
 70
     0
 62
    12
  6
CONTINUOUS
  0
LAYER
  5
263
100
AcDbSymbolTableRecord
100
AcDbLayerTableRecord
  2
A4
 70
     0
 62
     9
  6
CONTINUOUS
  0
LAYER
  5
264
100
AcDbSymbolTableRecord
100
AcDbLayerTableRecord
  2
A5
 70
     0
 62
     8
  6
CONTINUOUS
  0
LAYER
  5
265
100
AcDbSymbolTableRecord
100
AcDbLayerTableRecord
  2
A6
 70
     0
 62
    12
  6
CONTINUOUS
  0
LAYER
  5
266
100
AcDbSymbolTableRecord
100
AcDbLayerTableRecord
  2
A7
 70
     0
 62
    12
  6
CONTINUOUS
  0
LAYER
  5
267
100
AcDbSymbolTableRecord
100
AcDbLayerTableRecord
  2
A8
 70
     0
 62
    10
  6
CONTINUOUS
  0
LAYER
  5
268
100
AcDbSymbolTableRecord
100
AcDbLayerTableRecord
  2
A9
 70
     0
 62
     9
  6
CONTINUOUS
  0
LAYER
  5
269
100
AcDbSymbolTableRecord
100
AcDbLayerTableRecord
  2
A10
 70
     0
 62
     6
  6
CONTINUOUS
  0
LAYER
  5
26A
100
AcDbSymbolTableRecord
100
AcDbLayerTableRecord
  2
A20
 70
     0
 62
     1
  6
CONTINUOUS
  0
LAYER
  5
26B
100
AcDbSymbolTableRecord
100
AcDbLayerTableRecord
  2
A30
 70
     0
 62
     1
  6
CONTINUOUS
  0
LAYER
  5
26C
100
AcDbSymbolTableRecord
100
AcDbLayerTableRecord
  2
A40
 70
     0
 62
     9
  6
CONTINUOUS
  0
LAYER
  5
26D
100
AcDbSymbolTableRecord
100
AcDbLayerTableRecord
  2
A50
 70
     0
 62
    12
  6
CONTINUOUS
  0
LAYER
  5
26E
100
AcDbSymbolTableRecord
100
AcDbLayerTableRecord
  2
A1023
 70
     0
 62
    16
  6
CONTINUOUS
  0
ENDTAB
  0
TABLE
  2
STYLE
  5
26F
100
AcDbSymbolTable
 70
     4
  0
STYLE
  5
270
100
AcDbSymbolTableRecord
100
AcDbTextStyleTableRecord
  2
STANDARD
 70
    64
 40
0.0
 41
1.0
 50
0.0
 71
     0
 42
3.000000000000000
  3
TXT
  4

  0
STYLE
  5
271
100
AcDbSymbolTableRecord
100
AcDbTextStyleTableRecord
  2
ANKTATE
 70
    68
 40
0.0
 41
1.0
 50
0.0
 71
     0
 42
3.000000000000000
  3
TXT
  4

  0
STYLE
  5
272
100
AcDbSymbolTableRecord
100
AcDbTextStyleTableRecord
  2
KNJYOKO
 70
    64
 40
0.0
 41
1.0
 50
0.0
 71
     0
 42
3.000000000000000
  3
TXT
  4
BIGFONT
  0
STYLE
  5
273
100
AcDbSymbolTableRecord
100
AcDbTextStyleTableRecord
  2
KNJTATE
 70
    68
 40
0.0
 41
1.0
 50
0.0
 71
     0
 42
3.000000000000000
  3
TXT
  4
BIGFONT
  0
ENDTAB
  0
TABLE
  2
VIEW
  5
274
100
AcDbSymbolTable
 70
     0
  0
ENDTAB
  0
TABLE
  2
UCS
  5
275
100
AcDbSymbolTable
 70
     0
  0
ENDTAB
  0
TABLE
  2
APPID
  5
276
100
AcDbSymbolTable
 70
     1
  0
APPID
  5
277
100
AcDbSymbolTableRecord
100
AcDbRegAppTableRecord
  2
ACAD
 70
     0
  0
ENDTAB
  0
TABLE
  2
DIMSTYLE
  5
278
100
AcDbSymbolTable
 70
     2
  0
DIMSTYLE
105
279
100
AcDbSymbolTableRecord
100
AcDbDimStyleTableRecord
  2
STANDARD
 70
     0
 41
2.000000
 44
1.500000
 42
0.800000
145
0.661290
140
3.100000
144
1.000000
146
0.645161
340
270
  0
DIMSTYLE
105
27A
100
AcDbSymbolTableRecord
100
AcDbDimStyleTableRecord
  2
A001
 70
     0
 41
2.000000
 44
1.500000
 42
0.800000
145
0.661290
140
3.100000
144
1.000000
146
0.645161
 77
     1
 73
     0
 74
     0
271
     2
275
     0
 78
     8
172
     1
340
270
  0
ENDTAB
  0
TABLE
  2
BLOCK_RECORD
  5
27B
100
AcDbSymbolTable
 70
    12
  0
BLOCK_RECORD
  5
27C
100
AcDbSymbolTableRecord
100
AcDbBlockTableRecord
  2
*MODEL_SPACE
  0
BLOCK_RECORD
  5
27D
100
AcDbSymbolTableRecord
100
AcDbBlockTableRecord
  2
*PAPER_SPACE
  0
BLOCK_RECORD
  5
1
100
AcDbSymbolTableRecord
100
AcDbBlockTableRecord
  2
_NONE
  0
BLOCK_RECORD
  5
4
100
AcDbSymbolTableRecord
100
AcDbBlockTableRecord
  2
_CLOSED
  0
BLOCK_RECORD
  5
B
100
AcDbSymbolTableRecord
100
AcDbBlockTableRecord
  2
_DOT
  0
BLOCK_RECORD
  5
13
100
AcDbSymbolTableRecord
100
AcDbBlockTableRecord
  2
_OPEN
  0
BLOCK_RECORD
  5
19
100
AcDbSymbolTableRecord
100
AcDbBlockTableRecord
  2
_ORIGIN
  0
BLOCK_RECORD
  5
1E
100
AcDbSymbolTableRecord
100
AcDbBlockTableRecord
  2
_OPEN30
  0
BLOCK_RECORD
  5
24
100
AcDbSymbolTableRecord
100
AcDbBlockTableRecord
  2
_BOXFILLED
  0
BLOCK_RECORD
  5
29
100
AcDbSymbolTableRecord
100
AcDbBlockTableRecord
  2
_BOXBLANK
  0
BLOCK_RECORD
  5
31
100
AcDbSymbolTableRecord
100
AcDbBlockTableRecord
  2
_OBLIQUE
  0
BLOCK_RECORD
  5
35
100
AcDbSymbolTableRecord
100
AcDbBlockTableRecord
  2
_OPEN90
  0
BLOCK_RECORD
  5
3B
100
AcDbSymbolTableRecord
100
AcDbBlockTableRecord
  2
_CLOSEDBLANK
  0
BLOCK_RECORD
  5
41
100
AcDbSymbolTableRecord
100
AcDbBlockTableRecord
  2
_DOTBLANK
  0
ENDTAB
  0
ENDSEC
  0
SECTION
  2
BLOCKS
  0
BLOCK
  5
27E
100
AcDbEntity
  8
0
100
AcDbBlockBegin
  2
*MODEL_SPACE
 70
     0
 10
0.0
 20
0.0
 30
0.0
  3
*MODEL_SPACE
  1

  0
ENDBLK
  5
27F
100
AcDbEntity
  8
0
100
AcDbBlockEnd
  0
BLOCK
  5
280
100
AcDbEntity
  8
0
100
AcDbBlockBegin
  2
*PAPER_SPACE
 70
     0
 10
0.0
 20
0.0
 30
0.0
  3
*PAPER_SPACE
  1

  0
ENDBLK
  5
281
100
AcDbEntity
  8
0
100
AcDbBlockEnd
  0
BLOCK
  5
2
100
AcDbEntity
  8
0
100
AcDbBlockBegin
  2
_NONE
 70
     0
 10
0.0
 20
0.0
 30
0.0
  3
_NONE
  1

  0
ENDBLK
  5
3
100
AcDbEntity
  8
0
100
AcDbBlockEnd
  0
BLOCK
  5
5
100
AcDbEntity
  8
0
100
AcDbBlockBegin
  2
_CLOSED
 70
     0
 10
0.0
 20
0.0
 30
0.0
  3
_CLOSED
  1

  0
LINE
  5
6
100
AcDbEntity
  8
0
  6
BYBLOCK
 62
     0
100
AcDbLine
 10
-1.0
 20
0.166667
 30
0.0
 11
0.0
 21
0.0
 31
0.0
  0
LINE
  5
7
100
AcDbEntity
  8
0
  6
BYBLOCK
 62
     0
100
AcDbLine
 10
0.0
 20
0.0
 30
0.0
 11
-1.0
 21
-0.166667
 31
0.0
  0
LINE
  5
8
100
AcDbEntity
  8
0
  6
BYBLOCK
 62
     0
100
AcDbLine
 10
-1.0
 20
0.166667
 30
0.0
 11
-1.0
 21
-0.166667
 31
0.0
  0
LINE
  5
9
100
AcDbEntity
  8
0
  6
BYBLOCK
 62
     0
100
AcDbLine
 10
0.0
 20
0.0
 30
0.0
 11
-1.0
 21
0.0
 31
0.0
  0
ENDBLK
  5
A
100
AcDbEntity
  8
0
100
AcDbBlockEnd
  0
BLOCK
  5
C
100
AcDbEntity
  8
0
100
AcDbBlockBegin
  2
_DOT
 70
     0
 10
0.0
 20
0.0
 30
0.0
  3
_DOT
  1

  0
POLYLINE
  5
D
100
AcDbEntity
  8
0
  6
BYBLOCK
 62
     0
100
AcDb2dPolyline
 66
     1
 10
0.0
 20
0.0
 30
0.0
 70
     1
 40
0.5
 41
0.5
  0
VERTEX
  5
E
100
AcDbEntity
  8
0
  6
BYBLOCK
 62
     0
100
AcDbVertex
100
AcDb2dVertex
 10
-0.25
 20
0.0
 30
0.0
 42
1.0
  0
VERTEX
  5
F
100
AcDbEntity
  8
0
  6
BYBLOCK
 62
     0
100
AcDbVertex
100
AcDb2dVertex
 10
0.25
 20
0.0
 30
0.0
 42
1.0
  0
SEQEND
  5
10
100
AcDbEntity
  8
0
  6
BYBLOCK
 62
     0
  0
LINE
  5
11
100
AcDbEntity
  8
0
  6
BYBLOCK
 62
     0
100
AcDbLine
 10
-0.5
 20
0.0
 30
0.0
 11
-1.0
 21
0.0
 31
0.0
  0
ENDBLK
  5
12
100
AcDbEntity
  8
0
100
AcDbBlockEnd
  0
BLOCK
  5
14
100
AcDbEntity
  8
0
100
AcDbBlockBegin
  2
_OPEN
 70
     0
 10
0.0
 20
0.0
 30
0.0
  3
_OPEN
  1

  0
LINE
  5
15
100
AcDbEntity
  8
0
  6
BYBLOCK
 62
     0
100
AcDbLine
 10
-1.0
 20
0.166667
 30
0.0
 11
0.0
 21
0.0
 31
0.0
  0
LINE
  5
16
100
AcDbEntity
  8
0
  6
BYBLOCK
 62
     0
100
AcDbLine
 10
0.0
 20
0.0
 30
0.0
 11
-1.0
 21
-0.166667
 31
0.0
  0
LINE
  5
17
100
AcDbEntity
  8
0
  6
BYBLOCK
 62
     0
100
AcDbLine
 10
0.0
 20
0.0
 30
0.0
 11
-1.0
 21
0.0
 31
0.0
  0
ENDBLK
  5
18
100
AcDbEntity
  8
0
100
AcDbBlockEnd
  0
BLOCK
  5
1A
100
AcDbEntity
  8
0
100
AcDbBlockBegin
  2
_ORIGIN
 70
     0
 10
0.0
 20
0.0
 30
0.0
  3
_ORIGIN
  1

  0
CIRCLE
  5
1B
100
AcDbEntity
  8
0
  6
BYBLOCK
 62
     0
100
AcDbCircle
 10
0.0
 20
0.0
 30
0.0
 40
0.5
  0
LINE
  5
1C
100
AcDbEntity
  8
0
  6
BYBLOCK
 62
     0
100
AcDbLine
 10
0.0
 20
0.0
 30
0.0
 11
-1.0
 21
0.0
 31
0.0
  0
ENDBLK
  5
1D
100
AcDbEntity
  8
0
100
AcDbBlockEnd
  0
BLOCK
  5
1F
100
AcDbEntity
  8
0
100
AcDbBlockBegin
  2
_OPEN30
 70
     0
 10
0.0
 20
0.0
 30
0.0
  3
_OPEN30
  1

  0
LINE
  5
20
100
AcDbEntity
  8
0
  6
BYBLOCK
 62
     0
100
AcDbLine
 10
-1.0
 20
0.267949
 30
0.0
 11
0.0
 21
0.0
 31
0.0
  0
LINE
  5
21
100
AcDbEntity
  8
0
  6
BYBLOCK
 62
     0
100
AcDbLine
 10
0.0
 20
0.0
 30
0.0
 11
-1.0
 21
-0.267949
 31
0.0
  0
LINE
  5
22
100
AcDbEntity
  8
0
  6
BYBLOCK
 62
     0
100
AcDbLine
 10
0.0
 20
0.0
 30
0.0
 11
-1.0
 21
0.0
 31
0.0
  0
ENDBLK
  5
23
100
AcDbEntity
  8
0
100
AcDbBlockEnd
  0
BLOCK
  5
25
100
AcDbEntity
  8
0
100
AcDbBlockBegin
  2
_BOXFILLED
 70
     0
 10
0.0
 20
0.0
 30
0.0
  3
_BOXFILLED
  1

  0
SOLID
  5
26
100
AcDbEntity
  8
0
  6
BYBLOCK
 62
     0
100
AcDbTrace
 10
-0.5
 20
0.5
 30
0.0
 11
0.5
 21
0.5
 31
0.0
 12
-0.5
 22
-0.5
 32
0.0
 13
0.5
 23
-0.5
 33
0.0
  0
LINE
  5
27
100
AcDbEntity
  8
0
  6
BYBLOCK
 62
     0
100
AcDbLine
 10
-0.5
 20
0.0
 30
0.0
 11
-1.0
 21
0.0
 31
0.0
  0
ENDBLK
  5
28
100
AcDbEntity
  8
0
100
AcDbBlockEnd
  0
BLOCK
  5
2A
100
AcDbEntity
  8
0
100
AcDbBlockBegin
  2
_BOXBLANK
 70
     0
 10
0.0
 20
0.0
 30
0.0
  3
_BOXBLANK
  1

  0
LINE
  5
2B
100
AcDbEntity
  8
0
  6
BYBLOCK
 62
     0
100
AcDbLine
 10
-0.5
 20
-0.5
 30
0.0
 11
0.5
 21
-0.5
 31
0.0
  0
LINE
  5
2C
100
AcDbEntity
  8
0
  6
BYBLOCK
 62
     0
100
AcDbLine
 10
0.5
 20
-0.5
 30
0.0
 11
0.5
 21
0.5
 31
0.0
  0
LINE
  5
2D
100
AcDbEntity
  8
0
  6
BYBLOCK
 62
     0
100
AcDbLine
 10
0.5
 20
0.5
 30
0.0
 11
-0.5
 21
0.5
 31
0.0
  0
LINE
  5
2E
100
AcDbEntity
  8
0
  6
BYBLOCK
 62
     0
100
AcDbLine
 10
-0.5
 20
0.5
 30
0.0
 11
-0.5
 21
-0.5
 31
0.0
  0
LINE
  5
2F
100
AcDbEntity
  8
0
  6
BYBLOCK
 62
     0
100
AcDbLine
 10
-0.5
 20
0.0
 30
0.0
 11
-1.0
 21
0.0
 31
0.0
  0
ENDBLK
  5
30
100
AcDbEntity
  8
0
100
AcDbBlockEnd
  0
BLOCK
  5
32
100
AcDbEntity
  8
0
100
AcDbBlockBegin
  2
_OBLIQUE
 70
     0
 10
0.0
 20
0.0
 30
0.0
  3
_OBLIQUE
  1

  0
LINE
  5
33
100
AcDbEntity
  8
0
  6
BYBLOCK
 62
     0
100
AcDbLine
 10
-0.5
 20
-0.5
 30
0.0
 11
0.5
 21
0.5
 31
0.0
  0
ENDBLK
  5
34
100
AcDbEntity
  8
0
100
AcDbBlockEnd
  0
BLOCK
  5
36
100
AcDbEntity
  8
0
100
AcDbBlockBegin
  2
_OPEN90
 70
     0
 10
0.0
 20
0.0
 30
0.0
  3
_OPEN90
  1

  0
LINE
  5
37
100
AcDbEntity
  8
0
  6
BYBLOCK
 62
     0
100
AcDbLine
 10
-0.5
 20
0.5
 30
0.0
 11
0.0
 21
0.0
 31
0.0
  0
LINE
  5
38
100
AcDbEntity
  8
0
  6
BYBLOCK
 62
     0
100
AcDbLine
 10
0.0
 20
0.0
 30
0.0
 11
-0.5
 21
-0.5
 31
0.0
  0
LINE
  5
39
100
AcDbEntity
  8
0
  6
BYBLOCK
 62
     0
100
AcDbLine
 10
0.0
 20
0.0
 30
0.0
 11
-1.0
 21
0.0
 31
0.0
  0
ENDBLK
  5
3A
100
AcDbEntity
  8
0
100
AcDbBlockEnd
  0
BLOCK
  5
3C
100
AcDbEntity
  8
0
100
AcDbBlockBegin
  2
_CLOSEDBLANK
 70
     0
 10
0.0
 20
0.0
 30
0.0
  3
_CLOSEDBLANK
  1

  0
LINE
  5
3D
100
AcDbEntity
  8
0
  6
BYBLOCK
 62
     0
100
AcDbLine
 10
-1.0
 20
0.1666666666666666
 30
0.0
 11
0.0
 21
0.0
 31
0.0
  0
LINE
  5
3E
100
AcDbEntity
  8
0
  6
BYBLOCK
 62
     0
100
AcDbLine
 10
0.0
 20
0.0
 30
0.0
 11
-1.0
 21
-0.1666666666666666
 31
0.0
  0
LINE
  5
3F
100
AcDbEntity
  8
0
  6
BYBLOCK
 62
     0
100
AcDbLine
 10
-1.0
 20
0.1666666666666666
 30
0.0
 11
-1.0
 21
-0.1666666666666666
 31
0.0
  0
ENDBLK
  5
40
100
AcDbEntity
  8
0
100
AcDbBlockEnd
  0
BLOCK
  5
42
100
AcDbEntity
  8
0
100
AcDbBlockBegin
  2
_DOTBLANK
 70
     0
 10
0.0
 20
0.0
 30
0.0
  3
_DOTBLANK
  1

  0
CIRCLE
  5
43
100
AcDbEntity
  8
0
  6
BYBLOCK
 62
     0
100
AcDbCircle
 10
0.0
 20
0.0
 30
0.0
 40
0.5
  0
LINE
  5
44
100
AcDbEntity
  8
0
  6
BYBLOCK
 62
     0
100
AcDbLine
 10
-0.5
 20
0.0
 30
0.0
 11
-1.0
 21
0.0
 31
0.0
  0
ENDBLK
  5
45
100
AcDbEntity
  8
0
100
AcDbBlockEnd
  0
ENDSEC
  0
SECTION
  2
ENTITIES
  0
MTEXT
  5
46
100
AcDbEntity
  8
A7
  6
CONTINUOUS
 62
3
100
AcDbMText
 10
9.999997526638502
 20
18.00000076076889
 30
0.000000000000000
 40
3.000000000000000
 41
0.000000000000000
 71
     7
 72
     1
  1
{\H0.94x;{TYPE No.TM-377-34}}
 11
1.000000000000000
 21
0.000000000000000
 31
0.000000000000000
  7
STANDARD
  0
POINT
  5
47
100
AcDbEntity
  8
A10
  6
CONTINUOUS
 62
3
100
AcDbPoint
 10
9.999997526638502
 20
18.00000076076889
 30
0.000000000000000
  0
POINT
  5
48
100
AcDbEntity
  8
A10
  6
CONTINUOUS
 62
3
100
AcDbPoint
 10
50.00000000000000
 20
50.00000000000000
 30
0.000000000000000
  0
LINE
  5
49
100
AcDbEntity
  8
A1
  6
CONTINUOUS
 62
7
100
AcDbLine
 10
1772.599999999991
 20
103.6999999999975
 30
0.000000000000000
 11
908.9999999999947
 21
103.7000000000007
 31
0.000000000000000
  0
LINE
  5
4A
100
AcDbEntity
  8
A1
  6
CONTINUOUS
 62
7
100
AcDbLine
 10
1772.489058626647
 20
99.29999999999927
 30
0.000000000000000
 11
908.9999999999909
 21
99.29999999999927
 31
0.000000000000000
  0
LINE
  5
4B
100
AcDbEntity
  8
A1
  6
CONTINUOUS
 62
7
100
AcDbLine
 10
908.9999999999909
 20
103.7000000000007
 30
0.000000000000000
 11
908.9999999999909
 21
95.25000000000000
 31
0.000000000000000
  0
LINE
  5
4C
100
AcDbEntity
  8
A1
  6
CONTINUOUS
 62
7
100
AcDbLine
 10
1770.100000000004
 20
43.79999999999927
 30
0.000000000000000
 11
1772.599999999993
 21
43.79999999999927
 31
0.000000000000000
  0
LINE
  5
4D
100
AcDbEntity
  8
A1
  6
CONTINUOUS
 62
7
100
AcDbLine
 10
1770.100000000004
 20
93.79999999999927
 30
0.000000000000000
 11
1772.599999999993
 21
93.79999999999927
 31
0.000000000000000
  0
LINE
  5
4E
100
AcDbEntity
  8
A1
  6
CONTINUOUS
 62
7
100
AcDbLine
 10
1770.685786437634
 20
97.21421356237113
 30
0.000000000000000
 11
1772.014213562375
 21
98.54264068711245
 31
0.000000000000000
  0
ARC
  5
4F
100
AcDbEntity
  8
A1
  6
CONTINUOUS
 62
7
100
AcDbCircle
 10
1770.599999999993
 20
99.95685424948715
 30
0.000000000000000
 40
2.000000000000000
100
AcDbArc
 50
315.0000000000000
 51
360.0000000000000
  0
LINE
  5
50
100
AcDbEntity
  8
A1
  6
CONTINUOUS
 62
7
100
AcDbLine
 10
1772.599999999993
 20
103.6999999999971
 30
0.000000000000000
 11
1772.599999999993
 21
99.95685424948715
 31
0.000000000000000
  0
LINE
  5
51
100
AcDbEntity
  8
A1
  6
CONTINUOUS
 62
7
100
AcDbLine
 10
1772.599999999993
 20
93.79999999999927
 30
0.000000000000000
 11
1772.599999999993
 21
43.79999999999927
 31
0.000000000000000
  0
LINE
  5
52
100
AcDbEntity
  8
A1
  6
CONTINUOUS
 62
7
100
AcDbLine
 10
1772.599999999993
 20
37.64314575051321
 30
0.000000000000000
 11
1772.599999999993
 21
33.90000000000146
 31
0.000000000000000
  0
LINE
  5
53
100
AcDbEntity
  8
A1
  6
CONTINUOUS
 62
7
100
AcDbLine
 10
1770.100000000004
 20
93.79999999999927
 30
0.000000000000000
 11
1770.100000000004
 21
43.79999999999927
 31
0.000000000000000
  0
ARC
  5
54
100
AcDbEntity
  8
A1
  6
CONTINUOUS
 62
7
100
AcDbCircle
 10
1772.100000000004
 20
95.79999999999927
 30
0.000000000000000
 40
2.000000000000000
100
AcDbArc
 50
135.0000000000000
 51
270.0000000000000
  0
LINE
  5
55
100
AcDbEntity
  8
A1
  6
CONTINUOUS
 62
7
100
AcDbLine
 10
1770.685786437635
 20
40.38578643762526
 30
0.000000000000000
 11
1772.014213562373
 21
39.05735931288473
 31
0.000000000000000
  0
ARC
  5
56
100
AcDbEntity
  8
A1
  6
CONTINUOUS
 62
7
100
AcDbCircle
 10
1770.599999999993
 20
37.64314575051321
 30
0.000000000000000
 40
2.000000000000000
100
AcDbArc
 50
0.000000000000000
 51
45.00000000000000
  0
ARC
  5
57
100
AcDbEntity
  8
A1
  6
CONTINUOUS
 62
7
100
AcDbCircle
 10
1772.100000000004
 20
41.80000000000109
 30
0.000000000000000
 40
2.000000000000000
100
AcDbArc
 50
90.00000000000000
 51
225.0000000000000
  0
CIRCLE
  5
58
100
AcDbEntity
  8
A1
  6
CONTINUOUS
 62
7
100
AcDbCircle
 10
921.6999999999935
 20
68.80000000000109
 30
0.000000000000000
 40
2.600000000000000
  0
CIRCLE
  5
59
100
AcDbEntity
  8
A1
  6
CONTINUOUS
 62
7
100
AcDbCircle
 10
940.7999999999920
 20
68.80000000000109
 30
0.000000000000000
 40
3.299999999999999
  0
CIRCLE
  5
5A
100
AcDbEntity
  8
A3
  6
DASHED
 62
2
100
AcDbCircle
 10
997.8999999999942
 20
68.80000000000109
 30
0.000000000000000
 40
3.299999999999999
  0
LINE
  5
5B
100
AcDbEntity
  8
A3
  6
DASHED
 62
2
100
AcDbLine
 10
966.1499999999942
 20
65.50000000000182
 30
0.000000000000000
 11
960.0499999999920
 21
65.50000000000182
 31
0.000000000000000
  0
ARC
  5
5C
100
AcDbEntity
  8
A3
  6
DASHED
 62
2
100
AcDbCircle
 10
966.1499999999942
 20
68.80000000000109
 30
0.000000000000000
 40
3.299999999999999
100
AcDbArc
 50
270.0000000000000
 51
450.0000000000000
  0
ARC
  5
5D
100
AcDbEntity
  8
A3
  6
DASHED
 62
2
100
AcDbCircle
 10
960.0499999999920
 20
68.80000000000109
 30
0.000000000000000
 40
3.299999999999999
100
AcDbArc
 50
90.00000000000000
 51
270.0000000000000
  0
LINE
  5
5E
100
AcDbEntity
  8
A3
  6
DASHED
 62
2
100
AcDbLine
 10
966.1499999999942
 20
72.10000000000036
 30
0.000000000000000
 11
960.0499999999920
 21
72.10000000000036
 31
0.000000000000000
  0
LINE
  5
5F
100
AcDbEntity
  8
A1
  6
CONTINUOUS
 62
7
100
AcDbLine
 10
927.8499999999931
 20
65.45000000000255
 30
0.000000000000000
 11
927.8499999999931
 21
72.15000000000146
 31
0.000000000000000
  0
LINE
  5
60
100
AcDbEntity
  8
A1
  6
CONTINUOUS
 62
7
100
AcDbLine
 10
934.5499999999920
 20
65.45000000000255
 30
0.000000000000000
 11
934.5499999999920
 21
72.15000000000146
 31
0.000000000000000
  0
LINE
  5
61
100
AcDbEntity
  8
A1
  6
CONTINUOUS
 62
7
100
AcDbLine
 10
927.8499999999931
 20
65.45000000000255
 30
0.000000000000000
 11
934.5499999999920
 21
65.45000000000255
 31
0.000000000000000
  0
LINE
  5
62
100
AcDbEntity
  8
A1
  6
CONTINUOUS
 62
7
100
AcDbLine
 10
927.8499999999931
 20
72.15000000000146
 30
0.000000000000000
 11
934.5499999999920
 21
72.15000000000146
 31
0.000000000000000
  0
LINE
  5
63
100
AcDbEntity
  8
A3
  6
DASHED
 62
2
100
AcDbLine
 10
950.3999999999943
 20
65.12304473783314
 30
0.000000000000000
 11
948.5812096262368
 21
66.94183511159071
 31
0.000000000000000
  0
LINE
  5
64
100
AcDbEntity
  8
A3
  6
DASHED
 62
2
100
AcDbLine
 10
954.0769552621666
 20
68.79999999999995
 30
0.000000000000000
 11
950.3999999999962
 21
72.47695526217075
 31
0.000000000000000
  0
LINE
  5
65
100
AcDbEntity
  8
A3
  6
DASHED
 62
2
100
AcDbLine
 10
948.5812096262366
 20
70.65816488841568
 30
0.000000000000000
 11
950.3999999999940
 21
72.47695526217319
 31
0.000000000000000
  0
LINE
  5
66
100
AcDbEntity
  8
A3
  6
DASHED
 62
2
100
AcDbLine
 10
950.3999999999930
 20
65.12304473783155
 30
0.000000000000000
 11
954.0769552621641
 21
68.80000000000166
 31
0.000000000000000
  0
CIRCLE
  5
67
100
AcDbEntity
  8
A3
  6
DASHED
 62
2
100
AcDbCircle
 10
985.1999999999935
 20
68.80000000000109
 30
0.000000000000000
 40
2.600000000000000
  0
CIRCLE
  5
68
100
AcDbEntity
  8
A1
  6
CONTINUOUS
 62
7
100
AcDbCircle
 10
1156.599999999991
 20
68.79999999999927
 30
0.000000000000000
 40
3.299999999999999
  0
CIRCLE
  5
69
100
AcDbEntity
  8
A1
  6
CONTINUOUS
 62
7
100
AcDbCircle
 10
1143.899999999992
 20
68.79999999999927
 30
0.000000000000000
 40
2.600000000000000
  0
LINE
  5
6A
100
AcDbEntity
  8
A1
  6
CONTINUOUS
 62
7
100
AcDbLine
 10
1169.299999999992
 20
65.12304473783104
 30
0.000000000000000
 11
1165.623044737824
 21
68.79999999999905
 31
0.000000000000000
  0
LINE
  5
6B
100
AcDbEntity
  8
A1
  6
CONTINUOUS
 62
7
100
AcDbLine
 10
1171.931378813988
 20
69.84557644817687
 30
0.000000000000000
 11
1169.299999999994
 21
72.47695526217092
 31
0.000000000000000
  0
LINE
  5
6C
100
AcDbEntity
  8
A1
  6
CONTINUOUS
 62
7
100
AcDbLine
 10
1165.623044737822
 20
68.79999999999870
 30
0.000000000000000
 11
1169.299999999992
 21
72.47695526216933
 31
0.000000000000000
  0
LINE
  5
6D
100
AcDbEntity
  8
A1
  6
CONTINUOUS
 62
7
100
AcDbLine
 10
1169.299999999993
 20
65.12304473782444
 30
0.000000000000000
 11
1171.931378813989
 21
67.75442355181951
 31
0.000000000000000
  0
LINE
  5
6E
100
AcDbEntity
  8
A3
  6
DASHED
 62
2
100
AcDbLine
 10
1178.649999999991
 20
65.44999999999891
 30
0.000000000000000
 11
1178.649999999991
 21
72.14999999999964
 31
0.000000000000000
  0
LINE
  5
6F
100
AcDbEntity
  8
A3
  6
DASHED
 62
2
100
AcDbLine
 10
1185.349999999991
 20
65.45000000000073
 30
0.000000000000000
 11
1185.349999999991
 21
72.14999999999964
 31
0.000000000000000
  0
LINE
  5
70
100
AcDbEntity
  8
A3
  6
DASHED
 62
2
100
AcDbLine
 10
1178.649999999991
 20
65.45000000000032
 30
0.000000000000000
 11
1185.349999999992
 21
65.45000000000122
 31
0.000000000000000
  0
LINE
  5
71
100
AcDbEntity
  8
A3
  6
DASHED
 62
2
100
AcDbLine
 10
1178.649999999991
 20
72.14999999999964
 30
0.000000000000000
 11
1185.349999999991
 21
72.14999999999964
 31
0.000000000000000
  0
CIRCLE
  5
72
100
AcDbEntity
  8
A1
  6
CONTINUOUS
 62
7
100
AcDbCircle
 10
1524.999999999993
 20
68.79999999999927
 30
0.000000000000000
 40
3.299999999999999
  0
CIRCLE
  5
73
100
AcDbEntity
  8
A1
  6
CONTINUOUS
 62
7
100
AcDbCircle
 10
1512.299999999994
 20
68.79999999999927
 30
0.000000000000000
 40
2.600000000000000
  0
LINE
  5
74
100
AcDbEntity
  8
A1
  6
CONTINUOUS
 62
7
100
AcDbLine
 10
1537.699999999988
 20
65.12304473783161
 30
0.000000000000000
 11
1534.023044737821
 21
68.79999999999961
 31
0.000000000000000
  0
LINE
  5
75
100
AcDbEntity
  8
A1
  6
CONTINUOUS
 62
7
100
AcDbLine
 10
1541.376955262162
 20
68.79999999999939
 30
0.000000000000000
 11
1537.699999999991
 21
72.47695526217001
 31
0.000000000000000
  0
LINE
  5
76
100
AcDbEntity
  8
A1
  6
CONTINUOUS
 62
7
100
AcDbLine
 10
1534.023044737821
 20
68.79999999999859
 30
0.000000000000000
 11
1537.699999999992
 21
72.47695526216921
 31
0.000000000000000
  0
LINE
  5
77
100
AcDbEntity
  8
A1
  6
CONTINUOUS
 62
7
100
AcDbLine
 10
1537.699999999993
 20
65.12304473782967
 30
0.000000000000000
 11
1541.376955262161
 21
68.79999999999723
 31
0.000000000000000
  0
LINE
  5
78
100
AcDbEntity
  8
A1
  6
CONTINUOUS
 62
7
100
AcDbLine
 10
1547.049999999992
 20
65.44999999999891
 30
0.000000000000000
 11
1547.049999999992
 21
72.14999999999964
 31
0.000000000000000
  0
LINE
  5
79
100
AcDbEntity
  8
A1
  6
CONTINUOUS
 62
7
100
AcDbLine
 10
1553.749999999993
 20
65.45000000000073
 30
0.000000000000000
 11
1553.749999999993
 21
72.14999999999964
 31
0.000000000000000
  0
LINE
  5
7A
100
AcDbEntity
  8
A1
  6
CONTINUOUS
 62
7
100
AcDbLine
 10
1547.049999999991
 20
65.44999999999939
 30
0.000000000000000
 11
1553.749999999992
 21
65.45000000000030
 31
0.000000000000000
  0
LINE
  5
7B
100
AcDbEntity
  8
A1
  6
CONTINUOUS
 62
7
100
AcDbLine
 10
1547.049999999992
 20
72.14999999999964
 30
0.000000000000000
 11
1553.749999999993
 21
72.14999999999964
 31
0.000000000000000
  0
LINE
  5
7C
100
AcDbEntity
  8
A1
  6
CONTINUOUS
 62
7
100
AcDbLine
 10
1686.749999999993
 20
65.50000000000000
 30
0.000000000000000
 11
1680.649999999992
 21
65.50000000000000
 31
0.000000000000000
  0
ARC
  5
7D
100
AcDbEntity
  8
A1
  6
CONTINUOUS
 62
7
100
AcDbCircle
 10
1686.749999999993
 20
68.79999999999927
 30
0.000000000000000
 40
3.299999999999999
100
AcDbArc
 50
270.0000000000000
 51
450.0000000000000
  0
ARC
  5
7E
100
AcDbEntity
  8
A1
  6
CONTINUOUS
 62
7
100
AcDbCircle
 10
1680.649999999992
 20
68.79999999999927
 30
0.000000000000000
 40
3.299999999999999
100
AcDbArc
 50
90.00000000000000
 51
270.0000000000000
  0
LINE
  5
7F
100
AcDbEntity
  8
A1
  6
CONTINUOUS
 62
7
100
AcDbLine
 10
1686.749999999993
 20
72.09999999999854
 30
0.000000000000000
 11
1680.649999999992
 21
72.09999999999854
 31
0.000000000000000
  0
LINE
  5
80
100
AcDbEntity
  8
A1
  6
CONTINUOUS
 62
7
100
AcDbLine
 10
1669.949999999993
 20
66.19999999999891
 30
0.000000000000000
 11
1665.649999999994
 21
66.19999999999891
 31
0.000000000000000
  0
ARC
  5
81
100
AcDbEntity
  8
A1
  6
CONTINUOUS
 62
7
100
AcDbCircle
 10
1669.949999999993
 20
68.79999999999927
 30
0.000000000000000
 40
2.600000000000000
100
AcDbArc
 50
270.0000000000000
 51
450.0000000000000
  0
ARC
  5
82
100
AcDbEntity
  8
A1
  6
CONTINUOUS
 62
7
100
AcDbCircle
 10
1665.649999999994
 20
68.79999999999927
 30
0.000000000000000
 40
2.600000000000000
100
AcDbArc
 50
90.00000000000000
 51
270.0000000000000
  0
LINE
  5
83
100
AcDbEntity
  8
A1
  6
CONTINUOUS
 62
7
100
AcDbLine
 10
1669.949999999993
 20
71.39999999999964
 30
0.000000000000000
 11
1665.649999999994
 21
71.39999999999964
 31
0.000000000000000
  0
CIRCLE
  5
84
100
AcDbEntity
  8
A1
  6
CONTINUOUS
 62
7
100
AcDbCircle
 10
1740.899999999992
 20
68.79999999999927
 30
0.000000000000000
 40
3.299999999999999
  0
CIRCLE
  5
85
100
AcDbEntity
  8
A1
  6
CONTINUOUS
 62
7
100
AcDbCircle
 10
1712.299999999992
 20
68.79999999999927
 30
0.000000000000000
 40
3.299999999999999
  0
CIRCLE
  5
86
100
AcDbEntity
  8
A1
  6
CONTINUOUS
 62
7
100
AcDbCircle
 10
1699.599999999993
 20
68.79999999999927
 30
0.000000000000000
 40
2.600000000000000
  0
LINE
  5
87
100
AcDbEntity
  8
A1
  6
CONTINUOUS
 62
7
100
AcDbLine
 10
1657.599999999994
 20
65.12304473782933
 30
0.000000000000000
 11
1653.923044737824
 21
68.79999999999995
 31
0.000000000000000
  0
LINE
  5
88
100
AcDbEntity
  8
A1
  6
CONTINUOUS
 62
7
100
AcDbLine
 10
1661.276955262163
 20
68.79999999999791
 30
0.000000000000000
 11
1657.599999999992
 21
72.47695526216842
 31
0.000000000000000
  0
LINE
  5
89
100
AcDbEntity
  8
A1
  6
CONTINUOUS
 62
7
100
AcDbLine
 10
1653.923044737824
 20
68.79999999999768
 30
0.000000000000000
 11
1657.599999999994
 21
72.47695526216830
 31
0.000000000000000
  0
LINE
  5
8A
100
AcDbEntity
  8
A1
  6
CONTINUOUS
 62
7
100
AcDbLine
 10
1657.599999999995
 20
65.12304473783036
 30
0.000000000000000
 11
1661.276955262164
 21
68.79999999999973
 31
0.000000000000000
  0
LINE
  5
8B
100
AcDbEntity
  8
A1
  6
CONTINUOUS
 62
7
100
AcDbLine
 10
1724.849999999993
 20
65.45000000000073
 30
0.000000000000000
 11
1724.849999999993
 21
72.14999999999964
 31
0.000000000000000
  0
LINE
  5
8C
100
AcDbEntity
  8
A1
  6
CONTINUOUS
 62
7
100
AcDbLine
 10
1731.549999999994
 20
65.45000000000073
 30
0.000000000000000
 11
1731.549999999994
 21
72.14999999999964
 31
0.000000000000000
  0
LINE
  5
8D
100
AcDbEntity
  8
A1
  6
CONTINUOUS
 62
7
100
AcDbLine
 10
1724.849999999994
 20
65.44999999999987
 30
0.000000000000000
 11
1731.549999999991
 21
65.45000000000078
 31
0.000000000000000
  0
LINE
  5
8E
100
AcDbEntity
  8
A1
  6
CONTINUOUS
 62
7
100
AcDbLine
 10
1724.849999999993
 20
72.14999999999964
 30
0.000000000000000
 11
1731.549999999994
 21
72.14999999999964
 31
0.000000000000000
  0
CIRCLE
  5
8F
100
AcDbEntity
  8
A1
  6
CONTINUOUS
 62
7
100
AcDbCircle
 10
1340.799999999992
 20
68.79999999999927
 30
0.000000000000000
 40
3.299999999999999
  0
ARC
  5
90
100
AcDbEntity
  8
A1
  6
CONTINUOUS
 62
7
100
AcDbCircle
 10
1328.099999999991
 20
68.79999999999927
 30
0.000000000000000
 40
2.600000000000000
100
AcDbArc
 50
249.7477532578636
 51
470.2522467421364
  0
LINE
  5
91
100
AcDbEntity
  8
A1
  6
CONTINUOUS
 62
7
100
AcDbLine
 10
1353.499999999990
 20
65.12304473782956
 30
0.000000000000000
 11
1349.823044737820
 21
68.80000000000007
 31
0.000000000000000
  0
LINE
  5
92
100
AcDbEntity
  8
A1
  6
CONTINUOUS
 62
7
100
AcDbLine
 10
1357.176955262161
 20
68.79999999999961
 30
0.000000000000000
 11
1353.499999999992
 21
72.47695526216899
 31
0.000000000000000
  0
LINE
  5
93
100
AcDbEntity
  8
A1
  6
CONTINUOUS
 62
7
100
AcDbLine
 10
1349.823044737821
 20
68.79999999999859
 30
0.000000000000000
 11
1353.499999999991
 21
72.47695526216921
 31
0.000000000000000
  0
LINE
  5
94
100
AcDbEntity
  8
A1
  6
CONTINUOUS
 62
7
100
AcDbLine
 10
1353.499999999991
 20
65.12304473782751
 30
0.000000000000000
 11
1357.176955262162
 21
68.79999999999757
 31
0.000000000000000
  0
LINE
  5
95
100
AcDbEntity
  8
A1
  6
CONTINUOUS
 62
7
100
AcDbLine
 10
1362.849999999991
 20
65.44999999999891
 30
0.000000000000000
 11
1362.849999999991
 21
72.14999999999964
 31
0.000000000000000
  0
LINE
  5
96
100
AcDbEntity
  8
A1
  6
CONTINUOUS
 62
7
100
AcDbLine
 10
1369.549999999992
 20
65.45000000000073
 30
0.000000000000000
 11
1369.549999999992
 21
72.14999999999964
 31
0.000000000000000
  0
LINE
  5
97
100
AcDbEntity
  8
A1
  6
CONTINUOUS
 62
7
100
AcDbLine
 10
1362.849999999992
 20
65.44999999999985
 30
0.000000000000000
 11
1369.549999999992
 21
65.45000000000076
 31
0.000000000000000
  0
LINE
  5
98
100
AcDbEntity
  8
A1
  6
CONTINUOUS
 62
7
100
AcDbLine
 10
1362.849999999991
 20
72.14999999999964
 30
0.000000000000000
 11
1369.549999999992
 21
72.14999999999964
 31
0.000000000000000
  0
LINE
  5
99
100
AcDbEntity
  8
A1
  6
CONTINUOUS
 62
7
100
AcDbLine
 10
1324.199999999993
 20
56.58589838486660
 30
0.000000000000000
 11
1324.199999999993
 21
42.35000000000036
 31
0.000000000000000
  0
LINE
  5
9A
100
AcDbEntity
  8
A1
  6
CONTINUOUS
 62
7
100
AcDbLine
 10
1324.199999999993
 20
81.01410161513377
 30
0.000000000000000
 11
1324.199999999993
 21
95.25000000000000
 31
0.000000000000000
  0
LINE
  5
9B
100
AcDbEntity
  8
A1
  6
CONTINUOUS
 62
7
100
AcDbLine
 10
1279.199999999993
 20
48.80000000000109
 30
0.000000000000000
 11
1289.199999999993
 21
48.80000000000109
 31
0.000000000000000
  0
LINE
  5
9C
100
AcDbEntity
  8
A1
  6
CONTINUOUS
 62
7
100
AcDbLine
 10
1279.199999999993
 20
88.80000000000109
 30
0.000000000000000
 11
1289.199999999993
 21
88.80000000000109
 31
0.000000000000000
  0
LINE
  5
9D
100
AcDbEntity
  8
A1
  6
CONTINUOUS
 62
7
100
AcDbLine
 10
1289.199999999993
 20
88.80000000000109
 30
0.000000000000000
 11
1289.199999999993
 21
48.80000000000109
 31
0.000000000000000
  0
LINE
  5
9E
100
AcDbEntity
  8
A1
  6
CONTINUOUS
 62
7
100
AcDbLine
 10
1279.199999999993
 20
88.80000000000109
 30
0.000000000000000
 11
1279.199999999993
 21
48.80000000000109
 31
0.000000000000000
  0
LINE
  5
9F
100
AcDbEntity
  8
A1
  6
CONTINUOUS
 62
7
100
AcDbLine
 10
1279.199999999993
 20
61.10940107675742
 30
0.000000000000000
 11
1289.199999999993
 21
61.10940107675742
 31
0.000000000000000
  0
LINE
  5
A0
100
AcDbEntity
  8
A1
  6
CONTINUOUS
 62
7
100
AcDbLine
 10
1279.199999999993
 20
76.49059892324112
 30
0.000000000000000
 11
1289.199999999993
 21
76.49059892324112
 31
0.000000000000000
  0
LINE
  5
A1
100
AcDbEntity
  8
A1
  6
CONTINUOUS
 62
7
100
AcDbLine
 10
1314.699999999993
 20
79.67971188716911
 30
0.000000000000000
 11
1306.199999999993
 21
79.67971188716911
 31
0.000000000000000
  0
LINE
  5
A2
100
AcDbEntity
  8
A1
  6
CONTINUOUS
 62
7
100
AcDbLine
 10
1314.699999999993
 20
57.92028811283126
 30
0.000000000000000
 11
1306.199999999993
 21
57.92028811283126
 31
0.000000000000000
  0
ARC
  5
A3
100
AcDbEntity
  8
A1
  6
CONTINUOUS
 62
7
100
AcDbCircle
 10
1163.999999999996
 20
68.80000000000109
 30
0.000000000000000
 40
8.000000000000000
100
AcDbArc
 50
270.0000000000000
 51
450.0000000000000
  0
ARC
  5
A4
100
AcDbEntity
  8
A1
  6
CONTINUOUS
 62
7
100
AcDbCircle
 10
1144.999999999995
 20
68.80000000000109
 30
0.000000000000000
 40
8.000000000000000
100
AcDbArc
 50
90.00000000000000
 51
270.0000000000000
  0
LINE
  5
A5
100
AcDbEntity
  8
A1
  6
CONTINUOUS
 62
7
100
AcDbLine
 10
1144.999999999995
 20
76.80000000000109
 30
0.000000000000000
 11
1163.999999999996
 21
76.80000000000109
 31
0.000000000000000
  0
LINE
  5
A6
100
AcDbEntity
  8
A1
  6
CONTINUOUS
 62
7
100
AcDbLine
 10
1144.999999999995
 20
60.80000000000109
 30
0.000000000000000
 11
1163.999999999996
 21
60.80000000000109
 31
0.000000000000000
  0
ARC
  5
A7
100
AcDbEntity
  8
A1
  6
CONTINUOUS
 62
7
100
AcDbCircle
 10
940.7999999999956
 20
68.80000000000109
 30
0.000000000000000
 40
8.000000000000000
100
AcDbArc
 50
270.0000000000000
 51
450.0000000000000
  0
ARC
  5
A8
100
AcDbEntity
  8
A1
  6
CONTINUOUS
 62
7
100
AcDbCircle
 10
921.7999999999956
 20
68.80000000000109
 30
0.000000000000000
 40
8.000000000000000
100
AcDbArc
 50
90.00000000000000
 51
270.0000000000000
  0
LINE
  5
A9
100
AcDbEntity
  8
A1
  6
CONTINUOUS
 62
7
100
AcDbLine
 10
921.7999999999956
 20
76.80000000000109
 30
0.000000000000000
 11
940.7999999999956
 21
76.80000000000109
 31
0.000000000000000
  0
LINE
  5
AA
100
AcDbEntity
  8
A1
  6
CONTINUOUS
 62
7
100
AcDbLine
 10
921.7999999999956
 20
60.80000000000109
 30
0.000000000000000
 11
940.7999999999956
 21
60.80000000000109
 31
0.000000000000000
  0
ARC
  5
AB
100
AcDbEntity
  8
A1
  6
CONTINUOUS
 62
7
100
AcDbCircle
 10
1298.950384638156
 20
80.29780553198361
 30
0.000000000000000
 40
3.000000000000000
100
AcDbArc
 50
40.95575754733699
 51
120.0000000000000
  0
LINE
  5
AC
100
AcDbEntity
  8
A1
  6
CONTINUOUS
 62
7
100
AcDbLine
 10
1294.305181231678
 20
81.07999770995406
 30
0.000000000000000
 11
1297.450384638154
 21
82.89588174333954
 31
0.000000000000000
  0
LINE
  5
AD
100
AcDbEntity
  8
A1
  6
CONTINUOUS
 62
7
100
AcDbLine
 10
1301.995106126903
 20
81.33576991224322
 30
0.000000000000000
 11
1301.216032483705
 21
82.26423372541967
 31
0.000000000000000
  0
LINE
  5
AE
100
AcDbEntity
  8
A1
  6
CONTINUOUS
 62
7
100
AcDbLine
 10
1293.699999999997
 20
80.42398668713585
 30
0.000000000000000
 11
1293.699999999997
 21
57.17601331286649
 31
0.000000000000000
  0
LINE
  5
AF
100
AcDbEntity
  8
A1
  6
CONTINUOUS
 62
7
100
AcDbLine
 10
1311.549999999996
 20
76.19999999999709
 30
0.000000000000000
 11
1309.349999999995
 21
76.19999999999709
 31
0.000000000000000
  0
LINE
  5
B0
100
AcDbEntity
  8
A1
  6
CONTINUOUS
 62
7
100
AcDbLine
 10
1311.749999999993
 20
75.99999999999818
 30
0.000000000000000
 11
1311.749999999993
 21
71.24948974278414
 31
0.000000000000000
  0
LINE
  5
B1
100
AcDbEntity
  8
A1
  6
CONTINUOUS
 62
7
100
AcDbLine
 10
1309.149999999994
 20
75.99999999999818
 30
0.000000000000000
 11
1309.149999999994
 21
71.24948974278414
 31
0.000000000000000
  0
ARC
  5
B2
100
AcDbEntity
  8
A1
  6
CONTINUOUS
 62
7
100
AcDbCircle
 10
1311.549999999996
 20
75.99999999999818
 30
0.000000000000000
 40
0.2000000000000000
100
AcDbArc
 50
0.000000000000000
 51
90.00000000000000
  0
ARC
  5
B3
100
AcDbEntity
  8
A1
  6
CONTINUOUS
 62
7
100
AcDbCircle
 10
1309.349999999995
 20
75.99999999999818
 30
0.000000000000000
 40
0.2000000000000000
100
AcDbArc
 50
90.00000000000000
 51
180.0000000000000
  0
LINE
  5
B4
100
AcDbEntity
  8
A1
  6
CONTINUOUS
 62
7
100
AcDbLine
 10
1306.199999999993
 20
78.70000000000073
 30
0.000000000000000
 11
1306.199999999993
 21
80.49999999999636
 31
0.000000000000000
  0
LINE
  5
B5
100
AcDbEntity
  8
A1
  6
CONTINUOUS
 62
7
100
AcDbLine
 10
1327.199999999993
 20
60.05000000000473
 30
0.000000000000000
 11
1327.199999999993
 21
77.54999999999745
 31
0.000000000000000
  0
LINE
  5
B6
100
AcDbEntity
  8
A1
  6
CONTINUOUS
 62
7
100
AcDbLine
 10
1324.199999999993
 20
77.54999999999563
 30
0.000000000000000
 11
1324.199999999993
 21
60.05000000000291
 31
0.000000000000000
  0
ARC
  5
B7
100
AcDbEntity
  8
A1
  6
CONTINUOUS
 62
7
100
AcDbCircle
 10
1310.449999999993
 20
68.79999999999927
 30
0.000000000000000
 40
5.500000000000000
100
AcDbArc
 50
323.1301023541835
 51
396.8698976458443
  0
LINE
  5
B8
100
AcDbEntity
  8
A1
  6
CONTINUOUS
 62
7
100
AcDbLine
 10
1314.199999999993
 20
78.20000000000073
 30
0.000000000000000
 11
1306.699999999993
 21
78.20000000000073
 31
0.000000000000000
  0
LINE
  5
B9
100
AcDbEntity
  8
A1
  6
CONTINUOUS
 62
7
100
AcDbLine
 10
1305.949999999993
 20
71.49999999999636
 30
0.000000000000000
 11
1305.949999999993
 21
66.10000000000400
 31
0.000000000000000
  0
LINE
  5
BA
100
AcDbEntity
  8
A1
  6
CONTINUOUS
 62
7
100
AcDbLine
 10
1314.699999999993
 20
80.49999999999636
 30
0.000000000000000
 11
1314.699999999993
 21
78.70000000000073
 31
0.000000000000000
  0
ARC
  5
BB
100
AcDbEntity
  8
A1
  6
CONTINUOUS
 62
7
100
AcDbCircle
 10
1310.449999999993
 20
68.79999999999927
 30
0.000000000000000
 40
2.500000000000000
100
AcDbArc
 50
127.7997224354281
 51
232.2002775645719
  0
ARC
  5
BC
100
AcDbEntity
  8
A1
  6
CONTINUOUS
 62
7
100
AcDbCircle
 10
1310.449999999993
 20
68.79999999999927
 30
0.000000000000000
 40
2.500000000000000
100
AcDbArc
 50
307.7997224354277
 51
412.2002775645719
  0
ARC
  5
BD
100
AcDbEntity
  8
A1
  6
CONTINUOUS
 62
7
100
AcDbCircle
 10
1306.699999999993
 20
78.70000000000073
 30
0.000000000000000
 40
0.5000000000000000
100
AcDbArc
 50
180.0000000000000
 51
270.0000000000000
  0
ARC
  5
BE
100
AcDbEntity
  8
A1
  6
CONTINUOUS
 62
7
100
AcDbCircle
 10
1314.199999999993
 20
78.70000000000073
 30
0.000000000000000
 40
0.5000000000000000
100
AcDbArc
 50
270.0000000000000
 51
360.0000000000000
  0
ARC
  5
BF
100
AcDbEntity
  8
A1
  6
CONTINUOUS
 62
7
100
AcDbCircle
 10
1308.549999999996
 20
71.24948974278414
 30
0.000000000000000
 40
0.6000000000000000
100
AcDbArc
 50
307.7997224354273
 51
360.0000000000000
  0
ARC
  5
C0
100
AcDbEntity
  8
A1
  6
CONTINUOUS
 62
7
100
AcDbCircle
 10
1312.349999999995
 20
71.24948974278414
 30
0.000000000000000
 40
0.6000000000000000
100
AcDbArc
 50
180.0000000000000
 51
232.2002775645709
  0
ARC
  5
C1
100
AcDbEntity
  8
A1
  6
CONTINUOUS
 62
7
100
AcDbCircle
 10
1314.199999999993
 20
78.70000000000073
 30
0.000000000000000
 40
3.500000000000000
100
AcDbArc
 50
285.2184551577777
 51
343.2916562842898
  0
LINE
  5
C2
100
AcDbEntity
  8
A1
  6
CONTINUOUS
 62
7
100
AcDbLine
 10
1314.749999999993
 20
74.84027203031110
 30
0.000000000000000
 11
1314.749999999993
 21
72.39999999999782
 31
0.000000000000000
  0
ARC
  5
C3
100
AcDbEntity
  8
A1
  6
CONTINUOUS
 62
7
100
AcDbCircle
 10
1315.249999999993
 20
74.84027203031110
 30
0.000000000000000
 40
0.5000000000000000
100
AcDbArc
 50
105.2184551577803
 51
180.0000000000000
  0
LINE
  5
C4
100
AcDbEntity
  8
A1
  6
CONTINUOUS
 62
7
100
AcDbLine
 10
1323.699999999993
 20
78.04999999999563
 30
0.000000000000000
 11
1318.031122550892
 21
78.04999999999563
 31
0.000000000000000
  0
ARC
  5
C5
100
AcDbEntity
  8
A1
  6
CONTINUOUS
 62
7
100
AcDbCircle
 10
1323.699999999993
 20
77.54999999999563
 30
0.000000000000000
 40
0.5000000000000000
100
AcDbArc
 50
0.000000000000000
 51
90.00000000000000
  0
ARC
  5
C6
100
AcDbEntity
  8
A1
  6
CONTINUOUS
 62
7
100
AcDbCircle
 10
1323.699999999993
 20
77.54999999999563
 30
0.000000000000000
 40
3.500000000000000
100
AcDbArc
 50
4.653000000000000e-13
 51
90.00000000000000
  0
ARC
  5
C7
100
AcDbEntity
  8
A1
  6
CONTINUOUS
 62
7
100
AcDbCircle
 10
1318.031122550892
 20
77.54999999999563
 30
0.000000000000000
 40
0.5000000000000000
100
AcDbArc
 50
90.00000000000652
 51
163.2916562842906
  0
LINE
  5
C8
100
AcDbEntity
  8
A1
  6
CONTINUOUS
 62
7
100
AcDbLine
 10
1302.607941681399
 20
81.04999999999745
 30
0.000000000000000
 11
1305.649999999994
 21
81.04999999999745
 31
0.000000000000000
  0
LINE
  5
C9
100
AcDbEntity
  8
A1
  6
CONTINUOUS
 62
7
100
AcDbLine
 10
1315.249999999993
 20
81.04999999999745
 30
0.000000000000000
 11
1323.699999999993
 21
81.04999999999745
 31
0.000000000000000
  0
ARC
  5
CA
100
AcDbEntity
  8
A1
  6
CONTINUOUS
 62
7
100
AcDbCircle
 10
1315.249999999993
 20
72.39999999999782
 30
0.000000000000000
 40
0.5000000000000000
100
AcDbArc
 50
180.0000000000000
 51
216.8698976458401
  0
LINE
  5
CB
100
AcDbEntity
  8
A1
  6
CONTINUOUS
 62
7
100
AcDbLine
 10
1311.549999999996
 20
61.40000000000327
 30
0.000000000000000
 11
1309.349999999995
 21
61.40000000000327
 31
0.000000000000000
  0
LINE
  5
CC
100
AcDbEntity
  8
A1
  6
CONTINUOUS
 62
7
100
AcDbLine
 10
1311.749999999993
 20
61.60000000000218
 30
0.000000000000000
 11
1311.749999999993
 21
66.35051025721623
 31
0.000000000000000
  0
LINE
  5
CD
100
AcDbEntity
  8
A1
  6
CONTINUOUS
 62
7
100
AcDbLine
 10
1309.149999999994
 20
61.60000000000218
 30
0.000000000000000
 11
1309.149999999994
 21
66.35051025721623
 31
0.000000000000000
  0
ARC
  5
CE
100
AcDbEntity
  8
A1
  6
CONTINUOUS
 62
7
100
AcDbCircle
 10
1311.549999999996
 20
61.60000000000218
 30
0.000000000000000
 40
0.2000000000000000
100
AcDbArc
 50
270.0000000000000
 51
360.0000000000000
  0
ARC
  5
CF
100
AcDbEntity
  8
A1
  6
CONTINUOUS
 62
7
100
AcDbCircle
 10
1309.349999999995
 20
61.60000000000218
 30
0.000000000000000
 40
0.2000000000000000
100
AcDbArc
 50
180.0000000000000
 51
270.0000000000000
  0
LINE
  5
D0
100
AcDbEntity
  8
A1
  6
CONTINUOUS
 62
7
100
AcDbLine
 10
1306.199999999993
 20
58.89999999999964
 30
0.000000000000000
 11
1306.199999999993
 21
57.10000000000400
 31
0.000000000000000
  0
LINE
  5
D1
100
AcDbEntity
  8
A1
  6
CONTINUOUS
 62
7
100
AcDbLine
 10
1314.199999999993
 20
59.39999999999964
 30
0.000000000000000
 11
1306.699999999993
 21
59.39999999999964
 31
0.000000000000000
  0
LINE
  5
D2
100
AcDbEntity
  8
A1
  6
CONTINUOUS
 62
7
100
AcDbLine
 10
1314.699999999993
 20
57.10000000000400
 30
0.000000000000000
 11
1314.699999999993
 21
58.89999999999964
 31
0.000000000000000
  0
ARC
  5
D3
100
AcDbEntity
  8
A1
  6
CONTINUOUS
 62
7
100
AcDbCircle
 10
1306.699999999993
 20
58.89999999999964
 30
0.000000000000000
 40
0.5000000000000000
100
AcDbArc
 50
90.00000000000000
 51
180.0000000000000
  0
ARC
  5
D4
100
AcDbEntity
  8
A1
  6
CONTINUOUS
 62
7
100
AcDbCircle
 10
1314.199999999993
 20
58.89999999999964
 30
0.000000000000000
 40
0.5000000000000000
100
AcDbArc
 50
0.000000000000000
 51
90.00000000000000
  0
ARC
  5
D5
100
AcDbEntity
  8
A1
  6
CONTINUOUS
 62
7
100
AcDbCircle
 10
1308.549999999996
 20
66.35051025721623
 30
0.000000000000000
 40
0.6000000000000000
100
AcDbArc
 50
0.000000000000000
 51
52.20027756457263
  0
ARC
  5
D6
100
AcDbEntity
  8
A1
  6
CONTINUOUS
 62
7
100
AcDbCircle
 10
1312.349999999995
 20
66.35051025721623
 30
0.000000000000000
 40
0.6000000000000000
100
AcDbArc
 50
127.7997224354290
 51
180.0000000000000
  0
ARC
  5
D7
100
AcDbEntity
  8
A1
  6
CONTINUOUS
 62
7
100
AcDbCircle
 10
1314.199999999993
 20
58.89999999999964
 30
0.000000000000000
 40
3.500000000000000
100
AcDbArc
 50
16.70834371571017
 51
74.78154484222227
  0
LINE
  5
D8
100
AcDbEntity
  8
A1
  6
CONTINUOUS
 62
7
100
AcDbLine
 10
1314.749999999993
 20
62.75972796968927
 30
0.000000000000000
 11
1314.749999999993
 21
65.20000000000255
 31
0.000000000000000
  0
ARC
  5
D9
100
AcDbEntity
  8
A1
  6
CONTINUOUS
 62
7
100
AcDbCircle
 10
1315.249999999993
 20
62.75972796968927
 30
0.000000000000000
 40
0.5000000000000000
100
AcDbArc
 50
180.0000000000000
 51
254.7815448422206
  0
LINE
  5
DA
100
AcDbEntity
  8
A1
  6
CONTINUOUS
 62
7
100
AcDbLine
 10
1323.699999999993
 20
59.55000000000291
 30
0.000000000000000
 11
1318.031122550892
 21
59.55000000000291
 31
0.000000000000000
  0
ARC
  5
DB
100
AcDbEntity
  8
A1
  6
CONTINUOUS
 62
7
100
AcDbCircle
 10
1323.699999999993
 20
60.05000000000291
 30
0.000000000000000
 40
0.5000000000000000
100
AcDbArc
 50
270.0000000000000
 51
360.0000000000000
  0
ARC
  5
DC
100
AcDbEntity
  8
A1
  6
CONTINUOUS
 62
7
100
AcDbCircle
 10
1323.699999999993
 20
60.05000000000291
 30
0.000000000000000
 40
3.500000000000000
100
AcDbArc
 50
270.0000000000000
 51
359.9999999999996
  0
ARC
  5
DD
100
AcDbEntity
  8
A1
  6
CONTINUOUS
 62
7
100
AcDbCircle
 10
1318.031122550892
 20
60.05000000000291
 30
0.000000000000000
 40
0.5000000000000000
100
AcDbArc
 50
196.7083437157113
 51
269.9999999999935
  0
LINE
  5
DE
100
AcDbEntity
  8
A1
  6
CONTINUOUS
 62
7
100
AcDbLine
 10
1315.249999999993
 20
56.55000000000291
 30
0.000000000000000
 11
1323.699999999993
 21
56.55000000000291
 31
0.000000000000000
  0
ARC
  5
DF
100
AcDbEntity
  8
A1
  6
CONTINUOUS
 62
7
100
AcDbCircle
 10
1315.249999999993
 20
65.20000000000255
 30
0.000000000000000
 40
0.5000000000000000
100
AcDbArc
 50
143.1301023541599
 51
180.0000000000000
  0
LINE
  5
E0
100
AcDbEntity
  8
A1
  6
CONTINUOUS
 62
7
100
AcDbLine
 10
1293.699999999993
 20
77.49999999999636
 30
0.000000000000000
 11
1299.949999999993
 21
77.49999999999636
 31
0.000000000000000
  0
ARC
  5
E1
100
AcDbEntity
  8
A1
  6
CONTINUOUS
 62
7
100
AcDbCircle
 10
1299.949999999993
 20
71.49999999999636
 30
0.000000000000000
 40
6.000000000000000
100
AcDbArc
 50
0.000000000000000
 51
90.00000000000000
  0
LINE
  5
E2
100
AcDbEntity
  8
A1
  6
CONTINUOUS
 62
7
100
AcDbLine
 10
1293.699999999993
 20
60.10000000000400
 30
0.000000000000000
 11
1299.949999999993
 21
60.10000000000400
 31
0.000000000000000
  0
ARC
  5
E3
100
AcDbEntity
  8
A1
  6
CONTINUOUS
 62
7
100
AcDbCircle
 10
1299.949999999993
 20
66.10000000000400
 30
0.000000000000000
 40
6.000000000000000
100
AcDbArc
 50
270.0000000000000
 51
360.0000000000000
  0
LINE
  5
E4
100
AcDbEntity
  8
A1
  6
CONTINUOUS
 62
7
100
AcDbLine
 10
1302.607941681399
 20
56.55000000000473
 30
0.000000000000000
 11
1305.649999999994
 21
56.55000000000473
 31
0.000000000000000
  0
ARC
  5
E5
100
AcDbEntity
  8
A1
  6
CONTINUOUS
 62
7
100
AcDbCircle
 10
1305.649999999994
 20
57.10000000000400
 30
0.000000000000000
 40
0.5500000000000000
100
AcDbArc
 50
270.0000000000000
 51
359.9999999999970
  0
ARC
  5
E6
100
AcDbEntity
  8
A1
  6
CONTINUOUS
 62
7
100
AcDbCircle
 10
1315.249999999993
 20
57.10000000000400
 30
0.000000000000000
 40
0.5500000000000000
100
AcDbArc
 50
180.0000000000000
 51
270.0000000000000
  0
ARC
  5
E7
100
AcDbEntity
  8
A1
  6
CONTINUOUS
 62
7
100
AcDbCircle
 10
1305.649999999994
 20
80.49999999999636
 30
0.000000000000000
 40
0.5500000000000000
100
AcDbArc
 50
2.960800000000000e-12
 51
90.00000000000000
  0
ARC
  5
E8
100
AcDbEntity
  8
A1
  6
CONTINUOUS
 62
7
100
AcDbCircle
 10
1315.249999999993
 20
80.49999999999636
 30
0.000000000000000
 40
0.5500000000000000
100
AcDbArc
 50
90.00000000000000
 51
180.0000000000000
  0
ARC
  5
E9
100
AcDbEntity
  8
A1
  6
CONTINUOUS
 62
7
100
AcDbCircle
 10
1298.950384638156
 20
57.30219446801675
 30
0.000000000000000
 40
3.000000000000000
100
AcDbArc
 50
240.0000000000000
 51
319.0442424526630
  0
LINE
  5
EA
100
AcDbEntity
  8
A1
  6
CONTINUOUS
 62
7
100
AcDbLine
 10
1294.305181231680
 20
56.52000229004693
 30
0.000000000000000
 11
1297.450384638156
 21
54.70411825666167
 31
0.000000000000000
  0
LINE
  5
EB
100
AcDbEntity
  8
A1
  6
CONTINUOUS
 62
7
100
AcDbLine
 10
1301.995106126902
 20
56.26423008775100
 30
0.000000000000000
 11
1301.216032483704
 21
55.33576627457467
 31
0.000000000000000
  0
ARC
  5
EC
100
AcDbEntity
  8
A1
  6
CONTINUOUS
 62
7
100
AcDbCircle
 10
1302.607941681399
 20
81.84999999999673
 30
0.000000000000000
 40
0.8000000000000000
100
AcDbArc
 50
219.9999999999991
 51
270.0000000000000
  0
ARC
  5
ED
100
AcDbEntity
  8
A1
  6
CONTINUOUS
 62
7
100
AcDbCircle
 10
1302.607941681399
 20
55.75000000000364
 30
0.000000000000000
 40
0.8000000000000000
100
AcDbArc
 50
90.00000000000000
 51
140.0000000000009
  0
ARC
  5
EE
100
AcDbEntity
  8
A1
  6
CONTINUOUS
 62
7
100
AcDbCircle
 10
1295.055181231677
 20
57.81904039572510
 30
0.000000000000000
 40
1.500000000000000
100
AcDbArc
 50
205.3841182138332
 51
240.0000000000000
  0
ARC
  5
EF
100
AcDbEntity
  8
A1
  6
CONTINUOUS
 62
7
100
AcDbCircle
 10
1295.055181231677
 20
79.78095960427527
 30
0.000000000000000
 40
1.500000000000000
100
AcDbArc
 50
120.0000000000000
 51
154.6158817861668
  0
LINE
  5
F0
100
AcDbEntity
  8
A1
  6
CONTINUOUS
 62
7
100
AcDbLine
 10
1279.199999999995
 20
79.67971188717013
 30
0.000000000000000
 11
905.6999999999974
 21
79.67971188716993
 31
0.000000000000000
  0
LINE
  5
F1
100
AcDbEntity
  8
A1
  6
CONTINUOUS
 62
7
100
AcDbLine
 10
1279.199999999995
 20
57.92028811283228
 30
0.000000000000000
 11
905.6999999999974
 21
57.92028811283208
 31
0.000000000000000
  0
LINE
  5
F2
100
AcDbEntity
  8
A1
  6
CONTINUOUS
 62
7
100
AcDbLine
 10
1324.199999999993
 20
91.58584529612017
 30
0.000000000000000
 11
471.9999999999927
 21
91.58584529612017
 31
0.000000000000000
  0
LINE
  5
F3
100
AcDbEntity
  8
A1
  6
CONTINUOUS
 62
7
100
AcDbLine
 10
1324.199999999993
 20
95.25000000000000
 30
0.000000000000000
 11
471.9999999999927
 21
95.25000000000000
 31
0.000000000000000
  0
CIRCLE
  5
F4
100
AcDbEntity
  8
A3
  6
DASHED
 62
2
100
AcDbCircle
 10
1299.199999999993
 20
76.24969443902592
 30
0.000000000000000
 40
2.100000000000000
  0
CIRCLE
  5
F5
100
AcDbEntity
  8
A3
  6
DASHED
 62
2
100
AcDbCircle
 10
1299.199999999993
 20
61.24969443902592
 30
0.000000000000000
 40
2.100000000000000
  0
LINE
  5
F6
100
AcDbEntity
  8
A1
  6
CONTINUOUS
 62
7
100
AcDbLine
 10
1293.699999999995
 20
79.67971188717105
 30
0.000000000000000
 11
1289.199999999995
 21
79.67971188717085
 31
0.000000000000000
  0
LINE
  5
F7
100
AcDbEntity
  8
A1
  6
CONTINUOUS
 62
7
100
AcDbLine
 10
1293.699999999993
 20
57.92028811283126
 30
0.000000000000000
 11
1289.199999999993
 21
57.92028811283126
 31
0.000000000000000
  0
LINE
  5
F8
100
AcDbEntity
  8
A1
  6
CONTINUOUS
 62
7
100
AcDbLine
 10
908.9999999999909
 20
42.35000000000036
 30
0.000000000000000
 11
908.9999999999909
 21
33.89999999999964
 31
0.000000000000000
  0
LINE
  5
F9
100
AcDbEntity
  8
A1
  6
CONTINUOUS
 62
7
100
AcDbLine
 10
905.6999999999971
 20
87.60000000000036
 30
0.000000000000000
 11
50.00000000000000
 21
87.60000000000036
 31
0.000000000000000
  0
LINE
  5
FA
100
AcDbEntity
  8
A1
  6
CONTINUOUS
 62
7
100
AcDbLine
 10
905.6999999999989
 20
83.90000000000204
 30
0.000000000000000
 11
50.19630146679086
 21
83.90000000000170
 31
0.000000000000000
  0
LINE
  5
FB
100
AcDbEntity
  8
A1
  6
CONTINUOUS
 62
7
100
AcDbLine
 10
868.3999999999874
 20
80.29999999999589
 30
0.000000000000000
 11
870.8999999999801
 21
80.29999999999816
 31
0.000000000000000
  0
LINE
  5
FC
100
AcDbEntity
  8
A1
  6
CONTINUOUS
 62
7
100
AcDbLine
 10
868.3999999999880
 20
80.29999999999789
 30
0.000000000000000
 11
868.4000000000098
 21
57.29999999999607
 31
0.000000000000000
  0
LINE
  5
FD
100
AcDbEntity
  8
A1
  6
CONTINUOUS
 62
7
100
AcDbLine
 10
870.8999999999879
 20
80.29999999999973
 30
0.000000000000000
 11
870.8999999999988
 21
57.29999999999973
 31
0.000000000000000
  0
LINE
  5
FE
100
AcDbEntity
  8
A1
  6
CONTINUOUS
 62
7
100
AcDbLine
 10
864.0999999999856
 20
78.29999999999480
 30
0.000000000000000
 11
864.0999999999965
 21
59.29999999999480
 31
0.000000000000000
  0
ARC
  5
FF
100
AcDbEntity
  8
A1
  6
CONTINUOUS
 62
7
100
AcDbCircle
 10
866.0999999999858
 20
78.29999999999563
 30
0.000000000000000
 40
2.000000000000000
100
AcDbArc
 50
90.00000000005539
 51
180.0000000000521
  0
ARC
  5
100
100
AcDbEntity
  8
A1
  6
CONTINUOUS
 62
7
100
AcDbCircle
 10
866.0999999999967
 20
59.29999999999563
 30
0.000000000000000
 40
2.000000000000000
100
AcDbArc
 50
180.0000000000521
 51
270.0000000000554
  0
LINE
  5
101
100
AcDbEntity
  8
A1
  6
CONTINUOUS
 62
7
100
AcDbLine
 10
868.4000000000104
 20
57.29999999999576
 30
0.000000000000000
 11
870.8999999999995
 21
57.29999999999806
 31
0.000000000000000
  0
LINE
  5
102
100
AcDbEntity
  8
A1
  6
CONTINUOUS
 62
7
100
AcDbLine
 10
905.6999999999999
 20
50.00000000000080
 30
0.000000000000000
 11
905.6999999999998
 21
87.59999999999935
 31
0.000000000000000
  0
LINE
  5
103
100
AcDbEntity
  8
A1
  6
CONTINUOUS
 62
7
100
AcDbLine
 10
866.0999999999846
 20
80.29999999999495
 30
0.000000000000000
 11
868.3999999999875
 21
80.29999999999717
 31
0.000000000000000
  0
LINE
  5
104
100
AcDbEntity
  8
A1
  6
CONTINUOUS
 62
7
100
AcDbLine
 10
866.0999999999995
 20
57.29999999999330
 30
0.000000000000000
 11
868.4000000000096
 21
57.29999999999560
 31
0.000000000000000
  0
LINE
  5
105
100
AcDbEntity
  8
A1
  6
CONTINUOUS
 62
7
100
AcDbLine
 10
905.6999999999979
 20
82.50768479867585
 30
0.000000000000000
 11
1279.199999999994
 21
82.50768479867659
 31
0.000000000000000
  0
LINE
  5
106
100
AcDbEntity
  8
A1
  6
CONTINUOUS
 62
7
100
AcDbLine
 10
905.6999999999985
 20
55.09231520132384
 30
0.000000000000000
 11
1279.199999999993
 21
55.09231520132244
 31
0.000000000000000
  0
LINE
  5
107
100
AcDbEntity
  8
A1
  6
CONTINUOUS
 62
7
100
AcDbLine
 10
905.6999999999971
 20
50.00000000000000
 30
0.000000000000000
 11
50.00000000000000
 21
50.00000000000000
 31
0.000000000000000
  0
LINE
  5
108
100
AcDbEntity
  8
A1
  6
CONTINUOUS
 62
7
100
AcDbLine
 10
905.6999999999970
 20
53.70000000000040
 30
0.000000000000000
 11
50.19630146678895
 21
53.70000000000060
 31
0.000000000000000
  0
LINE
  5
109
100
AcDbEntity
  8
A1
  6
CONTINUOUS
 62
7
100
AcDbLine
 10
1324.199999999994
 20
46.01415470387910
 30
0.000000000000000
 11
471.9999999999936
 21
46.01415470387958
 31
0.000000000000000
  0
LINE
  5
10A
100
AcDbEntity
  8
A1
  6
CONTINUOUS
 62
7
100
AcDbLine
 10
1324.199999999992
 20
42.34999999999952
 30
0.000000000000000
 11
471.9999999999926
 21
42.34999999999992
 31
0.000000000000000
  0
LINE
  5
10B
100
AcDbEntity
  8
A1
  6
CONTINUOUS
 62
7
100
AcDbLine
 10
1772.599999999992
 20
33.90000000000177
 30
0.000000000000000
 11
908.9999999999932
 21
33.89999999999896
 31
0.000000000000000
  0
LINE
  5
10C
100
AcDbEntity
  8
A1
  6
CONTINUOUS
 62
7
100
AcDbLine
 10
1772.489058626645
 20
38.29999999999970
 30
0.000000000000000
 11
908.9999999999914
 21
38.30000000000021
 31
0.000000000000000
  0
LINE
  5
10D
100
AcDbEntity
  8
A1
  6
CONTINUOUS
 62
7
100
AcDbLine
 10
946.7230447378253
 20
68.80000000000047
 30
0.000000000000000
 11
948.5812096262355
 21
70.65816488841125
 31
0.000000000000000
  0
LINE
  5
10E
100
AcDbEntity
  8
A1
  6
CONTINUOUS
 62
7
100
AcDbLine
 10
948.5812096262350
 20
66.94183511158712
 30
0.000000000000000
 11
946.7230447378244
 21
68.79999999999751
 31
0.000000000000000
  0
LINE
  5
10F
100
AcDbEntity
  8
A3
  6
DASHED
 62
2
100
AcDbLine
 10
1172.976955262163
 20
68.79999999999939
 30
0.000000000000000
 11
1171.931378813988
 21
67.75442355182440
 31
0.000000000000000
  0
LINE
  5
110
100
AcDbEntity
  8
A3
  6
DASHED
 62
2
100
AcDbLine
 10
1171.931378813989
 20
69.84557644817505
 30
0.000000000000000
 11
1172.976955262164
 21
68.79999999999734
 31
0.000000000000000
  0
ARC
  5
111
100
AcDbEntity
  8
A3
  6
DASHED
 62
2
100
AcDbCircle
 10
1328.099999999991
 20
68.79999999999927
 30
0.000000000000000
 40
2.600000000000001
100
AcDbArc
 50
110.2522467421364
 51
249.7477532578636
  0
LINE
  5
112
100
AcDbEntity
  8
A1
  6
CONTINUOUS
 62
7
100
AcDbLine
 10
1289.199999999995
 20
82.50768479867703
 30
0.000000000000000
 11
1296.778007806661
 21
82.50768479867715
 31
0.000000000000000
  0
LINE
  5
113
100
AcDbEntity
  8
A1
  6
CONTINUOUS
 62
7
100
AcDbLine
 10
1300.979284247952
 20
82.50768479867838
 30
0.000000000000000
 11
1324.199999999994
 21
82.50768479867861
 31
0.000000000000000
  0
LINE
  5
114
100
AcDbEntity
  8
A1
  6
CONTINUOUS
 62
7
100
AcDbLine
 10
1296.778007806661
 20
55.09231520132380
 30
0.000000000000000
 11
1289.199999999993
 21
55.09231520132380
 31
0.000000000000000
  0
LINE
  5
115
100
AcDbEntity
  8
A1
  6
CONTINUOUS
 62
7
100
AcDbLine
 10
1324.199999999993
 20
55.09231520132369
 30
0.000000000000000
 11
1300.979284247953
 21
55.09231520132380
 31
0.000000000000000
  0
LINE
  5
116
100
AcDbEntity
  8
A1
  6
CONTINUOUS
 62
7
100
AcDbLine
 10
1309.149999999994
 20
71.24948974278405
 30
0.000000000000000
 11
1309.149999999994
 21
66.35051025721614
 31
0.000000000000000
  0
LINE
  5
117
100
AcDbEntity
  8
A1
  6
CONTINUOUS
 62
7
100
AcDbLine
 10
1311.749999999992
 20
71.24948974278405
 30
0.000000000000000
 11
1311.749999999992
 21
66.35051025721614
 31
0.000000000000000
  0
LINE
  5
118
100
AcDbEntity
  8
A4
  6
CENTER
 62
1
100
AcDbLine
 10
1143.899999999992
 20
80.39999999999964
 30
0.000000000000000
 11
1143.899999999992
 21
57.20000000000073
 31
0.000000000000000
  0
LINE
  5
119
100
AcDbEntity
  8
A4
  6
CENTER
 62
1
100
AcDbLine
 10
1156.599999999991
 20
81.10000000000036
 30
0.000000000000000
 11
1156.599999999991
 21
56.50000000000000
 31
0.000000000000000
  0
LINE
  5
11A
100
AcDbEntity
  8
A4
  6
CENTER
 62
1
100
AcDbLine
 10
1181.999999999993
 20
56.45000000000073
 30
0.000000000000000
 11
1181.999999999993
 21
81.14999999999964
 31
0.000000000000000
  0
LINE
  5
11B
100
AcDbEntity
  8
A4
  6
CENTER
 62
1
100
AcDbLine
 10
1169.299999999992
 20
56.12304473782933
 30
0.000000000000000
 11
1169.299999999992
 21
81.47695526217103
 31
0.000000000000000
  0
LINE
  5
11C
100
AcDbEntity
  8
A4
  6
CENTER
 62
1
100
AcDbLine
 10
921.6999999999935
 20
78.90000000000146
 30
0.000000000000000
 11
921.6999999999935
 21
58.70000000000073
 31
0.000000000000000
  0
LINE
  5
11D
100
AcDbEntity
  8
A4
  6
CENTER
 62
1
100
AcDbLine
 10
931.1999999999935
 20
57.95000000000255
 30
0.000000000000000
 11
931.1999999999935
 21
79.65000000000146
 31
0.000000000000000
  0
LINE
  5
11E
100
AcDbEntity
  8
A4
  6
CENTER
 62
1
100
AcDbLine
 10
940.7999999999920
 20
79.60000000000036
 30
0.000000000000000
 11
940.7999999999920
 21
58.00000000000182
 31
0.000000000000000
  0
LINE
  5
11F
100
AcDbEntity
  8
A4
  6
CENTER
 62
1
100
AcDbLine
 10
963.0999999999985
 20
58.00000000001091
 30
0.000000000000000
 11
963.0999999999985
 21
79.60000000000036
 31
0.000000000000000
  0
LINE
  5
120
100
AcDbEntity
  8
A4
  6
CENTER
 62
1
100
AcDbLine
 10
997.8999999999942
 20
79.60000000000036
 30
0.000000000000000
 11
997.8999999999942
 21
58.00000000000182
 31
0.000000000000000
  0
LINE
  5
121
100
AcDbEntity
  8
A4
  6
CENTER
 62
1
100
AcDbLine
 10
985.1999999999935
 20
78.90000000000146
 30
0.000000000000000
 11
985.1999999999935
 21
58.70000000000073
 31
0.000000000000000
  0
LINE
  5
122
100
AcDbEntity
  8
A4
  6
CENTER
 62
1
100
AcDbLine
 10
950.3999999999942
 20
57.62304473783115
 30
0.000000000000000
 11
950.3999999999942
 21
79.97695526217103
 31
0.000000000000000
  0
LINE
  5
123
100
AcDbEntity
  8
A4
  6
CENTER
 62
1
100
AcDbLine
 10
1328.099999999991
 20
78.89999999999964
 30
0.000000000000000
 11
1328.099999999991
 21
58.70000000000073
 31
0.000000000000000
  0
LINE
  5
124
100
AcDbEntity
  8
A4
  6
CENTER
 62
1
100
AcDbLine
 10
1340.799999999992
 20
79.60000000000036
 30
0.000000000000000
 11
1340.799999999992
 21
58.00000000000000
 31
0.000000000000000
  0
LINE
  5
125
100
AcDbEntity
  8
A4
  6
CENTER
 62
1
100
AcDbLine
 10
1353.499999999993
 20
57.62304473782933
 30
0.000000000000000
 11
1353.499999999993
 21
79.97695526217103
 31
0.000000000000000
  0
LINE
  5
126
100
AcDbEntity
  8
A4
  6
CENTER
 62
1
100
AcDbLine
 10
1366.199999999990
 20
57.95000000000073
 30
0.000000000000000
 11
1366.199999999990
 21
79.64999999999964
 31
0.000000000000000
  0
LINE
  5
127
100
AcDbEntity
  8
A4
  6
CENTER
 62
1
100
AcDbLine
 10
1512.299999999994
 20
78.89999999999964
 30
0.000000000000000
 11
1512.299999999994
 21
58.70000000000073
 31
0.000000000000000
  0
LINE
  5
128
100
AcDbEntity
  8
A4
  6
CENTER
 62
1
100
AcDbLine
 10
1524.999999999993
 20
79.60000000000036
 30
0.000000000000000
 11
1524.999999999993
 21
58.00000000000000
 31
0.000000000000000
  0
LINE
  5
129
100
AcDbEntity
  8
A4
  6
CENTER
 62
1
100
AcDbLine
 10
1537.699999999992
 20
57.62304473782933
 30
0.000000000000000
 11
1537.699999999992
 21
79.97695526216921
 31
0.000000000000000
  0
LINE
  5
12A
100
AcDbEntity
  8
A4
  6
CENTER
 62
1
100
AcDbLine
 10
1550.399999999992
 20
57.95000000000073
 30
0.000000000000000
 11
1550.399999999992
 21
79.64999999999964
 31
0.000000000000000
  0
LINE
  5
12B
100
AcDbEntity
  8
A4
  6
CENTER
 62
1
100
AcDbLine
 10
1657.599999999993
 20
57.62304473782933
 30
0.000000000000000
 11
1657.599999999993
 21
79.97695526216921
 31
0.000000000000000
  0
LINE
  5
12C
100
AcDbEntity
  8
A4
  6
CENTER
 62
1
100
AcDbLine
 10
1667.799999999994
 20
58.69999999999891
 30
0.000000000000000
 11
1667.799999999994
 21
78.89999999999964
 31
0.000000000000000
  0
LINE
  5
12D
100
AcDbEntity
  8
A4
  6
CENTER
 62
1
100
AcDbLine
 10
1683.700000000015
 20
58.00000000000000
 30
0.000000000000000
 11
1683.700000000015
 21
79.59999999999854
 31
0.000000000000000
  0
LINE
  5
12E
100
AcDbEntity
  8
A4
  6
CENTER
 62
1
100
AcDbLine
 10
1699.599999999993
 20
78.89999999999964
 30
0.000000000000000
 11
1699.599999999993
 21
58.69999999999891
 31
0.000000000000000
  0
LINE
  5
12F
100
AcDbEntity
  8
A4
  6
CENTER
 62
1
100
AcDbLine
 10
1712.299999999992
 20
79.59999999999854
 30
0.000000000000000
 11
1712.299999999992
 21
58.00000000000000
 31
0.000000000000000
  0
LINE
  5
130
100
AcDbEntity
  8
A4
  6
CENTER
 62
1
100
AcDbLine
 10
1728.199999999993
 20
57.95000000000073
 30
0.000000000000000
 11
1728.199999999993
 21
79.64999999999964
 31
0.000000000000000
  0
LINE
  5
131
100
AcDbEntity
  8
A4
  6
CENTER
 62
1
100
AcDbLine
 10
1740.899999999992
 20
79.59999999999854
 30
0.000000000000000
 11
1740.899999999992
 21
58.00000000000000
 31
0.000000000000000
  0
LINE
  5
132
100
AcDbEntity
  8
A4
  6
CENTER
 62
1
100
AcDbLine
 10
40.99999999999975
 20
68.80000000000098
 30
0.000000000000000
 11
1781.599999999993
 21
68.80000000000075
 31
0.000000000000000
  0
LINE
  5
133
100
AcDbEntity
  8
A1
  6
CONTINUOUS
 62
7
100
AcDbLine
 10
471.9999999999933
 20
95.25000000000026
 30
0.000000000000000
 11
471.9999999999950
 21
87.60000000000062
 31
0.000000000000000
  0
CIRCLE
  5
134
100
AcDbEntity
  8
A1
  6
CONTINUOUS
 62
7
100
AcDbCircle
 10
81.79999999999927
 20
68.79999999999927
 30
0.000000000000000
 40
2.600000000000000
  0
CIRCLE
  5
135
100
AcDbEntity
  8
A1
  6
CONTINUOUS
 62
7
100
AcDbCircle
 10
100.8999999999996
 20
68.79999999999927
 30
0.000000000000000
 40
3.299999999999999
  0
CIRCLE
  5
136
100
AcDbEntity
  8
A1
  6
CONTINUOUS
 62
7
100
AcDbCircle
 10
145.3000000000011
 20
68.79999999999927
 30
0.000000000000000
 40
3.299999999999999
  0
CIRCLE
  5
137
100
AcDbEntity
  8
A1
  6
CONTINUOUS
 62
7
100
AcDbCircle
 10
132.5999999999967
 20
68.79999999999927
 30
0.000000000000000
 40
2.600000000000000
  0
CIRCLE
  5
138
100
AcDbEntity
  8
A1
  6
CONTINUOUS
 62
7
100
AcDbCircle
 10
272.2999999999993
 20
68.79999999999927
 30
0.000000000000000
 40
3.299999999999999
  0
CIRCLE
  5
139
100
AcDbEntity
  8
A1
  6
CONTINUOUS
 62
7
100
AcDbCircle
 10
259.6000000000004
 20
68.79999999999927
 30
0.000000000000000
 40
2.600000000000000
  0
CIRCLE
  5
13A
100
AcDbEntity
  8
A1
  6
CONTINUOUS
 62
7
100
AcDbCircle
 10
119.8999999999996
 20
68.79999999999927
 30
0.000000000000000
 40
3.299999999999999
  0
CIRCLE
  5
13B
100
AcDbEntity
  8
A1
  6
CONTINUOUS
 62
7
100
AcDbCircle
 10
208.7999999999993
 20
68.79999999999927
 30
0.000000000000000
 40
3.299999999999999
  0
CIRCLE
  5
13C
100
AcDbEntity
  8
A1
  6
CONTINUOUS
 62
7
100
AcDbCircle
 10
196.1000000000004
 20
68.79999999999927
 30
0.000000000000000
 40
2.600000000000000
  0
CIRCLE
  5
13D
100
AcDbEntity
  8
A1
  6
CONTINUOUS
 62
7
100
AcDbCircle
 10
291.3999999999996
 20
68.79999999999927
 30
0.000000000000000
 40
3.550000000000000
  0
CIRCLE
  5
13E
100
AcDbEntity
  8
A1
  6
CONTINUOUS
 62
7
100
AcDbCircle
 10
450.0999999999985
 20
68.79999999999927
 30
0.000000000000000
 40
3.299999999999999
  0
CIRCLE
  5
13F
100
AcDbEntity
  8
A1
  6
CONTINUOUS
 62
7
100
AcDbCircle
 10
437.3999999999996
 20
68.79999999999927
 30
0.000000000000000
 40
2.600000000000000
  0
LINE
  5
140
100
AcDbEntity
  8
A1
  6
CONTINUOUS
 62
7
100
AcDbLine
 10
738.9500000000007
 20
65.50000000000000
 30
0.000000000000000
 11
729.6499999999905
 21
65.50000000000000
 31
0.000000000000000
  0
ARC
  5
141
100
AcDbEntity
  8
A1
  6
CONTINUOUS
 62
7
100
AcDbCircle
 10
738.9500000000007
 20
68.79999999999927
 30
0.000000000000000
 40
3.299999999999999
100
AcDbArc
 50
270.0000000000000
 51
450.0000000000000
  0
ARC
  5
142
100
AcDbEntity
  8
A1
  6
CONTINUOUS
 62
7
100
AcDbCircle
 10
729.6499999999905
 20
68.79999999999927
 30
0.000000000000000
 40
3.299999999999999
100
AcDbArc
 50
90.00000000000000
 51
270.0000000000000
  0
LINE
  5
143
100
AcDbEntity
  8
A1
  6
CONTINUOUS
 62
7
100
AcDbLine
 10
738.9500000000007
 20
72.09999999999854
 30
0.000000000000000
 11
729.6499999999905
 21
72.09999999999854
 31
0.000000000000000
  0
CIRCLE
  5
144
100
AcDbEntity
  8
A1
  6
CONTINUOUS
 62
7
100
AcDbCircle
 10
716.7999999999920
 20
68.79999999999927
 30
0.000000000000000
 40
3.550000000000000
  0
CIRCLE
  5
145
100
AcDbEntity
  8
A1
  6
CONTINUOUS
 62
7
100
AcDbCircle
 10
794.4999999999854
 20
68.79999999999927
 30
0.000000000000000
 40
3.299999999999999
  0
CIRCLE
  5
146
100
AcDbEntity
  8
A1
  6
CONTINUOUS
 62
7
100
AcDbCircle
 10
807.1999999999862
 20
68.79999999999927
 30
0.000000000000000
 40
2.600000000000000
  0
LINE
  5
147
100
AcDbEntity
  8
A1
  6
CONTINUOUS
 62
7
100
AcDbLine
 10
822.0499999999865
 20
66.19999999999891
 30
0.000000000000000
 11
817.7499999999964
 21
66.19999999999891
 31
0.000000000000000
  0
ARC
  5
148
100
AcDbEntity
  8
A1
  6
CONTINUOUS
 62
7
100
AcDbCircle
 10
822.0499999999865
 20
68.79999999999927
 30
0.000000000000000
 40
2.600000000000000
100
AcDbArc
 50
270.0000000000000
 51
450.0000000000000
  0
ARC
  5
149
100
AcDbEntity
  8
A1
  6
CONTINUOUS
 62
7
100
AcDbCircle
 10
817.7499999999964
 20
68.79999999999927
 30
0.000000000000000
 40
2.600000000000000
100
AcDbArc
 50
90.00000000000000
 51
270.0000000000000
  0
LINE
  5
14A
100
AcDbEntity
  8
A1
  6
CONTINUOUS
 62
7
100
AcDbLine
 10
822.0499999999865
 20
71.39999999999964
 30
0.000000000000000
 11
817.7499999999964
 21
71.39999999999964
 31
0.000000000000000
  0
CIRCLE
  5
14B
100
AcDbEntity
  8
A1
  6
CONTINUOUS
 62
7
100
AcDbCircle
 10
551.6999999999989
 20
68.79999999999927
 30
0.000000000000000
 40
3.299999999999999
  0
CIRCLE
  5
14C
100
AcDbEntity
  8
A1
  6
CONTINUOUS
 62
7
100
AcDbCircle
 10
539.0000000000000
 20
68.79999999999927
 30
0.000000000000000
 40
2.600000000000000
  0
LINE
  5
14D
100
AcDbEntity
  8
A1
  6
CONTINUOUS
 62
7
100
AcDbLine
 10
50.00000000000723
 20
80.29999999999825
 30
0.000000000000000
 11
52.50000000000178
 21
80.30000000000075
 31
0.000000000000000
  0
ARC
  5
14E
100
AcDbEntity
  8
A1
  6
CONTINUOUS
 62
7
100
AcDbCircle
 10
52.00000000000546
 20
81.30000000000109
 30
0.000000000000000
 40
1.000000000000000
100
AcDbArc
 50
270.0000000000521
 51
420.0000000000475
  0
LINE
  5
14F
100
AcDbEntity
  8
A1
  6
CONTINUOUS
 62
7
100
AcDbLine
 10
51.00000000000388
 20
83.03205080757277
 30
0.000000000000000
 11
52.50000000000540
 21
82.16602540378877
 31
0.000000000000000
  0
LINE
  5
150
100
AcDbEntity
  8
A1
  6
CONTINUOUS
 62
7
100
AcDbLine
 10
49.99999999999908
 20
87.59999999999989
 30
0.000000000000000
 11
50.00000000000158
 21
84.76410161513694
 31
0.000000000000000
  0
ARC
  5
151
100
AcDbEntity
  8
A1
  6
CONTINUOUS
 62
7
100
AcDbCircle
 10
52.00000000000182
 20
84.76410161514104
 30
0.000000000000000
 40
2.000000000000000
100
AcDbArc
 50
180.0000000000554
 51
240.0000000000566
  0
LINE
  5
152
100
AcDbEntity
  8
A1
  6
CONTINUOUS
 62
7
100
AcDbLine
 10
50.00000000000541
 20
80.30000000000148
 30
0.000000000000000
 11
50.00000000002724
 21
57.29999999999966
 31
0.000000000000000
  0
LINE
  5
153
100
AcDbEntity
  8
A1
  6
CONTINUOUS
 62
7
100
AcDbLine
 10
52.50000000000634
 20
80.30000000000247
 30
0.000000000000000
 11
52.50000000001725
 21
57.30000000000247
 31
0.000000000000000
  0
LINE
  5
154
100
AcDbEntity
  8
A1
  6
CONTINUOUS
 62
7
100
AcDbLine
 10
50.00000000002842
 20
57.29999999999825
 30
0.000000000000000
 11
52.50000000001751
 21
57.30000000000075
 31
0.000000000000000
  0
ARC
  5
155
100
AcDbEntity
  8
A1
  6
CONTINUOUS
 62
7
100
AcDbCircle
 10
52.00000000002910
 20
56.30000000000109
 30
0.000000000000000
 40
1.000000000000000
100
AcDbArc
 50
300.0000000000687
 51
450.0000000000521
  0
LINE
  5
156
100
AcDbEntity
  8
A1
  6
CONTINUOUS
 62
7
100
AcDbLine
 10
51.00000000003093
 20
54.56794919243225
 30
0.000000000000000
 11
52.50000000002914
 21
55.43397459621835
 31
0.000000000000000
  0
LINE
  5
157
100
AcDbEntity
  8
A1
  6
CONTINUOUS
 62
7
100
AcDbLine
 10
50.00000000003458
 20
49.99999999999922
 30
0.000000000000000
 11
50.00000000003185
 21
52.83589838486400
 31
0.000000000000000
  0
ARC
  5
158
100
AcDbEntity
  8
A1
  6
CONTINUOUS
 62
7
100
AcDbCircle
 10
52.00000000003274
 20
52.83589838486478
 30
0.000000000000000
 40
2.000000000000000
100
AcDbArc
 50
120.0000000000517
 51
180.0000000000554
  0
LINE
  5
159
100
AcDbEntity
  8
A1
  6
CONTINUOUS
 62
7
100
AcDbLine
 10
472.0000000000018
 20
50.00000000000191
 30
0.000000000000000
 11
472.0000000000034
 21
42.35000000000046
 31
0.000000000000000
  0
LINE
  5
15A
100
AcDbEntity
  8
A4
  6
CENTER
 62
1
100
AcDbLine
 10
81.79999999999927
 20
78.89999999999964
 30
0.000000000000000
 11
81.79999999999927
 21
58.69999999999891
 31
0.000000000000000
  0
LINE
  5
15B
100
AcDbEntity
  8
A4
  6
CENTER
 62
1
100
AcDbLine
 10
100.8999999999996
 20
79.59999999999854
 30
0.000000000000000
 11
100.8999999999996
 21
58.00000000000000
 31
0.000000000000000
  0
LINE
  5
15C
100
AcDbEntity
  8
A4
  6
CENTER
 62
1
100
AcDbLine
 10
119.8999999999996
 20
79.59999999999854
 30
0.000000000000000
 11
119.8999999999996
 21
58.00000000000000
 31
0.000000000000000
  0
LINE
  5
15D
100
AcDbEntity
  8
A4
  6
CENTER
 62
1
100
AcDbLine
 10
132.5999999999967
 20
78.89999999999964
 30
0.000000000000000
 11
132.5999999999967
 21
58.69999999999891
 31
0.000000000000000
  0
LINE
  5
15E
100
AcDbEntity
  8
A4
  6
CENTER
 62
1
100
AcDbLine
 10
145.3000000000011
 20
79.59999999999854
 30
0.000000000000000
 11
145.3000000000011
 21
58.00000000000000
 31
0.000000000000000
  0
LINE
  5
15F
100
AcDbEntity
  8
A4
  6
CENTER
 62
1
100
AcDbLine
 10
196.1000000000004
 20
78.89999999999964
 30
0.000000000000000
 11
196.1000000000004
 21
58.69999999999891
 31
0.000000000000000
  0
LINE
  5
160
100
AcDbEntity
  8
A4
  6
CENTER
 62
1
100
AcDbLine
 10
208.7999999999993
 20
79.59999999999854
 30
0.000000000000000
 11
208.7999999999993
 21
58.00000000000000
 31
0.000000000000000
  0
LINE
  5
161
100
AcDbEntity
  8
A4
  6
CENTER
 62
1
100
AcDbLine
 10
259.6000000000004
 20
78.89999999999964
 30
0.000000000000000
 11
259.6000000000004
 21
58.69999999999891
 31
0.000000000000000
  0
LINE
  5
162
100
AcDbEntity
  8
A4
  6
CENTER
 62
1
100
AcDbLine
 10
272.2999999999993
 20
79.59999999999854
 30
0.000000000000000
 11
272.2999999999993
 21
58.00000000000000
 31
0.000000000000000
  0
LINE
  5
163
100
AcDbEntity
  8
A4
  6
CENTER
 62
1
100
AcDbLine
 10
291.3999999999996
 20
79.85000000000036
 30
0.000000000000000
 11
291.3999999999996
 21
57.75000000000000
 31
0.000000000000000
  0
LINE
  5
164
100
AcDbEntity
  8
A4
  6
CENTER
 62
1
100
AcDbLine
 10
437.3999999999996
 20
78.89999999999964
 30
0.000000000000000
 11
437.3999999999996
 21
58.69999999999891
 31
0.000000000000000
  0
LINE
  5
165
100
AcDbEntity
  8
A4
  6
CENTER
 62
1
100
AcDbLine
 10
450.0999999999985
 20
79.59999999999854
 30
0.000000000000000
 11
450.0999999999985
 21
58.00000000000000
 31
0.000000000000000
  0
LINE
  5
166
100
AcDbEntity
  8
A4
  6
CENTER
 62
1
100
AcDbLine
 10
539.0000000000000
 20
78.89999999999964
 30
0.000000000000000
 11
539.0000000000000
 21
58.69999999999891
 31
0.000000000000000
  0
LINE
  5
167
100
AcDbEntity
  8
A4
  6
CENTER
 62
1
100
AcDbLine
 10
551.6999999999989
 20
79.59999999999854
 30
0.000000000000000
 11
551.6999999999989
 21
58.00000000000000
 31
0.000000000000000
  0
LINE
  5
168
100
AcDbEntity
  8
A4
  6
CENTER
 62
1
100
AcDbLine
 10
716.7999999999920
 20
79.85000000000036
 30
0.000000000000000
 11
716.7999999999920
 21
57.75000000000000
 31
0.000000000000000
  0
LINE
  5
169
100
AcDbEntity
  8
A4
  6
CENTER
 62
1
100
AcDbLine
 10
734.2999999999956
 20
58.00000000000000
 30
0.000000000000000
 11
734.2999999999956
 21
79.59999999999854
 31
0.000000000000000
  0
LINE
  5
16A
100
AcDbEntity
  8
A4
  6
CENTER
 62
1
100
AcDbLine
 10
794.4999999999854
 20
79.60000000000036
 30
0.000000000000000
 11
794.4999999999854
 21
58.00000000000000
 31
0.000000000000000
  0
LINE
  5
16B
100
AcDbEntity
  8
A4
  6
CENTER
 62
1
100
AcDbLine
 10
807.1999999999862
 20
78.89999999999964
 30
0.000000000000000
 11
807.1999999999862
 21
58.70000000000073
 31
0.000000000000000
  0
LINE
  5
16C
100
AcDbEntity
  8
A4
  6
CENTER
 62
1
100
AcDbLine
 10
819.8999999999924
 20
58.69999999999891
 30
0.000000000000000
 11
819.8999999999924
 21
78.89999999999964
 31
0.000000000000000
  0
LINE
  5
16D
100
AcDbEntity
  8
A4
  6
CENTER
 62
1
100
AcDbLine
 10
30.56468333987510
 20
68.80000000000095
 30
0.000000000000000
 11
7.764683339875070
 21
68.80000000000095
 31
0.000000000000000
  0
ARC
  5
16E
100
AcDbEntity
  8
A1
  6
CONTINUOUS
 62
7
100
AcDbCircle
 10
18.66468333987512
 20
40.36499999999964
 30
0.000000000000000
 40
6.464999999999999
100
AcDbArc
 50
225.0000000000139
 51
325.0646696619304
  0
LINE
  5
16F
100
AcDbEntity
  8
A1
  6
CONTINUOUS
 62
7
100
AcDbLine
 10
16.06468333987475
 20
51.42598846299011
 30
0.000000000000000
 11
16.06468333987498
 21
46.72418694697971
 31
0.000000000000000
  0
ARC
  5
170
100
AcDbEntity
  8
A1
  6
CONTINUOUS
 62
7
100
AcDbCircle
 10
24.06468333987510
 20
48.02500000000086
 30
0.000000000000000
 40
5.674999999999999
100
AcDbArc
 50
65.44387469328805
 51
140.8349970654087
  0
LINE
  5
171
100
AcDbEntity
  8
A1
  6
CONTINUOUS
 62
7
100
AcDbLine
 10
11.76468333987508
 20
41.65764322519712
 30
0.000000000000000
 11
11.76468333987508
 21
95.94235677480461
 31
0.000000000000000
  0
LINE
  5
172
100
AcDbEntity
  8
A1
  6
CONTINUOUS
 62
7
100
AcDbLine
 10
9.264683339875084
 20
41.32627237529695
 30
0.000000000000000
 11
9.264683339875084
 21
96.27372762470478
 31
0.000000000000000
  0
LINE
  5
173
100
AcDbEntity
  8
A1
  6
CONTINUOUS
 62
7
100
AcDbLine
 10
29.06468333987510
 20
51.77055308193084
 30
0.000000000000000
 11
29.06468333987510
 21
85.82944691807089
 31
0.000000000000000
  0
LINE
  5
174
100
AcDbEntity
  8
A1
  6
CONTINUOUS
 62
7
100
AcDbLine
 10
11.76468333987501
 20
41.65764322519728
 30
0.000000000000000
 11
15.86100495247036
 21
37.56132161260025
 31
0.000000000000000
  0
LINE
  5
175
100
AcDbEntity
  8
A1
  6
CONTINUOUS
 62
7
100
AcDbLine
 10
9.762601811857488
 20
40.12419084728020
 30
0.000000000000000
 11
14.09323799950405
 21
35.79355465963062
 31
0.000000000000000
  0
LINE
  5
176
100
AcDbEntity
  8
A1
  6
CONTINUOUS
 62
7
100
AcDbLine
 10
17.86468333987522
 20
57.92132034356095
 30
0.000000000000000
 11
17.86468333987522
 21
79.67867965644101
 31
0.000000000000000
  0
LINE
  5
177
100
AcDbEntity
  8
A1
  6
CONTINUOUS
 62
7
100
AcDbLine
 10
20.36468333987499
 20
57.92132034356095
 30
0.000000000000000
 11
20.36468333987499
 21
79.67867965644101
 31
0.000000000000000
  0
ARC
  5
178
100
AcDbEntity
  8
A1
  6
CONTINUOUS
 62
7
100
AcDbCircle
 10
18.67248887185900
 20
40.36499999999964
 30
0.000000000000000
 40
6.464999999999999
100
AcDbArc
 50
64.34116408558700
 51
109.9462850724337
  0
ARC
  5
179
100
AcDbEntity
  8
A1
  6
CONTINUOUS
 62
7
100
AcDbCircle
 10
15.86468333987499
 20
45.46557613952049
 30
0.000000000000000
 40
2.299999999999999
100
AcDbArc
 50
180.0000000000000
 51
269.8314188142185
  0
ARC
  5
17A
100
AcDbEntity
  8
A1
  6
CONTINUOUS
 62
7
100
AcDbCircle
 10
16.36468333987460
 20
46.72418694697976
 30
0.000000000000000
 40
0.3000000000000000
100
AcDbArc
 50
180.0000000000000
 51
289.9462850724159
  0
LINE
  5
17B
100
AcDbEntity
  8
A1
  6
CONTINUOUS
 62
7
100
AcDbLine
 10
21.28390170767475
 20
49.75000000000058
 30
0.000000000000000
 11
19.66468333987517
 21
50.68485616052767
 31
0.000000000000000
  0
LINE
  5
17C
100
AcDbEntity
  8
A1
  6
CONTINUOUS
 62
7
100
AcDbLine
 10
13.56468333987503
 20
51.42598846299005
 30
0.000000000000000
 11
13.56468333987509
 21
45.46557613952068
 31
0.000000000000000
  0
ARC
  5
17D
100
AcDbEntity
  8
A1
  6
CONTINUOUS
 62
7
100
AcDbCircle
 10
17.36468333987590
 20
51.42598846298992
 30
0.000000000000000
 40
1.299999999999999
100
AcDbArc
 50
134.9999999999982
 51
180.0000000000000
  0
LINE
  5
17E
100
AcDbEntity
  8
A1
  6
CONTINUOUS
 62
7
100
AcDbLine
 10
16.44544452433326
 20
52.34522727853063
 30
0.000000000000000
 11
19.19311046462258
 21
55.09289321881975
 31
0.000000000000000
  0
LINE
  5
17F
100
AcDbEntity
  8
A1
  6
CONTINUOUS
 62
7
100
AcDbLine
 10
14.67767757136667
 20
54.11299423150000
 30
0.000000000000000
 11
17.42534351165667
 21
56.86066017178000
 31
0.000000000000000
  0
ARC
  5
180
100
AcDbEntity
  8
A1
  6
CONTINUOUS
 62
7
100
AcDbCircle
 10
16.36468333987562
 20
57.92132034356095
 30
0.000000000000000
 40
1.499999999999999
100
AcDbArc
 50
315.0000000000169
 51
360.0000000000000
  0
ARC
  5
181
100
AcDbEntity
  8
A1
  6
CONTINUOUS
 62
7
100
AcDbCircle
 10
16.36468333987562
 20
57.92132034356095
 30
0.000000000000000
 40
3.999999999999999
100
AcDbArc
 50
314.9999999999931
 51
360.0000000000000
  0
ARC
  5
182
100
AcDbEntity
  8
A1
  6
CONTINUOUS
 62
7
100
AcDbCircle
 10
17.36468333987494
 20
51.42598846298992
 30
0.000000000000000
 40
3.800000000000001
100
AcDbArc
 50
135.0000000000043
 51
180.0000000000000
  0
ARC
  5
183
100
AcDbEntity
  8
A1
  6
CONTINUOUS
 62
7
100
AcDbCircle
 10
10.96468333987513
 20
41.32627237529695
 30
0.000000000000000
 40
1.700000000000000
100
AcDbArc
 50
180.0000000000000
 51
224.9999999999810
  0
LINE
  5
184
100
AcDbEntity
  8
A1
  6
CONTINUOUS
 62
7
100
AcDbLine
 10
23.96468333987502
 20
37.13159229373409
 30
0.000000000000000
 11
23.96468333987502
 21
36.66280808168958
 31
0.000000000000000
  0
LINE
  5
185
100
AcDbEntity
  8
A1
  6
CONTINUOUS
 62
7
100
AcDbLine
 10
22.04950238969221
 20
38.30000000000083
 30
0.000000000000000
 11
23.96468333987503
 21
37.13159229373397
 31
0.000000000000000
  0
ARC
  5
186
100
AcDbEntity
  8
A1
  6
CONTINUOUS
 62
7
100
AcDbCircle
 10
24.06468333987510
 20
48.02500000000086
 30
0.000000000000000
 40
5.674999999999999
100
AcDbArc
 50
246.0925117444462
 51
320.5510832248698
  0
LINE
  5
187
100
AcDbEntity
  8
A1
  6
CONTINUOUS
 62
7
100
AcDbLine
 10
28.44686945081041
 20
44.41916169398562
 30
0.000000000000000
 11
26.52173974848142
 21
46.01415470388110
 31
0.000000000000000
  0
LINE
  5
188
100
AcDbEntity
  8
A1
  6
CONTINUOUS
 62
7
100
AcDbLine
 10
19.66468333987523
 20
51.60907937970237
 30
0.000000000000000
 11
19.66468333987523
 21
50.68485616052780
 31
0.000000000000000
  0
LINE
  5
189
100
AcDbEntity
  8
A1
  6
CONTINUOUS
 62
7
100
AcDbLine
 10
21.39916275282280
 20
49.75000000000077
 30
0.000000000000000
 11
21.28390170767482
 21
49.75000000000077
 31
0.000000000000000
  0
ARC
  5
18A
100
AcDbEntity
  8
A1
  6
CONTINUOUS
 62
7
100
AcDbCircle
 10
27.29413025794519
 20
51.77055308193084
 30
0.000000000000000
 40
1.770553081929961
100
AcDbArc
 50
229.2318156757769
 51
360.0000000000018
  0
ARC
  5
18B
100
AcDbEntity
  8
A1
  6
CONTINUOUS
 62
7
100
AcDbCircle
 10
26.46468333987513
 20
53.27767788846890
 30
0.000000000000000
 40
0.1000000000000000
100
AcDbArc
 50
245.4438746932937
 51
360.0000000000000
  0
ARC
  5
18C
100
AcDbEntity
  8
A1
  6
CONTINUOUS
 62
7
100
AcDbCircle
 10
18.66468333987512
 20
97.23500000000232
 30
0.000000000000000
 40
6.464999999999999
100
AcDbArc
 50
34.93533033806960
 51
134.9999999999861
  0
LINE
  5
18D
100
AcDbEntity
  8
A1
  6
CONTINUOUS
 62
7
100
AcDbLine
 10
16.06468333987479
 20
86.17401153701203
 30
0.000000000000000
 11
16.06468333987501
 21
90.87581305302197
 31
0.000000000000000
  0
ARC
  5
18E
100
AcDbEntity
  8
A1
  6
CONTINUOUS
 62
7
100
AcDbCircle
 10
24.06468333987510
 20
89.57500000000087
 30
0.000000000000000
 40
5.674999999999999
100
AcDbArc
 50
219.1650029345913
 51
294.5561253067119
  0
LINE
  5
18F
100
AcDbEntity
  8
A1
  6
CONTINUOUS
 62
7
100
AcDbLine
 10
11.76468333987496
 20
95.94235677480447
 30
0.000000000000000
 11
15.86100495247042
 21
100.0386783874014
 31
0.000000000000000
  0
LINE
  5
190
100
AcDbEntity
  8
A1
  6
CONTINUOUS
 62
7
100
AcDbLine
 10
9.762601811857749
 20
97.47580915272140
 30
0.000000000000000
 11
14.09323799950431
 21
101.8064453403708
 31
0.000000000000000
  0
ARC
  5
191
100
AcDbEntity
  8
A1
  6
CONTINUOUS
 62
7
100
AcDbCircle
 10
18.67248887185900
 20
97.23500000000232
 30
0.000000000000000
 40
6.464999999999999
100
AcDbArc
 50
250.0537149275663
 51
295.6588359144130
  0
ARC
  5
192
100
AcDbEntity
  8
A1
  6
CONTINUOUS
 62
7
100
AcDbCircle
 10
15.86468333987499
 20
92.13442386048146
 30
0.000000000000000
 40
2.299999999999999
100
AcDbArc
 50
90.16858118578155
 51
180.0000000000000
  0
ARC
  5
193
100
AcDbEntity
  8
A1
  6
CONTINUOUS
 62
7
100
AcDbCircle
 10
16.36468333987460
 20
90.87581305302220
 30
0.000000000000000
 40
0.3000000000000000
100
AcDbArc
 50
70.05371492758402
 51
180.0000000000000
  0
LINE
  5
194
100
AcDbEntity
  8
A1
  6
CONTINUOUS
 62
7
100
AcDbLine
 10
21.28390170767467
 20
87.85000000000107
 30
0.000000000000000
 11
19.66468333987516
 21
86.91514383947433
 31
0.000000000000000
  0
LINE
  5
195
100
AcDbEntity
  8
A1
  6
CONTINUOUS
 62
7
100
AcDbLine
 10
13.56468333987510
 20
86.17401153701202
 30
0.000000000000000
 11
13.56468333987515
 21
92.13442386048122
 31
0.000000000000000
  0
ARC
  5
196
100
AcDbEntity
  8
A1
  6
CONTINUOUS
 62
7
100
AcDbCircle
 10
17.36468333987590
 20
86.17401153701203
 30
0.000000000000000
 40
1.299999999999999
100
AcDbArc
 50
180.0000000000000
 51
225.0000000000018
  0
LINE
  5
197
100
AcDbEntity
  8
A1
  6
CONTINUOUS
 62
7
100
AcDbLine
 10
16.44544452433320
 20
85.25477272147141
 30
0.000000000000000
 11
19.19311046462256
 21
82.50710678118216
 31
0.000000000000000
  0
LINE
  5
198
100
AcDbEntity
  8
A1
  6
CONTINUOUS
 62
7
100
AcDbLine
 10
14.67767757136650
 20
83.48700576850189
 30
0.000000000000000
 11
17.42534351165652
 21
80.73933982822177
 31
0.000000000000000
  0
ARC
  5
199
100
AcDbEntity
  8
A1
  6
CONTINUOUS
 62
7
100
AcDbCircle
 10
16.36468333987562
 20
79.67867965644101
 30
0.000000000000000
 40
1.499999999999999
100
AcDbArc
 50
0.000000000000000
 51
44.99999999998312
  0
ARC
  5
19A
100
AcDbEntity
  8
A1
  6
CONTINUOUS
 62
7
100
AcDbCircle
 10
16.36468333987562
 20
79.67867965644101
 30
0.000000000000000
 40
3.999999999999999
100
AcDbArc
 50
0.000000000000000
 51
45.00000000000691
  0
ARC
  5
19B
100
AcDbEntity
  8
A1
  6
CONTINUOUS
 62
7
100
AcDbCircle
 10
17.36468333987494
 20
86.17401153701203
 30
0.000000000000000
 40
3.800000000000001
100
AcDbArc
 50
180.0000000000000
 51
224.9999999999957
  0
ARC
  5
19C
100
AcDbEntity
  8
A1
  6
CONTINUOUS
 62
7
100
AcDbCircle
 10
10.96468333987513
 20
96.27372762470478
 30
0.000000000000000
 40
1.700000000000000
100
AcDbArc
 50
135.0000000000190
 51
180.0000000000000
  0
LINE
  5
19D
100
AcDbEntity
  8
A1
  6
CONTINUOUS
 62
7
100
AcDbLine
 10
23.96468333987502
 20
100.4684077062679
 30
0.000000000000000
 11
23.96468333987502
 21
100.9371919183126
 31
0.000000000000000
  0
LINE
  5
19E
100
AcDbEntity
  8
A1
  6
CONTINUOUS
 62
7
100
AcDbLine
 10
22.04950238969224
 20
99.30000000000055
 30
0.000000000000000
 11
23.96468333987502
 21
100.4684077062679
 31
0.000000000000000
  0
ARC
  5
19F
100
AcDbEntity
  8
A1
  6
CONTINUOUS
 62
7
100
AcDbCircle
 10
24.06468333987510
 20
89.57500000000087
 30
0.000000000000000
 40
5.674999999999999
100
AcDbArc
 50
39.44891677513021
 51
113.9074882555569
  0
LINE
  5
1A0
100
AcDbEntity
  8
A1
  6
CONTINUOUS
 62
7
100
AcDbLine
 10
28.44686945081050
 20
93.18083830601593
 30
0.000000000000000
 11
26.52173974848155
 21
91.58584529612079
 31
0.000000000000000
  0
LINE
  5
1A1
100
AcDbEntity
  8
A1
  6
CONTINUOUS
 62
7
100
AcDbLine
 10
19.66468333987523
 20
85.99092062029959
 30
0.000000000000000
 11
19.66468333987523
 21
86.91514383947415
 31
0.000000000000000
  0
LINE
  5
1A2
100
AcDbEntity
  8
A1
  6
CONTINUOUS
 62
7
100
AcDbLine
 10
21.39916275282280
 20
87.85000000000096
 30
0.000000000000000
 11
21.28390170767482
 21
87.85000000000096
 31
0.000000000000000
  0
ARC
  5
1A3
100
AcDbEntity
  8
A1
  6
CONTINUOUS
 62
7
100
AcDbCircle
 10
27.29413025794519
 20
85.82944691807089
 30
0.000000000000000
 40
1.770553081929961
100
AcDbArc
 50
359.9999999999982
 51
490.7681843242231
  0
ARC
  5
1A4
100
AcDbEntity
  8
A1
  6
CONTINUOUS
 62
7
100
AcDbCircle
 10
26.46468333987513
 20
84.32232211153305
 30
0.000000000000000
 40
0.1000000000000000
100
AcDbArc
 50
0.000000000000000
 51
114.5561253067063
  0
LINE
  5
1A5
100
AcDbEntity
  8
A1
  6
CONTINUOUS
 62
7
100
AcDbLine
 10
28.56468333987510
 20
49.02500000000086
 30
0.000000000000000
 11
19.36468333987488
 21
49.02500000000086
 31
0.000000000000000
  0
LINE
  5
1A6
100
AcDbEntity
  8
A1
  6
CONTINUOUS
 62
7
100
AcDbLine
 10
28.56468333987510
 20
48.02500000000086
 30
0.000000000000000
 11
28.56468333987510
 21
49.02500000000086
 31
0.000000000000000
  0
LINE
  5
1A7
100
AcDbEntity
  8
A1
  6
CONTINUOUS
 62
7
100
AcDbLine
 10
28.56468333987510
 20
48.02500000000086
 30
0.000000000000000
 11
19.36468333987488
 21
48.02500000000086
 31
0.000000000000000
  0
LINE
  5
1A8
100
AcDbEntity
  8
A1
  6
CONTINUOUS
 62
7
100
AcDbLine
 10
17.36468333987479
 20
51.30172439427822
 30
0.000000000000000
 11
17.36468333987486
 21
50.02500000000084
 31
0.000000000000000
  0
LINE
  5
1A9
100
AcDbEntity
  8
A1
  6
CONTINUOUS
 62
7
100
AcDbLine
 10
18.36468333987479
 20
51.30172439427816
 30
0.000000000000000
 11
18.36468333987486
 21
50.02500000000078
 31
0.000000000000000
  0
ARC
  5
1AA
100
AcDbEntity
  8
A1
  6
CONTINUOUS
 62
7
100
AcDbCircle
 10
19.36468333987488
 20
50.02500000000086
 30
0.000000000000000
 40
1.000000000000000
100
AcDbArc
 50
180.0000000000000
 51
270.0000000000000
  0
ARC
  5
1AB
100
AcDbEntity
  8
A1
  6
CONTINUOUS
 62
7
100
AcDbCircle
 10
19.36468333987488
 20
50.02500000000086
 30
0.000000000000000
 40
2.000000000000000
100
AcDbArc
 50
180.0000000000000
 51
270.0000000000000
  0
LINE
  5
1AC
100
AcDbEntity
  8
A1
  6
CONTINUOUS
 62
7
100
AcDbLine
 10
18.45255130551892
 20
51.51385642863423
 30
0.000000000000000
 11
24.23869487689139
 21
57.30000000000011
 31
0.000000000000000
  0
LINE
  5
1AD
100
AcDbEntity
  8
A1
  6
CONTINUOUS
 62
7
100
AcDbLine
 10
17.74544452433278
 20
52.22096320982116
 30
0.000000000000000
 11
22.83743384026581
 21
57.31295252574841
 31
0.000000000000000
  0
ARC
  5
1AE
100
AcDbEntity
  8
A1
  6
CONTINUOUS
 62
7
100
AcDbCircle
 10
18.66468333987478
 20
51.30172439427812
 30
0.000000000000000
 40
0.3000000000000000
100
AcDbArc
 50
134.9999999999654
 51
180.0000000000000
  0
ARC
  5
1AF
100
AcDbEntity
  8
A1
  6
CONTINUOUS
 62
7
100
AcDbCircle
 10
18.66468333987478
 20
51.30172439427824
 30
0.000000000000000
 40
1.300000000000000
100
AcDbArc
 50
134.9999999999672
 51
180.0000000000000
  0
LINE
  5
1B0
100
AcDbEntity
  8
A1
  6
CONTINUOUS
 62
7
100
AcDbLine
 10
18.45255130551901
 20
86.08614357136756
 30
0.000000000000000
 11
24.23869487689113
 21
80.30000000000203
 31
0.000000000000000
  0
LINE
  5
1B1
100
AcDbEntity
  8
A1
  6
CONTINUOUS
 62
7
100
AcDbLine
 10
17.74544452433267
 20
85.37903679018049
 30
0.000000000000000
 11
22.83743384026607
 21
80.28704747425287
 31
0.000000000000000
  0
LINE
  5
1B2
100
AcDbEntity
  8
A1
  6
CONTINUOUS
 62
7
100
AcDbLine
 10
28.56468333987510
 20
88.57500000000098
 30
0.000000000000000
 11
19.36468333987488
 21
88.57500000000098
 31
0.000000000000000
  0
LINE
  5
1B3
100
AcDbEntity
  8
A1
  6
CONTINUOUS
 62
7
100
AcDbLine
 10
28.56468333987510
 20
89.57500000000098
 30
0.000000000000000
 11
28.56468333987510
 21
88.57500000000098
 31
0.000000000000000
  0
LINE
  5
1B4
100
AcDbEntity
  8
A1
  6
CONTINUOUS
 62
7
100
AcDbLine
 10
28.56468333987510
 20
89.57500000000098
 30
0.000000000000000
 11
19.36468333987488
 21
89.57500000000098
 31
0.000000000000000
  0
ARC
  5
1B5
100
AcDbEntity
  8
A1
  6
CONTINUOUS
 62
7
100
AcDbCircle
 10
19.36468333987488
 20
87.57500000000098
 30
0.000000000000000
 40
2.000000000000000
100
AcDbArc
 50
90.00000000000000
 51
180.0000000000000
  0
ARC
  5
1B6
100
AcDbEntity
  8
A1
  6
CONTINUOUS
 62
7
100
AcDbCircle
 10
19.36468333987488
 20
87.57500000000098
 30
0.000000000000000
 40
1.000000000000000
100
AcDbArc
 50
90.00000000000000
 51
180.0000000000000
  0
LINE
  5
1B7
100
AcDbEntity
  8
A1
  6
CONTINUOUS
 62
7
100
AcDbLine
 10
18.36468333987481
 20
86.29827560572362
 30
0.000000000000000
 11
18.36468333987488
 21
87.57500000000088
 31
0.000000000000000
  0
ARC
  5
1B8
100
AcDbEntity
  8
A1
  6
CONTINUOUS
 62
7
100
AcDbCircle
 10
18.66468333987478
 20
86.29827560572360
 30
0.000000000000000
 40
0.3000000000000000
100
AcDbArc
 50
180.0000000000000
 51
225.0000000000346
  0
LINE
  5
1B9
100
AcDbEntity
  8
A1
  6
CONTINUOUS
 62
7
100
AcDbLine
 10
17.36468333987481
 20
86.29827560572356
 30
0.000000000000000
 11
17.36468333987488
 21
87.57500000000094
 31
0.000000000000000
  0
ARC
  5
1BA
100
AcDbEntity
  8
A1
  6
CONTINUOUS
 62
7
100
AcDbCircle
 10
18.66468333987478
 20
86.29827560572349
 30
0.000000000000000
 40
1.300000000000000
100
AcDbArc
 50
180.0000000000000
 51
225.0000000000328
  0
LINE
  5
1BB
100
AcDbEntity
  8
A1
  6
CONTINUOUS
 62
7
100
AcDbLine
 10
12.26468333987508
 20
43.08154842042828
 30
0.000000000000000
 11
12.26468333987508
 21
53.80000000001220
 31
0.000000000000000
  0
LINE
  5
1BC
100
AcDbEntity
  8
A1
  6
CONTINUOUS
 62
7
100
AcDbLine
 10
13.26468333987508
 20
43.08154842042828
 30
0.000000000000000
 11
13.26468333987508
 21
53.80000000001220
 31
0.000000000000000
  0
LINE
  5
1BD
100
AcDbEntity
  8
A1
  6
CONTINUOUS
 62
7
100
AcDbLine
 10
14.04824372593696
 20
42.10525241330828
 30
0.000000000000000
 11
24.26468333987443
 21
39.84032227968446
 31
0.000000000000000
  0
LINE
  5
1BE
100
AcDbEntity
  8
A1
  6
CONTINUOUS
 62
7
100
AcDbLine
 10
13.83180411199894
 20
41.12895640618854
 30
0.000000000000000
 11
24.04824372593635
 21
38.86402627256472
 31
0.000000000000000
  0
ARC
  5
1BF
100
AcDbEntity
  8
A1
  6
CONTINUOUS
 62
7
100
AcDbCircle
 10
14.26468333987508
 20
43.08154842042828
 30
0.000000000000000
 40
1.000000000000000
100
AcDbArc
 50
180.0000000000000
 51
257.4999999999999
  0
ARC
  5
1C0
100
AcDbEntity
  8
A1
  6
CONTINUOUS
 62
7
100
AcDbCircle
 10
14.26468333987508
 20
43.08154842042828
 30
0.000000000000000
 40
2.000000000000000
100
AcDbArc
 50
180.0000000000000
 51
257.5000000000001
  0
LINE
  5
1C1
100
AcDbEntity
  8
A1
  6
CONTINUOUS
 62
7
100
AcDbLine
 10
24.04824372593628
 20
38.86402627256469
 30
0.000000000000000
 11
24.26468333987440
 21
39.84032227968462
 31
0.000000000000000
  0
LINE
  5
1C2
100
AcDbEntity
  8
A1
  6
CONTINUOUS
 62
7
100
AcDbLine
 10
13.26468333986381
 20
53.80000000000094
 30
0.000000000000000
 11
14.67889690224768
 21
55.21421356238480
 31
0.000000000000000
  0
LINE
  5
1C3
100
AcDbEntity
  8
A1
  6
CONTINUOUS
 62
7
100
AcDbLine
 10
12.55757655867717
 20
54.50710678118752
 30
0.000000000000000
 11
13.97179012106106
 21
55.92132034357140
 31
0.000000000000000
  0
ARC
  5
1C4
100
AcDbEntity
  8
A1
  6
CONTINUOUS
 62
7
100
AcDbCircle
 10
13.26468333987508
 20
53.80000000001220
 30
0.000000000000000
 40
1.000000000000000
100
AcDbArc
 50
134.9999999999994
 51
180.0000000000000
  0
LINE
  5
1C5
100
AcDbEntity
  8
A1
  6
CONTINUOUS
 62
7
100
AcDbLine
 10
15.97681537423110
 20
62.71213203435686
 30
0.000000000000000
 11
13.85046977749095
 21
60.58578643761747
 31
0.000000000000000
  0
LINE
  5
1C6
100
AcDbEntity
  8
A1
  6
CONTINUOUS
 62
7
100
AcDbLine
 10
16.68392215541755
 20
62.00502525317025
 30
0.000000000000000
 11
14.55757655867734
 21
59.87867965643076
 31
0.000000000000000
  0
ARC
  5
1C7
100
AcDbEntity
  8
A1
  6
CONTINUOUS
 62
7
100
AcDbCircle
 10
15.76468333987520
 20
62.92426406871286
 30
0.000000000000000
 40
0.3000000000000000
100
AcDbArc
 50
314.9999999999885
 51
360.0000000000000
  0
ARC
  5
1C8
100
AcDbEntity
  8
A1
  6
CONTINUOUS
 62
7
100
AcDbCircle
 10
15.76468333987520
 20
62.92426406871286
 30
0.000000000000000
 40
1.300000000000000
100
AcDbArc
 50
314.9999999999903
 51
360.0000000000000
  0
ARC
  5
1C9
100
AcDbEntity
  8
A1
  6
CONTINUOUS
 62
7
100
AcDbCircle
 10
15.26468333986377
 20
59.17157287524410
 30
0.000000000000000
 40
2.000000000000000
100
AcDbArc
 50
134.9999999999902
 51
209.8279761925665
  0
ARC
  5
1CA
100
AcDbEntity
  8
A1
  6
CONTINUOUS
 62
7
100
AcDbCircle
 10
15.26468333986377
 20
59.17157287524410
 30
0.000000000000000
 40
1.000000000000000
100
AcDbArc
 50
134.9999999999902
 51
209.8279761925667
  0
ARC
  5
1CB
100
AcDbEntity
  8
A1
  6
CONTINUOUS
 62
7
100
AcDbCircle
 10
13.26468333987452
 20
56.62842712475785
 30
0.000000000000000
 40
2.000000000000000
100
AcDbArc
 50
315.0000000000000
 51
389.8279761925668
  0
ARC
  5
1CC
100
AcDbEntity
  8
A1
  6
CONTINUOUS
 62
7
100
AcDbCircle
 10
13.26468333987452
 20
56.62842712475785
 30
0.000000000000000
 40
1.000000000000000
100
AcDbArc
 50
315.0000000000006
 51
389.8279761925668
  0
LINE
  5
1CD
100
AcDbEntity
  8
A1
  6
CONTINUOUS
 62
7
100
AcDbLine
 10
13.52963796157823
 20
58.17677765245219
 30
0.000000000000000
 11
14.13220602901741
 21
57.12582473615386
 31
0.000000000000000
  0
LINE
  5
1CE
100
AcDbEntity
  8
A1
  6
CONTINUOUS
 62
7
100
AcDbLine
 10
14.99972871816018
 20
57.62322234754980
 30
0.000000000000000
 11
14.39716065072100
 21
58.67417526384814
 31
0.000000000000000
  0
LINE
  5
1CF
100
AcDbEntity
  8
A1
  6
CONTINUOUS
 62
7
100
AcDbLine
 10
12.26468333987508
 20
94.51845157957351
 30
0.000000000000000
 11
12.26468333987508
 21
83.79999999998952
 31
0.000000000000000
  0
LINE
  5
1D0
100
AcDbEntity
  8
A1
  6
CONTINUOUS
 62
7
100
AcDbLine
 10
13.26468333987508
 20
94.51845157957351
 30
0.000000000000000
 11
13.26468333987508
 21
83.79999999998952
 31
0.000000000000000
  0
LINE
  5
1D1
100
AcDbEntity
  8
A1
  6
CONTINUOUS
 62
7
100
AcDbLine
 10
14.04824372593697
 20
95.49474758669345
 30
0.000000000000000
 11
24.26468333987443
 21
97.75967772031726
 31
0.000000000000000
  0
LINE
  5
1D2
100
AcDbEntity
  8
A1
  6
CONTINUOUS
 62
7
100
AcDbLine
 10
13.83180411199889
 20
96.47104359381321
 30
0.000000000000000
 11
24.04824372593630
 21
98.73597372743703
 31
0.000000000000000
  0
ARC
  5
1D3
100
AcDbEntity
  8
A1
  6
CONTINUOUS
 62
7
100
AcDbCircle
 10
14.26468333987508
 20
94.51845157957351
 30
0.000000000000000
 40
1.000000000000000
100
AcDbArc
 50
102.5000000000001
 51
180.0000000000000
  0
ARC
  5
1D4
100
AcDbEntity
  8
A1
  6
CONTINUOUS
 62
7
100
AcDbCircle
 10
14.26468333987508
 20
94.51845157957351
 30
0.000000000000000
 40
2.000000000000000
100
AcDbArc
 50
102.4999999999999
 51
180.0000000000000
  0
LINE
  5
1D5
100
AcDbEntity
  8
A1
  6
CONTINUOUS
 62
7
100
AcDbLine
 10
24.04824372593624
 20
98.73597372743717
 30
0.000000000000000
 11
24.26468333987435
 21
97.75967772031723
 31
0.000000000000000
  0
LINE
  5
1D6
100
AcDbEntity
  8
A1
  6
CONTINUOUS
 62
7
100
AcDbLine
 10
13.26468333986369
 20
83.80000000000081
 30
0.000000000000000
 11
14.67889690224757
 21
82.38578643761694
 31
0.000000000000000
  0
LINE
  5
1D7
100
AcDbEntity
  8
A1
  6
CONTINUOUS
 62
7
100
AcDbLine
 10
12.55757655867716
 20
83.09289321881423
 30
0.000000000000000
 11
13.97179012106099
 21
81.67867965643040
 31
0.000000000000000
  0
ARC
  5
1D8
100
AcDbEntity
  8
A1
  6
CONTINUOUS
 62
7
100
AcDbCircle
 10
13.26468333987508
 20
83.79999999998952
 30
0.000000000000000
 40
1.000000000000000
100
AcDbArc
 50
180.0000000000000
 51
225.0000000000006
  0
LINE
  5
1D9
100
AcDbEntity
  8
A1
  6
CONTINUOUS
 62
7
100
AcDbLine
 10
15.97681537423105
 20
74.88786796564493
 30
0.000000000000000
 11
13.85046977749093
 21
77.01421356238430
 31
0.000000000000000
  0
LINE
  5
1DA
100
AcDbEntity
  8
A1
  6
CONTINUOUS
 62
7
100
AcDbLine
 10
16.68392215541746
 20
75.59497474683144
 30
0.000000000000000
 11
14.55757655867725
 21
77.72132034357091
 31
0.000000000000000
  0
ARC
  5
1DB
100
AcDbEntity
  8
A1
  6
CONTINUOUS
 62
7
100
AcDbCircle
 10
15.76468333987520
 20
74.67573593128887
 30
0.000000000000000
 40
0.3000000000000000
100
AcDbArc
 50
0.000000000000000
 51
45.00000000001150
  0
ARC
  5
1DC
100
AcDbEntity
  8
A1
  6
CONTINUOUS
 62
7
100
AcDbCircle
 10
15.76468333987520
 20
74.67573593128887
 30
0.000000000000000
 40
1.300000000000000
100
AcDbArc
 50
0.000000000000000
 51
45.00000000000972
  0
ARC
  5
1DD
100
AcDbEntity
  8
A1
  6
CONTINUOUS
 62
7
100
AcDbCircle
 10
15.26468333986377
 20
78.42842712475763
 30
0.000000000000000
 40
2.000000000000000
100
AcDbArc
 50
150.1720238074335
 51
225.0000000000098
  0
ARC
  5
1DE
100
AcDbEntity
  8
A1
  6
CONTINUOUS
 62
7
100
AcDbCircle
 10
15.26468333986377
 20
78.42842712475763
 30
0.000000000000000
 40
1.000000000000000
100
AcDbArc
 50
150.1720238074333
 51
225.0000000000098
  0
ARC
  5
1DF
100
AcDbEntity
  8
A1
  6
CONTINUOUS
 62
7
100
AcDbCircle
 10
13.26468333987452
 20
80.97157287524388
 30
0.000000000000000
 40
2.000000000000000
100
AcDbArc
 50
330.1720238074332
 51
404.9999999999999
  0
ARC
  5
1E0
100
AcDbEntity
  8
A1
  6
CONTINUOUS
 62
7
100
AcDbCircle
 10
13.26468333987452
 20
80.97157287524388
 30
0.000000000000000
 40
1.000000000000000
100
AcDbArc
 50
330.1720238074332
 51
404.9999999999994
  0
LINE
  5
1E1
100
AcDbEntity
  8
A1
  6
CONTINUOUS
 62
7
100
AcDbLine
 10
13.52963796157826
 20
79.42322234754971
 30
0.000000000000000
 11
14.13220602901744
 21
80.47417526384805
 31
0.000000000000000
  0
LINE
  5
1E2
100
AcDbEntity
  8
A1
  6
CONTINUOUS
 62
7
100
AcDbLine
 10
14.99972871816023
 20
79.97677765245210
 30
0.000000000000000
 11
14.39716065072105
 21
78.92582473615376
 31
0.000000000000000
  0
LINE
  5
1E3
100
AcDbEntity
  8
A1
  6
CONTINUOUS
 62
7
100
AcDbLine
 10
17.06468333987521
 20
62.92426406871286
 30
0.000000000000000
 11
17.06468333987521
 21
74.67573593128887
 31
0.000000000000000
  0
LINE
  5
1E4
100
AcDbEntity
  8
A1
  6
CONTINUOUS
 62
7
100
AcDbLine
 10
16.06468333987521
 20
62.92426406871286
 30
0.000000000000000
 11
16.06468333987521
 21
74.67573593128887
 31
0.000000000000000
  0
ARC
  5
1E5
100
AcDbEntity
  8
A1
  6
CONTINUOUS
 62
7
100
AcDbCircle
 10
18.66468333987512
 20
40.36499999999964
 30
0.000000000000000
 40
3.964999999999999
100
AcDbArc
 50
357.6659397403221
 51
517.3340602596779
  0
ARC
  5
1E6
100
AcDbEntity
  8
A1
  6
CONTINUOUS
 62
7
100
AcDbCircle
 10
18.66468333987512
 20
40.36499999999964
 30
0.000000000000000
 40
3.964999999999999
100
AcDbArc
 50
171.8418556335158
 51
343.1581443664844
  0
ARC
  5
1E7
100
AcDbEntity
  8
A1
  6
CONTINUOUS
 62
7
100
AcDbCircle
 10
24.06468333987510
 20
48.02500000000086
 30
0.000000000000000
 40
3.174999999999999
100
AcDbArc
 50
180.0000000000000
 51
360.0000000000000
  0
ARC
  5
1E8
100
AcDbEntity
  8
A1
  6
CONTINUOUS
 62
7
100
AcDbCircle
 10
24.06468333987510
 20
48.02500000000086
 30
0.000000000000000
 40
3.174999999999999
100
AcDbArc
 50
18.35843707533010
 51
161.6415629246699
  0
ARC
  5
1E9
100
AcDbEntity
  8
A1
  6
CONTINUOUS
 62
7
100
AcDbCircle
 10
24.06468333987510
 20
89.57500000000087
 30
0.000000000000000
 40
3.174999999999999
100
AcDbArc
 50
198.3584370753279
 51
341.6415629246720
  0
ARC
  5
1EA
100
AcDbEntity
  8
A1
  6
CONTINUOUS
 62
7
100
AcDbCircle
 10
24.06468333987510
 20
89.57500000000087
 30
0.000000000000000
 40
3.174999999999999
100
AcDbArc
 50
0.000000000000000
 51
180.0000000000000
  0
ARC
  5
1EB
100
AcDbEntity
  8
A1
  6
CONTINUOUS
 62
7
100
AcDbCircle
 10
18.66468333987512
 20
97.23500000000232
 30
0.000000000000000
 40
3.964999999999999
100
AcDbArc
 50
16.84185563351389
 51
188.1581443664863
  0
ARC
  5
1EC
100
AcDbEntity
  8
A1
  6
CONTINUOUS
 62
7
100
AcDbCircle
 10
18.66468333987512
 20
97.23500000000232
 30
0.000000000000000
 40
3.964999999999999
100
AcDbArc
 50
202.6659397403229
 51
362.3340602596767
  0
SPLINE
  5
1ED
100
AcDbEntity
  8
A1
  6
CONTINUOUS
 62
7
100
AcDbSpline
210
0.000000000000000
220
0.000000000000000
230
1.000000000000000
 70
     8
 71
     3
 72
    12
 73
     8
 74
     0
 42
1.000000000000000e-07
 43
1.000000000000000e-07
 12
-0.8305197130903252
 22
0.5569892334292490
 32
0.000000000000000
 13
-0.9922250698291464
 23
0.1244564616836215
 33
0.000000000000000
 40
0.000000000000000
 40
0.000000000000000
 40
0.000000000000000
 40
0.000000000000000
 40
0.1476387386511086
 40
0.2822857224892344
 40
0.4255565306639177
 40
0.5380608954054843
 40
0.6041930190001804
 40
0.6041930190001804
 40
0.6041930190001804
 40
0.6041930190001804
 10
1770.685786999990
 20
157.7030307017662
 30
0.000000000000000
 10
1770.644914705701
 20
157.7304417643881
 30
0.000000000000000
 10
1770.566175697367
 20
157.7819184120635
 30
0.000000000000000
 10
1770.446545487475
 20
157.8583698610373
 30
0.000000000000000
 10
1770.333949714882
 20
157.9230365721768
 30
0.000000000000000
 10
1770.237732463937
 20
157.9726974328295
 30
0.000000000000000
 10
1770.178786692816
 20
157.9841355700327
 30
0.000000000000000
 10
1770.156914042499
 20
157.9868790934015
 30
0.000000000000000
  0
ARC
  5
1EE
100
AcDbEntity
  8
A1
  6
CONTINUOUS
 62
7
100
AcDbCircle
 10
1770.099999999991
 20
155.4868790934010
 30
0.000000000000000
 40
2.500000000000000
100
AcDbArc
 50
0.000000000000000
 51
36.86992168959740
  0
ARC
  5
1EF
100
AcDbEntity
  8
A1
  6
CONTINUOUS
 62
7
100
AcDbCircle
 10
1770.099999999991
 20
155.4868790934005
 30
0.000000000000000
 40
2.500000000000735
100
AcDbArc
 50
36.86992168960961
 51
88.73278272353667
  0
ARC
  5
1F0
100
AcDbEntity
  8
A1
  6
CONTINUOUS
 62
7
100
AcDbCircle
 10
1769.745300624690
 20
156.2868790934012
 30
0.000000000000000
 40
1.699999999999980
100
AcDbArc
 50
45.00000000001349
 51
56.41129919730653
  0
ARC
  5
1F1
100
AcDbEntity
  8
A1
  6
CONTINUOUS
 62
7
100
AcDbCircle
 10
1770.599996277833
 20
155.0079141076230
 30
0.000000000000000
 40
2.000003722157540
100
AcDbArc
 50
0.000000000000000
 51
44.99993810155822
  0
LINE
  5
1F2
100
AcDbEntity
  8
A1
  6
CONTINUOUS
 62
7
100
AcDbLine
 10
1770.099999999991
 20
137.4868790934013
 30
0.000000000000000
 11
1770.099999999991
 21
142.4868790934013
 31
0.000000000000000
  0
LINE
  5
1F3
100
AcDbEntity
  8
A1
  6
CONTINUOUS
 62
7
100
AcDbLine
 10
1772.599999999991
 20
142.4868790934013
 30
0.000000000000000
 11
1772.599999999991
 21
137.4868790934013
 31
0.000000000000000
  0
LINE
  5
1F4
100
AcDbEntity
  8
A1
  6
CONTINUOUS
 62
7
100
AcDbLine
 10
1772.599999999991
 20
137.4868790934013
 30
0.000000000000000
 11
1770.099999999991
 21
137.4868790934013
 31
0.000000000000000
  0
LINE
  5
1F5
100
AcDbEntity
  8
A1
  6
CONTINUOUS
 62
7
100
AcDbLine
 10
1770.099999999991
 20
142.4868790934017
 30
0.000000000000000
 11
1770.099999999991
 21
143.2868790933982
 31
0.000000000000000
  0
LINE
  5
1F6
100
AcDbEntity
  8
A1
  6
CONTINUOUS
 62
7
100
AcDbLine
 10
1772.599999999991
 20
155.0079151076273
 30
0.000000000000000
 11
1772.599999999991
 21
155.4868790934013
 31
0.000000000000000
  0
LINE
  5
1F7
100
AcDbEntity
  8
A1
  6
CONTINUOUS
 62
7
100
AcDbLine
 10
1772.599999999991
 20
142.4868790934013
 30
0.000000000000000
 11
1772.599999999991
 21
143.2868790933979
 31
0.000000000000000
  0
LINE
  5
1F8
100
AcDbEntity
  8
A1
  6
CONTINUOUS
 62
7
100
AcDbLine
 10
1770.099999999991
 20
142.4868790934013
 30
0.000000000000000
 11
1772.599999999991
 21
142.4868790934013
 31
0.000000000000000
  0
LINE
  5
1F9
100
AcDbEntity
  8
A1
  6
CONTINUOUS
 62
7
100
AcDbLine
 10
1772.099999370527
 20
156.3307918837434
 30
0.000000000000000
 11
1772.099999370527
 21
156.9868799326867
 31
0.000000000000000
  0
LINE
  5
1FA
100
AcDbEntity
  8
A1
  6
CONTINUOUS
 62
7
100
AcDbLine
 10
908.9999999999912
 20
157.4889606214191
 30
0.000000000000000
 11
908.9999999999912
 21
157.9868790934019
 31
0.000000000000000
  0
LINE
  5
1FB
100
AcDbEntity
  8
A1
  6
CONTINUOUS
 62
7
100
AcDbLine
 10
1770.156914042499
 20
157.9868790934018
 30
0.000000000000000
 11
908.9999999999912
 21
157.9868790934019
 31
0.000000000000000
  0
LINE
  5
1FC
100
AcDbEntity
  8
A1
  6
CONTINUOUS
 62
7
100
AcDbLine
 10
908.9999999999912
 20
153.1583244337688
 30
0.000000000000000
 11
908.9999999999912
 21
157.4889606214191
 31
0.000000000000000
  0
LINE
  5
1FD
100
AcDbEntity
  8
A1
  6
CONTINUOUS
 62
7
100
AcDbLine
 10
1772.599999999991
 20
153.1583244337688
 30
0.000000000000000
 11
1772.599999999991
 21
155.0079141076233
 31
0.000000000000000
  0
LINE
  5
1FE
100
AcDbEntity
  8
A1
  6
CONTINUOUS
 62
7
100
AcDbLine
 10
1772.014213999990
 20
156.4221287741351
 30
0.000000000000000
 11
1770.947382152707
 21
157.4889606214188
 31
0.000000000000000
  0
LINE
  5
1FF
100
AcDbEntity
  8
A1
  6
CONTINUOUS
 62
7
100
AcDbLine
 10
1770.947382152707
 20
157.4889606214188
 30
0.000000000000000
 11
908.9999999999915
 21
157.4889606214187
 31
0.000000000000000
  0
LINE
  5
200
100
AcDbEntity
  8
A1
  6
CONTINUOUS
 62
7
100
AcDbLine
 10
908.9999999999912
 20
143.2868790933979
 30
0.000000000000000
 11
908.9999999999912
 21
153.1583244337688
 31
0.000000000000000
  0
LINE
  5
201
100
AcDbEntity
  8
A1
  6
CONTINUOUS
 62
7
100
AcDbLine
 10
1772.599999999991
 20
143.2868790933976
 30
0.000000000000000
 11
908.9999999999915
 21
143.2868790933976
 31
0.000000000000000
  0
LINE
  5
202
100
AcDbEntity
  8
A1
  6
CONTINUOUS
 62
7
100
AcDbLine
 10
1772.599999999991
 20
143.2868790933979
 30
0.000000000000000
 11
1772.599999999991
 21
153.1583244337688
 31
0.000000000000000
  0
LINE
  5
203
100
AcDbEntity
  8
A1
  6
CONTINUOUS
 62
7
100
AcDbLine
 10
1772.599999999991
 20
153.1583244337685
 30
0.000000000000000
 11
908.9999999999915
 21
153.1583244337685
 31
0.000000000000000
  0
SPLINE
  5
204
100
AcDbEntity
  8
A1
  6
CONTINUOUS
 62
7
100
AcDbSpline
210
0.000000000000000
220
0.000000000000000
230
1.000000000000000
 70
     8
 71
     3
 72
    17
 73
    13
 74
     0
 42
1.000000000000000e-07
 43
1.000000000000000e-07
 12
-0.007049927406114875
 22
-0.9999751489519895
 32
0.000000000000000
 13
0.9999995238531483
 23
0.0009758660589795909
 33
0.000000000000000
 40
0.000000000000000
 40
0.000000000000000
 40
0.000000000000000
 40
0.000000000000000
 40
0.2816393116382698
 40
0.5634931201143207
 40
0.8349480651394281
 40
1.117917651600750
 40
1.392672024345146
 40
1.687069308203061
 40
1.989579451103300
 40
2.312133100972360
 40
2.570875769953866
 40
2.836914172937094
 40
2.836914172937094
 40
2.836914172937094
 40
2.836914172937094
 10
471.9999999999916
 20
140.3555050791028
 30
0.000000000000000
 10
471.9993381544243
 20
140.2616276415674
 30
0.000000000000000
 10
472.0158280920884
 20
140.0732778299311
 30
0.000000000000000
 10
472.0915416407863
 20
139.8035709972582
 30
0.000000000000000
 10
472.2226344818612
 20
139.5551626485284
 30
0.000000000000000
 10
472.4017883194135
 20
139.3419764645695
 30
0.000000000000000
 10
472.6246660030745
 20
139.1634626709919
 30
0.000000000000000
 10
472.8801633916862
 20
139.0224611000285
 30
0.000000000000000
 10
473.1681988877551
 20
138.9150822820747
 30
0.000000000000000
 10
473.4558316078271
 20
138.8479691212519
 30
0.000000000000000
 10
473.7362933643560
 20
138.8121001303315
 30
0.000000000000000
 10
473.9113205745550
 20
138.8046064431769
 30
0.000000000000000
 10
473.9999999999916
 20
138.8046929824595
 30
0.000000000000000
  0
LINE
  5
205
100
AcDbEntity
  8
A1
  6
CONTINUOUS
 62
7
100
AcDbLine
 10
471.9999999999917
 20
151.3858505384041
 30
0.000000000000000
 11
471.9999999999917
 21
153.6868790933953
 31
0.000000000000000
  0
LINE
  5
206
100
AcDbEntity
  8
A1
  6
CONTINUOUS
 62
7
100
AcDbLine
 10
908.9999999999910
 20
153.6868790933951
 30
0.000000000000000
 11
471.9999999999915
 21
153.6868790933950
 31
0.000000000000000
  0
LINE
  5
207
100
AcDbEntity
  8
A1
  6
CONTINUOUS
 62
7
100
AcDbLine
 10
471.9999999999917
 20
151.3858505384036
 30
0.000000000000000
 11
471.9999999999917
 21
145.4746949765980
 31
0.000000000000000
  0
LINE
  5
208
100
AcDbEntity
  8
A1
  6
CONTINUOUS
 62
7
100
AcDbLine
 10
908.9999999999912
 20
151.3858505384040
 30
0.000000000000000
 11
471.9999999999917
 21
151.3858505384041
 31
0.000000000000000
  0
LINE
  5
209
100
AcDbEntity
  8
A1
  6
CONTINUOUS
 62
7
100
AcDbLine
 10
471.9999999999917
 20
140.3555050791032
 30
0.000000000000000
 11
471.9999999999917
 21
145.4746949765980
 31
0.000000000000000
  0
LINE
  5
20A
100
AcDbEntity
  8
A1
  6
CONTINUOUS
 62
7
100
AcDbLine
 10
1324.199999999991
 20
138.8046929824598
 30
0.000000000000000
 11
473.9999999999917
 21
138.8046929824599
 31
0.000000000000000
  0
LINE
  5
20B
100
AcDbEntity
  8
A1
  6
CONTINUOUS
 62
7
100
AcDbLine
 10
1324.199999999991
 20
138.8046929824598
 30
0.000000000000000
 11
1324.199999999991
 21
143.2868790933993
 31
0.000000000000000
  0
LINE
  5
20C
100
AcDbEntity
  8
A1
  6
CONTINUOUS
 62
7
100
AcDbLine
 10
908.9999999999912
 20
145.4746949765980
 30
0.000000000000000
 11
471.9999999999917
 21
145.4746949765980
 31
0.000000000000000
  0
LINE
  5
20D
100
AcDbEntity
  8
A1
  6
CONTINUOUS
 62
7
100
AcDbLine
 10
1327.199999999993
 20
141.9868790934027
 30
0.000000000000000
 11
1324.199999999991
 21
141.9868790934027
 31
0.000000000000000
  0
LINE
  5
20E
100
AcDbEntity
  8
A1
  6
CONTINUOUS
 62
7
100
AcDbLine
 10
1327.199999999993
 20
143.2868790933993
 30
0.000000000000000
 11
1327.199999999993
 21
141.9868790934027
 31
0.000000000000000
  0
LINE
  5
20F
100
AcDbEntity
  8
A1
  6
CONTINUOUS
 62
7
100
AcDbLine
 10
905.6999999999911
 20
138.1868790934017
 30
0.000000000000000
 11
905.6999999999911
 21
138.8046929824599
 31
0.000000000000000
  0
LINE
  5
210
100
AcDbEntity
  8
A1
  6
CONTINUOUS
 62
7
100
AcDbLine
 10
49.99999999999169
 20
138.1868790934017
 30
0.000000000000000
 11
49.99999999999169
 21
141.1136036083325
 31
0.000000000000000
  0
LINE
  5
211
100
AcDbEntity
  8
A1
  6
CONTINUOUS
 62
7
100
AcDbLine
 10
905.6999999999913
 20
138.1868790934009
 30
0.000000000000000
 11
49.99999999999149
 21
138.1868790934008
 31
0.000000000000000
  0
LINE
  5
212
100
AcDbEntity
  8
A1
  6
CONTINUOUS
 62
7
100
AcDbLine
 10
49.99999999999169
 20
145.9676607256019
 30
0.000000000000000
 11
49.99999999999169
 21
147.5868790934018
 31
0.000000000000000
  0
LINE
  5
213
100
AcDbEntity
  8
A1
  6
CONTINUOUS
 62
7
100
AcDbLine
 10
471.9999999999918
 20
147.5868790934014
 30
0.000000000000000
 11
49.99999999999164
 21
147.5868790934014
 31
0.000000000000000
  0
LINE
  5
214
100
AcDbEntity
  8
A1
  6
CONTINUOUS
 62
7
100
AcDbLine
 10
49.99999999999169
 20
145.8523996804537
 30
0.000000000000000
 11
49.99999999999169
 21
145.9676607256019
 31
0.000000000000000
  0
LINE
  5
215
100
AcDbEntity
  8
A1
  6
CONTINUOUS
 62
7
100
AcDbLine
 10
471.9999999999917
 20
145.9676607256019
 30
0.000000000000000
 11
49.99999999999169
 21
145.9676607256019
 31
0.000000000000000
  0
LINE
  5
216
100
AcDbEntity
  8
A1
  6
CONTINUOUS
 62
7
100
AcDbLine
 10
49.99999999999169
 20
145.8523996804537
 30
0.000000000000000
 11
49.99999999999169
 21
141.1136036083325
 31
0.000000000000000
  0
LINE
  5
217
100
AcDbEntity
  8
A1
  6
CONTINUOUS
 62
7
100
AcDbLine
 10
471.9999999999917
 20
141.1136036083325
 30
0.000000000000000
 11
49.99999999999169
 21
141.1136036083325
 31
0.000000000000000
  0
LINE
  5
218
100
AcDbEntity
  8
A1
  6
CONTINUOUS
 62
7
100
AcDbLine
 10
471.9999999999917
 20
145.8523996804537
 30
0.000000000000000
 11
49.99999999999169
 21
145.8523996804537
 31
0.000000000000000
  0
LINE
  5
219
100
AcDbEntity
  8
A1
  6
CONTINUOUS
 62
7
100
AcDbLine
 10
29.76468333987508
 20
48.79999999999624
 30
0.000000000000000
 11
29.76468333987508
 21
88.79999999999626
 31
0.000000000000000
  0
LINE
  5
21A
100
AcDbEntity
  8
A1
  6
CONTINUOUS
 62
7
100
AcDbLine
 10
12.26468333987508
 20
43.79999999998866
 30
0.000000000000000
 11
11.76468333990609
 21
43.79999999998836
 31
0.000000000000000
  0
LINE
  5
21B
100
AcDbEntity
  8
A1
  6
CONTINUOUS
 62
7
100
AcDbLine
 10
14.27853828868128
 20
43.79999999998989
 30
0.000000000000000
 11
13.26468333987508
 21
43.79999999998927
 31
0.000000000000000
  0
ARC
  5
21C
100
AcDbEntity
  8
A1
  6
CONTINUOUS
 62
7
100
AcDbCircle
 10
24.76468333987508
 20
48.79999999999624
 30
0.000000000000000
 40
5.000000000000000
100
AcDbArc
 50
308.5372679912024
 51
360.0000000000000
  0
ARC
  5
21D
100
AcDbEntity
  8
A1
  6
CONTINUOUS
 62
7
100
AcDbCircle
 10
24.76468333987509
 20
88.79999999999626
 30
0.000000000000000
 40
5.000000000000000
100
AcDbArc
 50
0.000000000000000
 51
51.46273200887926
  0
LINE
  5
21E
100
AcDbEntity
  8
A1
  6
CONTINUOUS
 62
7
100
AcDbLine
 10
12.26468333987508
 20
93.79999999998866
 30
0.000000000000000
 11
11.76468333987577
 21
93.79999999998836
 31
0.000000000000000
  0
LINE
  5
21F
100
AcDbEntity
  8
A1
  6
CONTINUOUS
 62
7
100
AcDbLine
 10
14.27853828865798
 20
93.79999999998988
 30
0.000000000000000
 11
13.26468333987508
 21
93.79999999998927
 31
0.000000000000000
  0
LINE
  5
220
100
AcDbEntity
  8
A1
  6
CONTINUOUS
 62
7
100
AcDbLine
 10
21.06468333987510
 20
59.29999999999941
 30
0.000000000000000
 11
21.06468333987510
 21
78.30000000000183
 31
0.000000000000000
  0
LINE
  5
221
100
AcDbEntity
  8
A1
  6
CONTINUOUS
 62
7
100
AcDbLine
 10
23.06468333987474
 20
80.30000000000183
 30
0.000000000000000
 11
29.06468333987505
 21
80.30000000000291
 31
0.000000000000000
  0
LINE
  5
222
100
AcDbEntity
  8
A1
  6
CONTINUOUS
 62
7
100
AcDbLine
 10
23.06468333987626
 20
57.29999999999941
 30
0.000000000000000
 11
29.06468333987505
 21
57.30000000000291
 31
0.000000000000000
  0
ARC
  5
223
100
AcDbEntity
  8
A1
  6
CONTINUOUS
 62
7
100
AcDbCircle
 10
23.06468333987510
 20
59.29999999999941
 30
0.000000000000000
 40
2.000000000000000
100
AcDbArc
 50
180.0000000000000
 51
270.0000000000000
  0
ARC
  5
224
100
AcDbEntity
  8
A1
  6
CONTINUOUS
 62
7
100
AcDbCircle
 10
23.06468333987510
 20
78.30000000000183
 30
0.000000000000000
 40
2.000000000000000
100
AcDbArc
 50
90.00000000000000
 51
180.0000000000000
  0
LINE
  5
225
100
AcDbEntity
  8
A1
  6
CONTINUOUS
 62
7
100
AcDbLine
 10
26.56468333987504
 20
53.27767788846890
 30
0.000000000000000
 11
26.56468333987504
 21
57.30000000000146
 31
0.000000000000000
  0
LINE
  5
226
100
AcDbEntity
  8
A1
  6
CONTINUOUS
 62
7
100
AcDbLine
 10
26.56468333987504
 20
80.30000000000246
 30
0.000000000000000
 11
26.56468333987504
 21
84.32232211153305
 31
0.000000000000000
  0
LINE
  5
227
100
AcDbEntity
  8
A4
  6
CENTER
 62
1
100
AcDbLine
 10
1798.304421674863
 20
68.80000000000624
 30
0.000000000000000
 11
1821.104421674863
 21
68.80000000000638
 31
0.000000000000000
  0
ARC
  5
228
100
AcDbEntity
  8
A1
  6
CONTINUOUS
 62
7
100
AcDbCircle
 10
1810.204421674863
 20
40.36500000000500
 30
0.000000000000000
 40
6.464999999999999
100
AcDbArc
 50
214.9353303380699
 51
314.9999999999864
  0
LINE
  5
229
100
AcDbEntity
  8
A1
  6
CONTINUOUS
 62
7
100
AcDbLine
 10
1817.104421674863
 20
41.65764322520252
 30
0.000000000000000
 11
1817.104421674863
 21
95.94235677481001
 31
0.000000000000000
  0
LINE
  5
22A
100
AcDbEntity
  8
A1
  6
CONTINUOUS
 62
7
100
AcDbLine
 10
1819.604421674863
 20
41.32627237530237
 30
0.000000000000000
 11
1819.604421674863
 21
96.27372762471019
 31
0.000000000000000
  0
LINE
  5
22B
100
AcDbEntity
  8
A1
  6
CONTINUOUS
 62
7
100
AcDbLine
 10
1817.104421674863
 20
41.65764322520283
 30
0.000000000000000
 11
1813.008100062268
 21
37.56132161260575
 31
0.000000000000000
  0
LINE
  5
22C
100
AcDbEntity
  8
A1
  6
CONTINUOUS
 62
7
100
AcDbLine
 10
1819.106503202880
 20
40.12419084728583
 30
0.000000000000000
 11
1814.775867015233
 21
35.79355465963624
 31
0.000000000000000
  0
ARC
  5
22D
100
AcDbEntity
  8
A1
  6
CONTINUOUS
 62
7
100
AcDbCircle
 10
1813.004421674863
 20
45.46557613952587
 30
0.000000000000000
 40
2.299999999999999
100
AcDbArc
 50
270.1685811857819
 51
313.6006914562431
  0
ARC
  5
22E
100
AcDbEntity
  8
A1
  6
CONTINUOUS
 62
7
100
AcDbCircle
 10
1817.904421674863
 20
41.32627237530237
 30
0.000000000000000
 40
1.700000000000000
100
AcDbArc
 50
315.0000000000193
 51
360.0000000000003
  0
LINE
  5
22F
100
AcDbEntity
  8
A1
  6
CONTINUOUS
 62
7
100
AcDbLine
 10
1804.904421674863
 20
37.13159229373942
 30
0.000000000000000
 11
1804.904421674863
 21
36.66280808169491
 31
0.000000000000000
  0
LINE
  5
230
100
AcDbEntity
  8
A1
  6
CONTINUOUS
 62
7
100
AcDbLine
 10
1806.819602625046
 20
38.30000000000621
 30
0.000000000000000
 11
1804.904421674864
 21
37.13159229373935
 31
0.000000000000000
  0
ARC
  5
231
100
AcDbEntity
  8
A1
  6
CONTINUOUS
 62
7
100
AcDbCircle
 10
1804.804421674863
 20
48.02500000000619
 30
0.000000000000000
 40
5.674999999999999
100
AcDbArc
 50
219.4489167751305
 51
293.9074882555542
  0
LINE
  5
232
100
AcDbEntity
  8
A1
  6
CONTINUOUS
 62
7
100
AcDbLine
 10
1800.422235563928
 20
44.41916169399099
 30
0.000000000000000
 11
1800.989303916234
 21
44.88898461395706
 31
0.000000000000000
  0
ARC
  5
233
100
AcDbEntity
  8
A1
  6
CONTINUOUS
 62
7
100
AcDbCircle
 10
1810.204421674863
 20
97.23500000000767
 30
0.000000000000000
 40
6.464999999999999
100
AcDbArc
 50
45.00000000001420
 51
145.0646696619307
  0
LINE
  5
234
100
AcDbEntity
  8
A1
  6
CONTINUOUS
 62
7
100
AcDbLine
 10
1817.104421674862
 20
95.94235677480970
 30
0.000000000000000
 11
1813.008100062267
 21
100.0386783874067
 31
0.000000000000000
  0
LINE
  5
235
100
AcDbEntity
  8
A1
  6
CONTINUOUS
 62
7
100
AcDbLine
 10
1819.106503202880
 20
97.47580915272658
 30
0.000000000000000
 11
1814.775867015233
 21
101.8064453403761
 31
0.000000000000000
  0
ARC
  5
236
100
AcDbEntity
  8
A1
  6
CONTINUOUS
 62
7
100
AcDbCircle
 10
1813.004421674863
 20
92.13442386048683
 30
0.000000000000000
 40
2.299999999999999
100
AcDbArc
 50
46.39930854295230
 51
89.83141881421876
  0
ARC
  5
237
100
AcDbEntity
  8
A1
  6
CONTINUOUS
 62
7
100
AcDbCircle
 10
1817.904421674863
 20
96.27372762471018
 30
0.000000000000000
 40
1.700000000000000
100
AcDbArc
 50
3.053332494204976e-13
 51
44.99999999998132
  0
LINE
  5
238
100
AcDbEntity
  8
A1
  6
CONTINUOUS
 62
7
100
AcDbLine
 10
1804.904421674863
 20
100.4684077062732
 30
0.000000000000000
 11
1804.904421674863
 21
100.9371919183179
 31
0.000000000000000
  0
LINE
  5
239
100
AcDbEntity
  8
A1
  6
CONTINUOUS
 62
7
100
AcDbLine
 10
1806.819602625045
 20
99.30000000000598
 30
0.000000000000000
 11
1804.904421674863
 21
100.4684077062733
 31
0.000000000000000
  0
ARC
  5
23A
100
AcDbEntity
  8
A1
  6
CONTINUOUS
 62
7
100
AcDbCircle
 10
1804.804421674863
 20
89.57500000000620
 30
0.000000000000000
 40
5.674999999999999
100
AcDbArc
 50
66.09251174444336
 51
140.5510832248701
  0
LINE
  5
23B
100
AcDbEntity
  8
A1
  6
CONTINUOUS
 62
7
100
AcDbLine
 10
1800.422235563927
 20
93.18083830602120
 30
0.000000000000000
 11
1800.989303916239
 21
92.71101538605035
 31
0.000000000000000
  0
LINE
  5
23C
100
AcDbEntity
  8
A1
  6
CONTINUOUS
 62
7
100
AcDbLine
 10
1816.604421674863
 20
43.08154842043368
 30
0.000000000000000
 11
1816.604421674863
 21
43.79999999999406
 31
0.000000000000000
  0
LINE
  5
23D
100
AcDbEntity
  8
A1
  6
CONTINUOUS
 62
7
100
AcDbLine
 10
1815.604421674863
 20
43.08154842043367
 30
0.000000000000000
 11
1815.604421674863
 21
43.79999999999468
 31
0.000000000000000
  0
LINE
  5
23E
100
AcDbEntity
  8
A1
  6
CONTINUOUS
 62
7
100
AcDbLine
 10
1814.820861288801
 20
42.10525241331368
 30
0.000000000000000
 11
1804.604421674864
 21
39.84032227968981
 31
0.000000000000000
  0
LINE
  5
23F
100
AcDbEntity
  8
A1
  6
CONTINUOUS
 62
7
100
AcDbLine
 10
1815.037300902739
 20
41.12895640619388
 30
0.000000000000000
 11
1804.820861288802
 21
38.86402627257002
 31
0.000000000000000
  0
ARC
  5
240
100
AcDbEntity
  8
A1
  6
CONTINUOUS
 62
7
100
AcDbCircle
 10
1814.604421674863
 20
43.08154842043367
 30
0.000000000000000
 40
1.000000000000000
100
AcDbArc
 50
282.5000000000005
 51
360.0000000000003
  0
ARC
  5
241
100
AcDbEntity
  8
A1
  6
CONTINUOUS
 62
7
100
AcDbCircle
 10
1814.604421674863
 20
43.08154842043367
 30
0.000000000000000
 40
2.000000000000000
100
AcDbArc
 50
282.5000000000002
 51
360.0000000000003
  0
LINE
  5
242
100
AcDbEntity
  8
A1
  6
CONTINUOUS
 62
7
100
AcDbLine
 10
1804.820861288802
 20
38.86402627256996
 30
0.000000000000000
 11
1804.604421674864
 21
39.84032227968993
 31
0.000000000000000
  0
LINE
  5
243
100
AcDbEntity
  8
A1
  6
CONTINUOUS
 62
7
100
AcDbLine
 10
1816.604421674863
 20
94.51845157957891
 30
0.000000000000000
 11
1816.604421674863
 21
93.79999999999404
 31
0.000000000000000
  0
LINE
  5
244
100
AcDbEntity
  8
A1
  6
CONTINUOUS
 62
7
100
AcDbLine
 10
1815.604421674863
 20
94.51845157957891
 30
0.000000000000000
 11
1815.604421674863
 21
93.79999999999464
 31
0.000000000000000
  0
LINE
  5
245
100
AcDbEntity
  8
A1
  6
CONTINUOUS
 62
7
100
AcDbLine
 10
1814.820861288801
 20
95.49474758669891
 30
0.000000000000000
 11
1804.604421674864
 21
97.75967772032260
 31
0.000000000000000
  0
LINE
  5
246
100
AcDbEntity
  8
A1
  6
CONTINUOUS
 62
7
100
AcDbLine
 10
1815.037300902739
 20
96.47104359381854
 30
0.000000000000000
 11
1804.820861288802
 21
98.73597372744234
 31
0.000000000000000
  0
ARC
  5
247
100
AcDbEntity
  8
A1
  6
CONTINUOUS
 62
7
100
AcDbCircle
 10
1814.604421674863
 20
94.51845157957889
 30
0.000000000000000
 40
1.000000000000000
100
AcDbArc
 50
3.053332494204976e-13
 51
77.50000000000017
  0
ARC
  5
248
100
AcDbEntity
  8
A1
  6
CONTINUOUS
 62
7
100
AcDbCircle
 10
1814.604421674863
 20
94.51845157957889
 30
0.000000000000000
 40
2.000000000000000
100
AcDbArc
 50
3.053332494204976e-13
 51
77.50000000000047
  0
LINE
  5
249
100
AcDbEntity
  8
A1
  6
CONTINUOUS
 62
7
100
AcDbLine
 10
1804.820861288802
 20
98.73597372744240
 30
0.000000000000000
 11
1804.604421674863
 21
97.75967772032243
 31
0.000000000000000
  0
ARC
  5
24A
100
AcDbEntity
  8
A1
  6
CONTINUOUS
 62
7
100
AcDbCircle
 10
1810.204421674863
 20
40.36500000000500
 30
0.000000000000000
 40
3.964999999999999
100
AcDbArc
 50
196.8418556335159
 51
368.1581443664846
  0
ARC
  5
24B
100
AcDbEntity
  8
A1
  6
CONTINUOUS
 62
7
100
AcDbCircle
 10
1810.204421674863
 20
97.23500000000767
 30
0.000000000000000
 40
3.964999999999999
100
AcDbArc
 50
351.8418556335140
 51
523.1581443664865
  0
LINE
  5
24C
100
AcDbEntity
  8
A1
  6
CONTINUOUS
 62
7
100
AcDbLine
 10
1799.104421674863
 20
48.80000000000153
 30
0.000000000000000
 11
1799.104421674863
 21
88.80000000000156
 31
0.000000000000000
  0
ARC
  5
24D
100
AcDbEntity
  8
A1
  6
CONTINUOUS
 62
7
100
AcDbCircle
 10
1804.104421674863
 20
88.80000000000157
 30
0.000000000000000
 40
5.000000000000000
100
AcDbArc
 50
90.00000000000000
 51
180.0000000000003
  0
ARC
  5
24E
100
AcDbEntity
  8
A1
  6
CONTINUOUS
 62
7
100
AcDbCircle
 10
1804.104421674863
 20
48.80000000000157
 30
0.000000000000000
 40
5.000000000000000
100
AcDbArc
 50
180.0000000000003
 51
270.0000000000000
  0
ARC
  5
24F
100
AcDbEntity
  8
A1
  6
CONTINUOUS
 62
7
100
AcDbCircle
 10
1810.204421674863
 20
40.36500000000500
 30
0.000000000000000
 40
3.964999999999999
100
AcDbArc
 50
22.66593974032231
 51
60.03496743476860
  0
ARC
  5
250
100
AcDbEntity
  8
A1
  6
CONTINUOUS
 62
7
100
AcDbCircle
 10
1810.204421674863
 20
40.36500000000500
 30
0.000000000000000
 40
3.964999999999999
100
AcDbArc
 50
119.9650325651596
 51
182.3340602596782
  0
ARC
  5
251
100
AcDbEntity
  8
A1
  6
CONTINUOUS
 62
7
100
AcDbCircle
 10
1810.204421674863
 20
97.23500000000767
 30
0.000000000000000
 40
3.964999999999999
100
AcDbArc
 50
177.6659397403237
 51
240.0349674352577
  0
ARC
  5
252
100
AcDbEntity
  8
A1
  6
CONTINUOUS
 62
7
100
AcDbCircle
 10
1810.204421674863
 20
97.23500000000767
 30
0.000000000000000
 40
3.964999999999999
100
AcDbArc
 50
299.9650325646739
 51
337.3340602596774
  0
LINE
  5
253
100
AcDbEntity
  8
A1
  6
CONTINUOUS
 62
7
100
AcDbLine
 10
1804.104421674860
 20
43.80000000000160
 30
0.000000000000000
 11
1817.104421674832
 21
43.79999999999376
 31
0.000000000000000
  0
LINE
  5
254
100
AcDbEntity
  8
A1
  6
CONTINUOUS
 62
7
100
AcDbLine
 10
1804.104421674863
 20
93.80000000000157
 30
0.000000000000000
 11
1817.104421674862
 21
93.79999999999376
 31
0.000000000000000
  0
ENDSEC
  0
SECTION
  2
OBJECTS
  0
DICTIONARY
  5
282
100
AcDbDictionary
  3
ACAD_GROUP
350
283
  3
ACAD_MLINESTYLE
350
284
  0
DICTIONARY
  5
283
102
{ACAD_REACTORS
330
282
102
}
100
AcDbDictionary
  0
DICTIONARY
  5
284
102
{ACAD_REACTORS
330
282
102
}
100
AcDbDictionary
  3
STANDARD
350
285
  0
MLINESTYLE
  5
285
102
{ACAD_REACTORS
330
284
102
}
100
AcDbMlineStyle
  2
STANDARD
 70
     0
  3

 62
   256
 51
90.00
 52
90.00
 71
     2
 49
0.50
 62
   256
  6
BYLAYER
 49
-0.50
 62
   256
  6
BYLAYER
  0
ENDSEC
  0
EOF
