  0
SECTION
  2
HEADER
  9
$ACADVER
  1
AC1015
  9
$DWGCODEPAGE
  3
ANSI_932
  9
$LTSCALE
 40
20.0
  9
$FILLMODE
 70
     1
  9
$CLAYER
  8
0
  9
$PDMODE
 70
     0
  9
$SPLFRAME
 70
     0
  9
$SPLINETYPE
 70
     6
  9
$SPLINESEGS
 70
     8
  9
$DIMASZ
 40
2.000000
  9
$DIMEXE
 40
1.500000
  9
$DIMEXO
 40
0.800000
  9
$DIMTAD
 70
     1
  9
$DIMTIH
 70
     0
  9
$DIMTOH
 70
     0
  9
$DIMTVP
 40
0.500000
  9
$DIMTXT
 40
3.100000
  9
$EXTMIN
 10
0.000000
 20
0.000000
 30
0.000000
  9
$EXTMAX
 10
297.000000
 20
420.000000
 30
0.000000
  9
$MEASUREMENT
 70
  1
  9
$LIMMIN
 10
0.000000
 20
0.000000
  9
$LIMMAX
 10
297.000000
 20
420.000000
  9
$HANDSEED
  5
25C
  9
$LWDISPLAY
290
     0
  9
$DIMBLK
  1
_OPEN
  9
$DIMDEC
 70
     2
  9
$DIMADEC
 70
     2
  9
$DIMAUNIT
 70
     0
  9
$DIMZIN
 70
     8
  9
$DIMAZIN
 70
     2
  9
$DIMTOFL
 70
     1
  0
ENDSEC
  0
SECTION
  2
CLASSES
  0
ENDSEC
  0
SECTION
  2
TABLES
  0
TABLE
  2
VPORT
  5
229
100
AcDbSymbolTable
 70
     1
  0
VPORT
  5
22A
100
AcDbSymbolTableRecord
100
AcDbViewportTableRecord
  2
*ACTIVE
 70
     0
 12
1133.893732
 22
472.024367
 40
1515.096703
 41
1.483593
  0
ENDTAB
  0
TABLE
  2
LTYPE
  5
22B
100
AcDbSymbolTable
 70
     3
  0
LTYPE
  5
22C
100
AcDbSymbolTableRecord
100
AcDbLinetypeTableRecord
  2
BYBLOCK
 70
     0
  3

 72
    65
 73
     0
 40
0.0
  0
LTYPE
  5
22D
100
AcDbSymbolTableRecord
100
AcDbLinetypeTableRecord
  2
BYLAYER
 70
     0
  3

 72
    65
 73
     0
 40
0.0
  0
LTYPE
  5
22E
100
AcDbSymbolTableRecord
100
AcDbLinetypeTableRecord
  2
CONTINUOUS
 70
     0
  3
Solid line (NEC CAE2D for Win R18.0 : 2025.01.07)
 72
    65
 73
     0
 40
0.0
  0
LTYPE
  5
22F
100
AcDbSymbolTableRecord
100
AcDbLinetypeTableRecord
  2
DASHED
 70
     0
  3
__ __ __ __ __ __ __ __ __ __ __ __ __ _
 72
    65
 73
     2
 40
0.75
 49
0.5
 74
     0
 49
-0.25
 74
     0
  0
LTYPE
  5
230
100
AcDbSymbolTableRecord
100
AcDbLinetypeTableRecord
  2
CENTER
 70
     0
  3
____ _ ____ _ ____ _ ____ _ ____ _ ____
 72
    65
 73
     4
 40
2.0
 49
1.25
 74
     0
 49
-0.25
 74
     0
 49
0.25
 74
     0
 49
-0.25
 74
     0
  0
ENDTAB
  0
TABLE
  2
LAYER
  5
231
100
AcDbSymbolTable
 70
    12
  0
LAYER
  5
232
100
AcDbSymbolTableRecord
100
AcDbLayerTableRecord
  2
0
 70
     0
 62
     7
  6
CONTINUOUS
370
    -3
390

  0
LAYER
  5
233
100
AcDbSymbolTableRecord
100
AcDbLayerTableRecord
  2
A0
 70
     0
 62
     9
  6
CONTINUOUS
370
    -3
390

  0
LAYER
  5
234
100
AcDbSymbolTableRecord
100
AcDbLayerTableRecord
  2
A1
 70
     0
 62
     8
  6
CONTINUOUS
370
    -3
390

  0
LAYER
  5
235
100
AcDbSymbolTableRecord
100
AcDbLayerTableRecord
  2
A3
 70
     0
 62
    12
  6
CONTINUOUS
370
    -3
390

  0
LAYER
  5
236
100
AcDbSymbolTableRecord
100
AcDbLayerTableRecord
  2
A4
 70
     0
 62
    12
  6
CONTINUOUS
370
    -3
390

  0
LAYER
  5
237
100
AcDbSymbolTableRecord
100
AcDbLayerTableRecord
  2
A8
 70
     0
 62
    10
  6
CONTINUOUS
370
    -3
390

  0
LAYER
  5
238
100
AcDbSymbolTableRecord
100
AcDbLayerTableRecord
  2
A10
 70
     0
 62
     6
  6
CONTINUOUS
370
    -3
390

  0
LAYER
  5
239
100
AcDbSymbolTableRecord
100
AcDbLayerTableRecord
  2
A20
 70
     0
 62
     1
  6
CONTINUOUS
370
    -3
390

  0
LAYER
  5
23A
100
AcDbSymbolTableRecord
100
AcDbLayerTableRecord
  2
A30
 70
     0
 62
     1
  6
CONTINUOUS
370
    -3
390

  0
LAYER
  5
23B
100
AcDbSymbolTableRecord
100
AcDbLayerTableRecord
  2
A40
 70
     0
 62
     9
  6
CONTINUOUS
370
    -3
390

  0
LAYER
  5
23C
100
AcDbSymbolTableRecord
100
AcDbLayerTableRecord
  2
A50
 70
     0
 62
    12
  6
CONTINUOUS
370
    -3
390

  0
LAYER
  5
23D
100
AcDbSymbolTableRecord
100
AcDbLayerTableRecord
  2
A1023
 70
     0
 62
    16
  6
CONTINUOUS
370
    -3
390

  0
ENDTAB
  0
TABLE
  2
STYLE
  5
23E
100
AcDbSymbolTable
 70
     4
  0
STYLE
  5
23F
100
AcDbSymbolTableRecord
100
AcDbTextStyleTableRecord
  2
STANDARD
 70
    64
 40
0.0
 41
1.0
 50
0.0
 71
     0
 42
3.000000000000000
  3
TXT
  4

  0
STYLE
  5
240
100
AcDbSymbolTableRecord
100
AcDbTextStyleTableRecord
  2
ANKTATE
 70
    68
 40
0.0
 41
1.0
 50
0.0
 71
     0
 42
3.000000000000000
  3
TXT
  4

  0
STYLE
  5
241
100
AcDbSymbolTableRecord
100
AcDbTextStyleTableRecord
  2
KNJYOKO
 70
    64
 40
0.0
 41
1.0
 50
0.0
 71
     0
 42
3.000000000000000
  3
TXT
  4
BIGFONT
  0
STYLE
  5
242
100
AcDbSymbolTableRecord
100
AcDbTextStyleTableRecord
  2
KNJTATE
 70
    68
 40
0.0
 41
1.0
 50
0.0
 71
     0
 42
3.000000000000000
  3
TXT
  4
BIGFONT
  0
ENDTAB
  0
TABLE
  2
VIEW
  5
243
100
AcDbSymbolTable
 70
     0
  0
ENDTAB
  0
TABLE
  2
UCS
  5
244
100
AcDbSymbolTable
 70
     0
  0
ENDTAB
  0
TABLE
  2
APPID
  5
245
100
AcDbSymbolTable
 70
     1
  0
APPID
  5
246
100
AcDbSymbolTableRecord
100
AcDbRegAppTableRecord
  2
ACAD
 70
     0
  0
ENDTAB
  0
TABLE
  2
DIMSTYLE
  5
247
100
AcDbSymbolTable
 70
     2
100
AcDbDimStyleTable
  0
DIMSTYLE
105
248
100
AcDbSymbolTableRecord
100
AcDbDimStyleTableRecord
  2
STANDARD
 70
     0
 41
2.000000
 44
1.500000
 42
0.800000
145
0.661290
140
3.100000
144
1.000000
146
0.645161
340
23F
  0
DIMSTYLE
105
249
100
AcDbSymbolTableRecord
100
AcDbDimStyleTableRecord
  2
A001
 70
     0
 41
2.000000
 44
1.500000
 42
0.800000
145
0.661290
140
3.100000
144
1.000000
146
0.645161
 77
     1
 73
     0
 74
     0
271
     2
179
     2
275
     0
 78
     8
 79
     2
172
     1
340
23F
  0
ENDTAB
  0
TABLE
  2
BLOCK_RECORD
  5
24A
100
AcDbSymbolTable
 70
    12
  0
BLOCK_RECORD
  5
24B
100
AcDbSymbolTableRecord
100
AcDbBlockTableRecord
  2
*MODEL_SPACE
  0
BLOCK_RECORD
  5
24C
100
AcDbSymbolTableRecord
100
AcDbBlockTableRecord
  2
*PAPER_SPACE
  0
BLOCK_RECORD
  5
24D
100
AcDbSymbolTableRecord
100
AcDbBlockTableRecord
  2
*PAPER_SPACE0
  0
BLOCK_RECORD
  5
1
100
AcDbSymbolTableRecord
100
AcDbBlockTableRecord
  2
_NONE
  0
BLOCK_RECORD
  5
4
100
AcDbSymbolTableRecord
100
AcDbBlockTableRecord
  2
_CLOSED
  0
BLOCK_RECORD
  5
B
100
AcDbSymbolTableRecord
100
AcDbBlockTableRecord
  2
_DOT
  0
BLOCK_RECORD
  5
13
100
AcDbSymbolTableRecord
100
AcDbBlockTableRecord
  2
_OPEN
  0
BLOCK_RECORD
  5
19
100
AcDbSymbolTableRecord
100
AcDbBlockTableRecord
  2
_ORIGIN
  0
BLOCK_RECORD
  5
1E
100
AcDbSymbolTableRecord
100
AcDbBlockTableRecord
  2
_OPEN30
  0
BLOCK_RECORD
  5
24
100
AcDbSymbolTableRecord
100
AcDbBlockTableRecord
  2
_BOXFILLED
  0
BLOCK_RECORD
  5
29
100
AcDbSymbolTableRecord
100
AcDbBlockTableRecord
  2
_BOXBLANK
  0
BLOCK_RECORD
  5
31
100
AcDbSymbolTableRecord
100
AcDbBlockTableRecord
  2
_OBLIQUE
  0
BLOCK_RECORD
  5
35
100
AcDbSymbolTableRecord
100
AcDbBlockTableRecord
  2
_OPEN90
  0
BLOCK_RECORD
  5
3B
100
AcDbSymbolTableRecord
100
AcDbBlockTableRecord
  2
_CLOSEDBLANK
  0
BLOCK_RECORD
  5
41
100
AcDbSymbolTableRecord
100
AcDbBlockTableRecord
  2
_DOTBLANK
  0
ENDTAB
  0
ENDSEC
  0
SECTION
  2
BLOCKS
  0
BLOCK
  5
24E
100
AcDbEntity
  8
0
100
AcDbBlockBegin
  2
*MODEL_SPACE
 70
     0
 10
0.0
 20
0.0
 30
0.0
  3
*MODEL_SPACE
  1

  0
ENDBLK
  5
24F
100
AcDbEntity
  8
0
100
AcDbBlockEnd
  0
BLOCK
  5
250
100
AcDbEntity
  8
0
100
AcDbBlockBegin
  2
*PAPER_SPACE
 70
     0
 10
0.0
 20
0.0
 30
0.0
  3
*PAPER_SPACE
  1

  0
ENDBLK
  5
251
100
AcDbEntity
  8
0
100
AcDbBlockEnd
  0
BLOCK
  5
252
100
AcDbEntity
  8
0
100
AcDbBlockBegin
  2
*PAPER_SPACE0
 70
     0
 10
0.0
 20
0.0
 30
0.0
  3
*PAPER_SPACE0
  1

  0
ENDBLK
  5
253
100
AcDbEntity
  8
0
100
AcDbBlockEnd
  0
BLOCK
  5
2
330
1
100
AcDbEntity
  8
0
100
AcDbBlockBegin
  2
_NONE
 70
     0
 10
0.0
 20
0.0
 30
0.0
  3
_NONE
  1

  0
ENDBLK
  5
3
330
1
100
AcDbEntity
  8
0
100
AcDbBlockEnd
  0
BLOCK
  5
5
330
4
100
AcDbEntity
  8
0
100
AcDbBlockBegin
  2
_CLOSED
 70
     0
 10
0.0
 20
0.0
 30
0.0
  3
_CLOSED
  1

  0
LINE
  5
6
330
4
100
AcDbEntity
  8
0
  6
BYBLOCK
 62
     0
370
    -2
100
AcDbLine
 10
-1.0
 20
0.166667
 30
0.0
 11
0.0
 21
0.0
 31
0.0
  0
LINE
  5
7
330
4
100
AcDbEntity
  8
0
  6
BYBLOCK
 62
     0
370
    -2
100
AcDbLine
 10
0.0
 20
0.0
 30
0.0
 11
-1.0
 21
-0.166667
 31
0.0
  0
LINE
  5
8
330
4
100
AcDbEntity
  8
0
  6
BYBLOCK
 62
     0
370
    -2
100
AcDbLine
 10
-1.0
 20
0.166667
 30
0.0
 11
-1.0
 21
-0.166667
 31
0.0
  0
LINE
  5
9
330
4
100
AcDbEntity
  8
0
  6
BYBLOCK
 62
     0
370
    -2
100
AcDbLine
 10
0.0
 20
0.0
 30
0.0
 11
-1.0
 21
0.0
 31
0.0
  0
ENDBLK
  5
A
330
4
100
AcDbEntity
  8
0
100
AcDbBlockEnd
  0
BLOCK
  5
C
330
B
100
AcDbEntity
  8
0
100
AcDbBlockBegin
  2
_DOT
 70
     0
 10
0.0
 20
0.0
 30
0.0
  3
_DOT
  1

  0
POLYLINE
  5
D
330
B
100
AcDbEntity
  8
0
  6
BYBLOCK
 62
     0
370
    -2
100
AcDb2dPolyline
 66
     1
 10
0.0
 20
0.0
 30
0.0
 70
     1
 40
0.5
 41
0.5
  0
VERTEX
  5
E
330
B
100
AcDbEntity
  8
0
  6
BYBLOCK
 62
     0
370
    -2
100
AcDbVertex
100
AcDb2dVertex
 10
-0.25
 20
0.0
 30
0.0
 42
1.0
  0
VERTEX
  5
F
330
B
100
AcDbEntity
  8
0
  6
BYBLOCK
 62
     0
370
    -2
100
AcDbVertex
100
AcDb2dVertex
 10
0.25
 20
0.0
 30
0.0
 42
1.0
  0
SEQEND
  5
10
330
B
100
AcDbEntity
  8
0
  6
BYBLOCK
 62
     0
370
    -2
  0
LINE
  5
11
330
B
100
AcDbEntity
  8
0
  6
BYBLOCK
 62
     0
370
    -2
100
AcDbLine
 10
-0.5
 20
0.0
 30
0.0
 11
-1.0
 21
0.0
 31
0.0
  0
ENDBLK
  5
12
330
B
100
AcDbEntity
  8
0
100
AcDbBlockEnd
  0
BLOCK
  5
14
330
13
100
AcDbEntity
  8
0
100
AcDbBlockBegin
  2
_OPEN
 70
     0
 10
0.0
 20
0.0
 30
0.0
  3
_OPEN
  1

  0
LINE
  5
15
330
13
100
AcDbEntity
  8
0
  6
BYBLOCK
 62
     0
370
    -2
100
AcDbLine
 10
-1.0
 20
0.166667
 30
0.0
 11
0.0
 21
0.0
 31
0.0
  0
LINE
  5
16
330
13
100
AcDbEntity
  8
0
  6
BYBLOCK
 62
     0
370
    -2
100
AcDbLine
 10
0.0
 20
0.0
 30
0.0
 11
-1.0
 21
-0.166667
 31
0.0
  0
LINE
  5
17
330
13
100
AcDbEntity
  8
0
  6
BYBLOCK
 62
     0
370
    -2
100
AcDbLine
 10
0.0
 20
0.0
 30
0.0
 11
-1.0
 21
0.0
 31
0.0
  0
ENDBLK
  5
18
330
13
100
AcDbEntity
  8
0
100
AcDbBlockEnd
  0
BLOCK
  5
1A
330
19
100
AcDbEntity
  8
0
100
AcDbBlockBegin
  2
_ORIGIN
 70
     0
 10
0.0
 20
0.0
 30
0.0
  3
_ORIGIN
  1

  0
CIRCLE
  5
1B
330
19
100
AcDbEntity
  8
0
  6
BYBLOCK
 62
     0
370
    -2
100
AcDbCircle
 10
0.0
 20
0.0
 30
0.0
 40
0.5
  0
LINE
  5
1C
330
19
100
AcDbEntity
  8
0
  6
BYBLOCK
 62
     0
370
    -2
100
AcDbLine
 10
0.0
 20
0.0
 30
0.0
 11
-1.0
 21
0.0
 31
0.0
  0
ENDBLK
  5
1D
330
19
100
AcDbEntity
  8
0
100
AcDbBlockEnd
  0
BLOCK
  5
1F
330
1E
100
AcDbEntity
  8
0
100
AcDbBlockBegin
  2
_OPEN30
 70
     0
 10
0.0
 20
0.0
 30
0.0
  3
_OPEN30
  1

  0
LINE
  5
20
330
1E
100
AcDbEntity
  8
0
  6
BYBLOCK
 62
     0
370
    -2
100
AcDbLine
 10
-1.0
 20
0.267949
 30
0.0
 11
0.0
 21
0.0
 31
0.0
  0
LINE
  5
21
330
1E
100
AcDbEntity
  8
0
  6
BYBLOCK
 62
     0
370
    -2
100
AcDbLine
 10
0.0
 20
0.0
 30
0.0
 11
-1.0
 21
-0.267949
 31
0.0
  0
LINE
  5
22
330
1E
100
AcDbEntity
  8
0
  6
BYBLOCK
 62
     0
370
    -2
100
AcDbLine
 10
0.0
 20
0.0
 30
0.0
 11
-1.0
 21
0.0
 31
0.0
  0
ENDBLK
  5
23
330
1E
100
AcDbEntity
  8
0
100
AcDbBlockEnd
  0
BLOCK
  5
25
330
24
100
AcDbEntity
  8
0
100
AcDbBlockBegin
  2
_BOXFILLED
 70
     0
 10
0.0
 20
0.0
 30
0.0
  3
_BOXFILLED
  1

  0
SOLID
  5
26
330
24
100
AcDbEntity
  8
0
  6
BYBLOCK
 62
     0
370
    -2
100
AcDbTrace
 10
-0.5
 20
0.5
 30
0.0
 11
0.5
 21
0.5
 31
0.0
 12
-0.5
 22
-0.5
 32
0.0
 13
0.5
 23
-0.5
 33
0.0
  0
LINE
  5
27
330
24
100
AcDbEntity
  8
0
  6
BYBLOCK
 62
     0
370
    -2
100
AcDbLine
 10
-0.5
 20
0.0
 30
0.0
 11
-1.0
 21
0.0
 31
0.0
  0
ENDBLK
  5
28
330
24
100
AcDbEntity
  8
0
100
AcDbBlockEnd
  0
BLOCK
  5
2A
330
29
100
AcDbEntity
  8
0
100
AcDbBlockBegin
  2
_BOXBLANK
 70
     0
 10
0.0
 20
0.0
 30
0.0
  3
_BOXBLANK
  1

  0
LINE
  5
2B
330
29
100
AcDbEntity
  8
0
  6
BYBLOCK
 62
     0
370
    -2
100
AcDbLine
 10
-0.5
 20
-0.5
 30
0.0
 11
0.5
 21
-0.5
 31
0.0
  0
LINE
  5
2C
330
29
100
AcDbEntity
  8
0
  6
BYBLOCK
 62
     0
370
    -2
100
AcDbLine
 10
0.5
 20
-0.5
 30
0.0
 11
0.5
 21
0.5
 31
0.0
  0
LINE
  5
2D
330
29
100
AcDbEntity
  8
0
  6
BYBLOCK
 62
     0
370
    -2
100
AcDbLine
 10
0.5
 20
0.5
 30
0.0
 11
-0.5
 21
0.5
 31
0.0
  0
LINE
  5
2E
330
29
100
AcDbEntity
  8
0
  6
BYBLOCK
 62
     0
370
    -2
100
AcDbLine
 10
-0.5
 20
0.5
 30
0.0
 11
-0.5
 21
-0.5
 31
0.0
  0
LINE
  5
2F
330
29
100
AcDbEntity
  8
0
  6
BYBLOCK
 62
     0
370
    -2
100
AcDbLine
 10
-0.5
 20
0.0
 30
0.0
 11
-1.0
 21
0.0
 31
0.0
  0
ENDBLK
  5
30
330
29
100
AcDbEntity
  8
0
100
AcDbBlockEnd
  0
BLOCK
  5
32
330
31
100
AcDbEntity
  8
0
100
AcDbBlockBegin
  2
_OBLIQUE
 70
     0
 10
0.0
 20
0.0
 30
0.0
  3
_OBLIQUE
  1

  0
LINE
  5
33
330
31
100
AcDbEntity
  8
0
  6
BYBLOCK
 62
     0
370
    -2
100
AcDbLine
 10
-0.5
 20
-0.5
 30
0.0
 11
0.5
 21
0.5
 31
0.0
  0
ENDBLK
  5
34
330
31
100
AcDbEntity
  8
0
100
AcDbBlockEnd
  0
BLOCK
  5
36
330
35
100
AcDbEntity
  8
0
100
AcDbBlockBegin
  2
_OPEN90
 70
     0
 10
0.0
 20
0.0
 30
0.0
  3
_OPEN90
  1

  0
LINE
  5
37
330
35
100
AcDbEntity
  8
0
  6
BYBLOCK
 62
     0
370
    -2
100
AcDbLine
 10
-0.5
 20
0.5
 30
0.0
 11
0.0
 21
0.0
 31
0.0
  0
LINE
  5
38
330
35
100
AcDbEntity
  8
0
  6
BYBLOCK
 62
     0
370
    -2
100
AcDbLine
 10
0.0
 20
0.0
 30
0.0
 11
-0.5
 21
-0.5
 31
0.0
  0
LINE
  5
39
330
35
100
AcDbEntity
  8
0
  6
BYBLOCK
 62
     0
370
    -2
100
AcDbLine
 10
0.0
 20
0.0
 30
0.0
 11
-1.0
 21
0.0
 31
0.0
  0
ENDBLK
  5
3A
330
35
100
AcDbEntity
  8
0
100
AcDbBlockEnd
  0
BLOCK
  5
3C
330
3B
100
AcDbEntity
  8
0
100
AcDbBlockBegin
  2
_CLOSEDBLANK
 70
     0
 10
0.0
 20
0.0
 30
0.0
  3
_CLOSEDBLANK
  1

  0
LINE
  5
3D
330
3B
100
AcDbEntity
  8
0
  6
BYBLOCK
 62
     0
370
    -2
100
AcDbLine
 10
-1.0
 20
0.1666666666666666
 30
0.0
 11
0.0
 21
0.0
 31
0.0
  0
LINE
  5
3E
330
3B
100
AcDbEntity
  8
0
  6
BYBLOCK
 62
     0
370
    -2
100
AcDbLine
 10
0.0
 20
0.0
 30
0.0
 11
-1.0
 21
-0.1666666666666666
 31
0.0
  0
LINE
  5
3F
330
3B
100
AcDbEntity
  8
0
  6
BYBLOCK
 62
     0
370
    -2
100
AcDbLine
 10
-1.0
 20
0.1666666666666666
 30
0.0
 11
-1.0
 21
-0.1666666666666666
 31
0.0
  0
ENDBLK
  5
40
330
3B
100
AcDbEntity
  8
0
100
AcDbBlockEnd
  0
BLOCK
  5
42
330
41
100
AcDbEntity
  8
0
100
AcDbBlockBegin
  2
_DOTBLANK
 70
     0
 10
0.0
 20
0.0
 30
0.0
  3
_DOTBLANK
  1

  0
CIRCLE
  5
43
330
41
100
AcDbEntity
  8
0
  6
BYBLOCK
 62
     0
370
    -2
100
AcDbCircle
 10
0.0
 20
0.0
 30
0.0
 40
0.5
  0
LINE
  5
44
330
41
100
AcDbEntity
  8
0
  6
BYBLOCK
 62
     0
370
    -2
100
AcDbLine
 10
-0.5
 20
0.0
 30
0.0
 11
-1.0
 21
0.0
 31
0.0
  0
ENDBLK
  5
45
330
41
100
AcDbEntity
  8
0
100
AcDbBlockEnd
  0
ENDSEC
  0
SECTION
  2
ENTITIES
  0
MTEXT
  5
46
100
AcDbEntity
  8
A8
  6
CONTINUOUS
 62
3
100
AcDbMText
 10
9.999997526638502
 20
18.00000076076889
 30
0.000000000000000
 40
3.000000000000000
 41
0.000000000000000
 44
0.6739999771118164
 71
     7
 72
     1
  1
{\H0.94x;{TYPE No.TM-377-36}}
 11
1.000000000000000
 21
0.000000000000000
 31
0.000000000000000
  7
STANDARD
  0
POINT
  5
47
100
AcDbEntity
  8
A0
  6
CONTINUOUS
 62
3
100
AcDbPoint
 10
9.999997526638502
 20
18.00000076076889
 30
0.000000000000000
  0
POINT
  5
48
100
AcDbEntity
  8
A10
  6
CONTINUOUS
 62
3
100
AcDbPoint
 10
50.00000000000000
 20
50.00000000000000
 30
0.000000000000000
  0
LINE
  5
49
100
AcDbEntity
  8
A1
  6
CONTINUOUS
 62
7
100
AcDbLine
 10
1993.199999999963
 20
119.7999999999940
 30
0.000000000000000
 11
1078.799999999964
 21
119.7999999999977
 31
0.000000000000000
  0
LINE
  5
4A
100
AcDbEntity
  8
A1
  6
CONTINUOUS
 62
7
100
AcDbLine
 10
1993.089058626618
 20
115.3999999999978
 30
0.000000000000000
 11
1078.799999999964
 21
115.3999999999978
 31
0.000000000000000
  0
LINE
  5
4B
100
AcDbEntity
  8
A1
  6
CONTINUOUS
 62
7
100
AcDbLine
 10
1078.799999999956
 20
119.7999999999993
 30
0.000000000000000
 11
1078.799999999956
 21
111.3499999999985
 31
0.000000000000000
  0
LINE
  5
4C
100
AcDbEntity
  8
A1
  6
CONTINUOUS
 62
7
100
AcDbLine
 10
1990.699999999975
 20
59.89999999999782
 30
0.000000000000000
 11
1993.199999999964
 21
59.89999999999782
 31
0.000000000000000
  0
LINE
  5
4D
100
AcDbEntity
  8
A1
  6
CONTINUOUS
 62
7
100
AcDbLine
 10
1990.699999999975
 20
109.8999999999978
 30
0.000000000000000
 11
1993.199999999964
 21
109.8999999999978
 31
0.000000000000000
  0
LINE
  5
4E
100
AcDbEntity
  8
A1
  6
CONTINUOUS
 62
7
100
AcDbLine
 10
1991.285786437605
 20
113.3142135623694
 30
0.000000000000000
 11
1992.614213562346
 21
114.6426406871120
 31
0.000000000000000
  0
ARC
  5
4F
100
AcDbEntity
  8
A1
  6
CONTINUOUS
 62
7
100
AcDbCircle
 10
1991.199999999964
 20
116.0568542494875
 30
0.000000000000000
 40
2.000000000000000
100
AcDbArc
 50
315.0000000000000
 51
360.0000000000000
  0
LINE
  5
50
100
AcDbEntity
  8
A1
  6
CONTINUOUS
 62
7
100
AcDbLine
 10
1993.199999999964
 20
119.7999999999956
 30
0.000000000000000
 11
1993.199999999964
 21
116.0568542494875
 31
0.000000000000000
  0
LINE
  5
51
100
AcDbEntity
  8
A1
  6
CONTINUOUS
 62
7
100
AcDbLine
 10
1993.199999999964
 20
109.8999999999978
 30
0.000000000000000
 11
1993.199999999964
 21
59.89999999999782
 31
0.000000000000000
  0
LINE
  5
52
100
AcDbEntity
  8
A1
  6
CONTINUOUS
 62
7
100
AcDbLine
 10
1993.199999999964
 20
53.74314575051176
 30
0.000000000000000
 11
1993.199999999964
 21
50.00000000000000
 31
0.000000000000000
  0
LINE
  5
53
100
AcDbEntity
  8
A1
  6
CONTINUOUS
 62
7
100
AcDbLine
 10
1990.699999999975
 20
109.8999999999978
 30
0.000000000000000
 11
1990.699999999975
 21
59.89999999999782
 31
0.000000000000000
  0
ARC
  5
54
100
AcDbEntity
  8
A1
  6
CONTINUOUS
 62
7
100
AcDbCircle
 10
1992.699999999975
 20
111.8999999999978
 30
0.000000000000000
 40
2.000000000000000
100
AcDbArc
 50
135.0000000000000
 51
270.0000000000000
  0
LINE
  5
55
100
AcDbEntity
  8
A1
  6
CONTINUOUS
 62
7
100
AcDbLine
 10
1991.285786437606
 20
56.48578643762244
 30
0.000000000000000
 11
1992.614213562344
 21
55.15735931288191
 31
0.000000000000000
  0
ARC
  5
56
100
AcDbEntity
  8
A1
  6
CONTINUOUS
 62
7
100
AcDbCircle
 10
1991.199999999964
 20
53.74314575051176
 30
0.000000000000000
 40
2.000000000000000
100
AcDbArc
 50
0.000000000000000
 51
45.00000000000000
  0
ARC
  5
57
100
AcDbEntity
  8
A1
  6
CONTINUOUS
 62
7
100
AcDbCircle
 10
1992.699999999975
 20
57.90000000000146
 30
0.000000000000000
 40
2.000000000000000
100
AcDbArc
 50
90.00000000000000
 51
225.0000000000000
  0
CIRCLE
  5
58
100
AcDbEntity
  8
A1
  6
CONTINUOUS
 62
7
100
AcDbCircle
 10
1091.499999999966
 20
84.90000000000146
 30
0.000000000000000
 40
2.600000000000000
  0
CIRCLE
  5
59
100
AcDbEntity
  8
A1
  6
CONTINUOUS
 62
7
100
AcDbCircle
 10
1110.599999999965
 20
84.90000000000146
 30
0.000000000000000
 40
3.299999999999999
  0
CIRCLE
  5
5A
100
AcDbEntity
  8
A3
  6
DASHED
 62
2
100
AcDbCircle
 10
1167.699999999967
 20
84.90000000000146
 30
0.000000000000000
 40
3.299999999999999
  0
LINE
  5
5B
100
AcDbEntity
  8
A3
  6
DASHED
 62
2
100
AcDbLine
 10
1135.949999999967
 20
81.59999999999854
 30
0.000000000000000
 11
1129.849999999965
 21
81.59999999999854
 31
0.000000000000000
  0
ARC
  5
5C
100
AcDbEntity
  8
A3
  6
DASHED
 62
2
100
AcDbCircle
 10
1135.949999999967
 20
84.90000000000146
 30
0.000000000000000
 40
3.299999999999999
100
AcDbArc
 50
270.0000000000000
 51
450.0000000000000
  0
ARC
  5
5D
100
AcDbEntity
  8
A3
  6
DASHED
 62
2
100
AcDbCircle
 10
1129.849999999965
 20
84.90000000000146
 30
0.000000000000000
 40
3.299999999999999
100
AcDbArc
 50
90.00000000000000
 51
270.0000000000000
  0
LINE
  5
5E
100
AcDbEntity
  8
A3
  6
DASHED
 62
2
100
AcDbLine
 10
1135.949999999967
 20
88.19999999999709
 30
0.000000000000000
 11
1129.849999999965
 21
88.19999999999709
 31
0.000000000000000
  0
LINE
  5
5F
100
AcDbEntity
  8
A1
  6
CONTINUOUS
 62
7
100
AcDbLine
 10
1097.649999999966
 20
81.55000000000291
 30
0.000000000000000
 11
1097.649999999966
 21
88.25000000000000
 31
0.000000000000000
  0
LINE
  5
60
100
AcDbEntity
  8
A1
  6
CONTINUOUS
 62
7
100
AcDbLine
 10
1104.349999999965
 20
81.55000000000291
 30
0.000000000000000
 11
1104.349999999965
 21
88.25000000000000
 31
0.000000000000000
  0
LINE
  5
61
100
AcDbEntity
  8
A1
  6
CONTINUOUS
 62
7
100
AcDbLine
 10
1097.649999999966
 20
81.55000000000291
 30
0.000000000000000
 11
1104.349999999965
 21
81.55000000000291
 31
0.000000000000000
  0
LINE
  5
62
100
AcDbEntity
  8
A1
  6
CONTINUOUS
 62
7
100
AcDbLine
 10
1097.649999999966
 20
88.25000000000000
 30
0.000000000000000
 11
1104.349999999965
 21
88.25000000000000
 31
0.000000000000000
  0
LINE
  5
63
100
AcDbEntity
  8
A3
  6
DASHED
 62
2
100
AcDbLine
 10
1120.199999999968
 20
81.22304473782765
 30
0.000000000000000
 11
1118.381209626208
 21
83.04183511158783
 31
0.000000000000000
  0
LINE
  5
64
100
AcDbEntity
  8
A3
  6
DASHED
 62
2
100
AcDbLine
 10
1123.876955262137
 20
84.90000000000032
 30
0.000000000000000
 11
1120.199999999969
 21
88.57695526216844
 31
0.000000000000000
  0
LINE
  5
65
100
AcDbEntity
  8
A3
  6
DASHED
 62
2
100
AcDbLine
 10
1118.381209626206
 20
86.75816488841440
 30
0.000000000000000
 11
1120.199999999963
 21
88.57695526217196
 31
0.000000000000000
  0
LINE
  5
66
100
AcDbEntity
  8
A3
  6
DASHED
 62
2
100
AcDbLine
 10
1120.199999999963
 20
81.22304473783061
 30
0.000000000000000
 11
1123.876955262134
 21
84.90000000000077
 31
0.000000000000000
  0
CIRCLE
  5
67
100
AcDbEntity
  8
A3
  6
DASHED
 62
2
100
AcDbCircle
 10
1154.999999999966
 20
84.90000000000146
 30
0.000000000000000
 40
2.600000000000000
  0
CIRCLE
  5
68
100
AcDbEntity
  8
A1
  6
CONTINUOUS
 62
7
100
AcDbCircle
 10
1326.399999999964
 20
84.89999999999782
 30
0.000000000000000
 40
3.299999999999999
  0
CIRCLE
  5
69
100
AcDbEntity
  8
A1
  6
CONTINUOUS
 62
7
100
AcDbCircle
 10
1313.699999999965
 20
84.89999999999782
 30
0.000000000000000
 40
2.600000000000000
  0
LINE
  5
6A
100
AcDbEntity
  8
A1
  6
CONTINUOUS
 62
7
100
AcDbLine
 10
1339.099999999965
 20
81.22304473783083
 30
0.000000000000000
 11
1335.423044737798
 21
84.89999999999884
 31
0.000000000000000
  0
LINE
  5
6B
100
AcDbEntity
  8
A1
  6
CONTINUOUS
 62
7
100
AcDbLine
 10
1341.731378813960
 20
85.94557644817326
 30
0.000000000000000
 11
1339.099999999966
 21
88.57695526216730
 31
0.000000000000000
  0
LINE
  5
6C
100
AcDbEntity
  8
A1
  6
CONTINUOUS
 62
7
100
AcDbLine
 10
1335.423044737793
 20
84.89999999999918
 30
0.000000000000000
 11
1339.099999999964
 21
88.57695526216980
 31
0.000000000000000
  0
LINE
  5
6D
100
AcDbEntity
  8
A1
  6
CONTINUOUS
 62
7
100
AcDbLine
 10
1339.099999999967
 20
81.22304473782253
 30
0.000000000000000
 11
1341.731378813963
 21
83.85442355181760
 31
0.000000000000000
  0
LINE
  5
6E
100
AcDbEntity
  8
A3
  6
DASHED
 62
2
100
AcDbLine
 10
1348.449999999963
 20
81.54999999999563
 30
0.000000000000000
 11
1348.449999999963
 21
88.25000000000000
 31
0.000000000000000
  0
LINE
  5
6F
100
AcDbEntity
  8
A3
  6
DASHED
 62
2
100
AcDbLine
 10
1355.149999999964
 20
81.54999999999927
 30
0.000000000000000
 11
1355.149999999964
 21
88.25000000000000
 31
0.000000000000000
  0
LINE
  5
70
100
AcDbEntity
  8
A3
  6
DASHED
 62
2
100
AcDbLine
 10
1348.449999999964
 20
81.54999999999946
 30
0.000000000000000
 11
1355.149999999964
 21
81.55000000000037
 31
0.000000000000000
  0
LINE
  5
71
100
AcDbEntity
  8
A3
  6
DASHED
 62
2
100
AcDbLine
 10
1348.449999999963
 20
88.25000000000000
 30
0.000000000000000
 11
1355.149999999964
 21
88.25000000000000
 31
0.000000000000000
  0
CIRCLE
  5
72
100
AcDbEntity
  8
A1
  6
CONTINUOUS
 62
7
100
AcDbCircle
 10
1745.599999999964
 20
84.89999999999782
 30
0.000000000000000
 40
3.299999999999999
  0
CIRCLE
  5
73
100
AcDbEntity
  8
A1
  6
CONTINUOUS
 62
7
100
AcDbCircle
 10
1732.899999999965
 20
84.89999999999782
 30
0.000000000000000
 40
2.600000000000000
  0
LINE
  5
74
100
AcDbEntity
  8
A1
  6
CONTINUOUS
 62
7
100
AcDbLine
 10
1758.299999999958
 20
81.22304473782731
 30
0.000000000000000
 11
1754.623044737790
 21
84.89999999999532
 31
0.000000000000000
  0
LINE
  5
75
100
AcDbEntity
  8
A1
  6
CONTINUOUS
 62
7
100
AcDbLine
 10
1761.976955262131
 20
84.89999999999941
 30
0.000000000000000
 11
1758.299999999960
 21
88.57695526216992
 31
0.000000000000000
  0
LINE
  5
76
100
AcDbEntity
  8
A1
  6
CONTINUOUS
 62
7
100
AcDbLine
 10
1754.623044737787
 20
84.89999999999679
 30
0.000000000000000
 11
1758.299999999958
 21
88.57695526216742
 31
0.000000000000000
  0
LINE
  5
77
100
AcDbEntity
  8
A1
  6
CONTINUOUS
 62
7
100
AcDbLine
 10
1758.299999999961
 20
81.22304473783083
 30
0.000000000000000
 11
1761.976955262132
 21
84.90000000000100
 31
0.000000000000000
  0
LINE
  5
78
100
AcDbEntity
  8
A1
  6
CONTINUOUS
 62
7
100
AcDbLine
 10
1767.649999999963
 20
81.54999999999563
 30
0.000000000000000
 11
1767.649999999963
 21
88.25000000000000
 31
0.000000000000000
  0
LINE
  5
79
100
AcDbEntity
  8
A1
  6
CONTINUOUS
 62
7
100
AcDbLine
 10
1774.349999999964
 20
81.54999999999927
 30
0.000000000000000
 11
1774.349999999964
 21
88.25000000000000
 31
0.000000000000000
  0
LINE
  5
7A
100
AcDbEntity
  8
A1
  6
CONTINUOUS
 62
7
100
AcDbLine
 10
1767.649999999962
 20
81.54999999999815
 30
0.000000000000000
 11
1774.349999999962
 21
81.54999999999906
 31
0.000000000000000
  0
LINE
  5
7B
100
AcDbEntity
  8
A1
  6
CONTINUOUS
 62
7
100
AcDbLine
 10
1767.649999999963
 20
88.25000000000000
 30
0.000000000000000
 11
1774.349999999964
 21
88.25000000000000
 31
0.000000000000000
  0
LINE
  5
7C
100
AcDbEntity
  8
A1
  6
CONTINUOUS
 62
7
100
AcDbLine
 10
1907.349999999964
 20
81.59999999999854
 30
0.000000000000000
 11
1901.249999999963
 21
81.59999999999854
 31
0.000000000000000
  0
ARC
  5
7D
100
AcDbEntity
  8
A1
  6
CONTINUOUS
 62
7
100
AcDbCircle
 10
1907.349999999964
 20
84.89999999999782
 30
0.000000000000000
 40
3.299999999999999
100
AcDbArc
 50
270.0000000000000
 51
450.0000000000000
  0
ARC
  5
7E
100
AcDbEntity
  8
A1
  6
CONTINUOUS
 62
7
100
AcDbCircle
 10
1901.249999999963
 20
84.89999999999782
 30
0.000000000000000
 40
3.299999999999999
100
AcDbArc
 50
90.00000000000000
 51
270.0000000000000
  0
LINE
  5
7F
100
AcDbEntity
  8
A1
  6
CONTINUOUS
 62
7
100
AcDbLine
 10
1907.349999999964
 20
88.19999999999709
 30
0.000000000000000
 11
1901.249999999963
 21
88.19999999999709
 31
0.000000000000000
  0
LINE
  5
80
100
AcDbEntity
  8
A1
  6
CONTINUOUS
 62
7
100
AcDbLine
 10
1890.549999999964
 20
82.29999999999563
 30
0.000000000000000
 11
1886.249999999965
 21
82.29999999999563
 31
0.000000000000000
  0
ARC
  5
81
100
AcDbEntity
  8
A1
  6
CONTINUOUS
 62
7
100
AcDbCircle
 10
1890.549999999964
 20
84.89999999999782
 30
0.000000000000000
 40
2.600000000000000
100
AcDbArc
 50
270.0000000000000
 51
450.0000000000000
  0
ARC
  5
82
100
AcDbEntity
  8
A1
  6
CONTINUOUS
 62
7
100
AcDbCircle
 10
1886.249999999965
 20
84.89999999999782
 30
0.000000000000000
 40
2.600000000000000
100
AcDbArc
 50
90.00000000000000
 51
270.0000000000000
  0
LINE
  5
83
100
AcDbEntity
  8
A1
  6
CONTINUOUS
 62
7
100
AcDbLine
 10
1890.549999999964
 20
87.50000000000000
 30
0.000000000000000
 11
1886.249999999965
 21
87.50000000000000
 31
0.000000000000000
  0
CIRCLE
  5
84
100
AcDbEntity
  8
A1
  6
CONTINUOUS
 62
7
100
AcDbCircle
 10
1961.499999999963
 20
84.89999999999782
 30
0.000000000000000
 40
3.299999999999999
  0
CIRCLE
  5
85
100
AcDbEntity
  8
A1
  6
CONTINUOUS
 62
7
100
AcDbCircle
 10
1932.899999999963
 20
84.89999999999782
 30
0.000000000000000
 40
3.299999999999999
  0
CIRCLE
  5
86
100
AcDbEntity
  8
A1
  6
CONTINUOUS
 62
7
100
AcDbCircle
 10
1920.199999999964
 20
84.89999999999782
 30
0.000000000000000
 40
2.600000000000000
  0
LINE
  5
87
100
AcDbEntity
  8
A1
  6
CONTINUOUS
 62
7
100
AcDbLine
 10
1878.199999999964
 20
81.22304473782776
 30
0.000000000000000
 11
1874.523044737793
 21
84.89999999999827
 31
0.000000000000000
  0
LINE
  5
88
100
AcDbEntity
  8
A1
  6
CONTINUOUS
 62
7
100
AcDbLine
 10
1881.876955262132
 20
84.89999999999884
 30
0.000000000000000
 11
1878.199999999961
 21
88.57695526216935
 31
0.000000000000000
  0
LINE
  5
89
100
AcDbEntity
  8
A1
  6
CONTINUOUS
 62
7
100
AcDbLine
 10
1874.523044737794
 20
84.89999999999509
 30
0.000000000000000
 11
1878.199999999965
 21
88.57695526216571
 31
0.000000000000000
  0
LINE
  5
8A
100
AcDbEntity
  8
A1
  6
CONTINUOUS
 62
7
100
AcDbLine
 10
1878.199999999962
 20
81.22304473782719
 30
0.000000000000000
 11
1881.876955262133
 21
84.89999999999782
 31
0.000000000000000
  0
LINE
  5
8B
100
AcDbEntity
  8
A1
  6
CONTINUOUS
 62
7
100
AcDbLine
 10
1945.449999999964
 20
81.54999999999927
 30
0.000000000000000
 11
1945.449999999964
 21
88.25000000000000
 31
0.000000000000000
  0
LINE
  5
8C
100
AcDbEntity
  8
A1
  6
CONTINUOUS
 62
7
100
AcDbLine
 10
1952.149999999965
 20
81.54999999999927
 30
0.000000000000000
 11
1952.149999999965
 21
88.25000000000000
 31
0.000000000000000
  0
LINE
  5
8D
100
AcDbEntity
  8
A1
  6
CONTINUOUS
 62
7
100
AcDbLine
 10
1945.449999999965
 20
81.55000000000045
 30
0.000000000000000
 11
1952.149999999962
 21
81.55000000000136
 31
0.000000000000000
  0
LINE
  5
8E
100
AcDbEntity
  8
A1
  6
CONTINUOUS
 62
7
100
AcDbLine
 10
1945.449999999964
 20
88.25000000000000
 30
0.000000000000000
 11
1952.149999999965
 21
88.25000000000000
 31
0.000000000000000
  0
CIRCLE
  5
8F
100
AcDbEntity
  8
A1
  6
CONTINUOUS
 62
7
100
AcDbCircle
 10
1547.399999999965
 20
84.89999999999782
 30
0.000000000000000
 40
3.299999999999999
  0
ARC
  5
90
100
AcDbEntity
  8
A1
  6
CONTINUOUS
 62
7
100
AcDbCircle
 10
1534.699999999964
 20
84.89999999999782
 30
0.000000000000000
 40
2.600000000000000
100
AcDbArc
 50
249.7477532578636
 51
470.2522467421364
  0
LINE
  5
91
100
AcDbEntity
  8
A1
  6
CONTINUOUS
 62
7
100
AcDbLine
 10
1560.099999999965
 20
81.22304473782663
 30
0.000000000000000
 11
1556.423044737794
 21
84.89999999999714
 31
0.000000000000000
  0
LINE
  5
92
100
AcDbEntity
  8
A1
  6
CONTINUOUS
 62
7
100
AcDbLine
 10
1563.776955262130
 20
84.89999999999975
 30
0.000000000000000
 11
1560.099999999962
 21
88.57695526216776
 31
0.000000000000000
  0
LINE
  5
93
100
AcDbEntity
  8
A1
  6
CONTINUOUS
 62
7
100
AcDbLine
 10
1556.423044737789
 20
84.89999999999509
 30
0.000000000000000
 11
1560.099999999959
 21
88.57695526216560
 31
0.000000000000000
  0
LINE
  5
94
100
AcDbEntity
  8
A1
  6
CONTINUOUS
 62
7
100
AcDbLine
 10
1560.099999999964
 20
81.22304473783174
 30
0.000000000000000
 11
1563.776955262135
 21
84.90000000000191
 31
0.000000000000000
  0
LINE
  5
95
100
AcDbEntity
  8
A1
  6
CONTINUOUS
 62
7
100
AcDbLine
 10
1569.449999999964
 20
81.54999999999563
 30
0.000000000000000
 11
1569.449999999964
 21
88.25000000000000
 31
0.000000000000000
  0
LINE
  5
96
100
AcDbEntity
  8
A1
  6
CONTINUOUS
 62
7
100
AcDbLine
 10
1576.149999999965
 20
81.54999999999927
 30
0.000000000000000
 11
1576.149999999965
 21
88.25000000000000
 31
0.000000000000000
  0
LINE
  5
97
100
AcDbEntity
  8
A1
  6
CONTINUOUS
 62
7
100
AcDbLine
 10
1569.449999999964
 20
81.55000000000035
 30
0.000000000000000
 11
1576.149999999964
 21
81.55000000000126
 31
0.000000000000000
  0
LINE
  5
98
100
AcDbEntity
  8
A1
  6
CONTINUOUS
 62
7
100
AcDbLine
 10
1569.449999999964
 20
88.25000000000000
 30
0.000000000000000
 11
1576.149999999965
 21
88.25000000000000
 31
0.000000000000000
  0
LINE
  5
99
100
AcDbEntity
  8
A1
  6
CONTINUOUS
 62
7
100
AcDbLine
 10
1530.799999999966
 20
72.68589838486514
 30
0.000000000000000
 11
1530.799999999966
 21
58.44999999999709
 31
0.000000000000000
  0
LINE
  5
9A
100
AcDbEntity
  8
A1
  6
CONTINUOUS
 62
7
100
AcDbLine
 10
1530.799999999966
 20
97.11410161513049
 30
0.000000000000000
 11
1530.799999999966
 21
111.3499999999985
 31
0.000000000000000
  0
LINE
  5
9B
100
AcDbEntity
  8
A1
  6
CONTINUOUS
 62
7
100
AcDbLine
 10
1485.799999999966
 20
64.90000000000146
 30
0.000000000000000
 11
1495.799999999966
 21
64.90000000000146
 31
0.000000000000000
  0
LINE
  5
9C
100
AcDbEntity
  8
A1
  6
CONTINUOUS
 62
7
100
AcDbLine
 10
1485.799999999966
 20
104.9000000000015
 30
0.000000000000000
 11
1495.799999999966
 21
104.9000000000015
 31
0.000000000000000
  0
LINE
  5
9D
100
AcDbEntity
  8
A1
  6
CONTINUOUS
 62
7
100
AcDbLine
 10
1495.799999999966
 20
104.9000000000015
 30
0.000000000000000
 11
1495.799999999966
 21
64.90000000000146
 31
0.000000000000000
  0
LINE
  5
9E
100
AcDbEntity
  8
A1
  6
CONTINUOUS
 62
7
100
AcDbLine
 10
1485.799999999966
 20
104.9000000000015
 30
0.000000000000000
 11
1485.799999999966
 21
64.90000000000146
 31
0.000000000000000
  0
LINE
  5
9F
100
AcDbEntity
  8
A1
  6
CONTINUOUS
 62
7
100
AcDbLine
 10
1485.799999999966
 20
77.20940107675415
 30
0.000000000000000
 11
1495.799999999966
 21
77.20940107675415
 31
0.000000000000000
  0
LINE
  5
A0
100
AcDbEntity
  8
A1
  6
CONTINUOUS
 62
7
100
AcDbLine
 10
1485.799999999966
 20
92.59059892324149
 30
0.000000000000000
 11
1495.799999999966
 21
92.59059892324149
 31
0.000000000000000
  0
LINE
  5
A1
100
AcDbEntity
  8
A1
  6
CONTINUOUS
 62
7
100
AcDbLine
 10
1521.299999999966
 20
95.77971188716765
 30
0.000000000000000
 11
1512.799999999966
 21
95.77971188716765
 31
0.000000000000000
  0
LINE
  5
A2
100
AcDbEntity
  8
A1
  6
CONTINUOUS
 62
7
100
AcDbLine
 10
1521.299999999966
 20
74.02028811282798
 30
0.000000000000000
 11
1512.799999999966
 21
74.02028811282798
 31
0.000000000000000
  0
ARC
  5
A3
100
AcDbEntity
  8
A1
  6
CONTINUOUS
 62
7
100
AcDbCircle
 10
1333.799999999969
 20
84.90000000000146
 30
0.000000000000000
 40
8.000000000000000
100
AcDbArc
 50
270.0000000000000
 51
450.0000000000000
  0
ARC
  5
A4
100
AcDbEntity
  8
A1
  6
CONTINUOUS
 62
7
100
AcDbCircle
 10
1314.799999999967
 20
84.90000000000146
 30
0.000000000000000
 40
8.000000000000000
100
AcDbArc
 50
90.00000000000000
 51
270.0000000000000
  0
LINE
  5
A5
100
AcDbEntity
  8
A1
  6
CONTINUOUS
 62
7
100
AcDbLine
 10
1314.799999999967
 20
92.90000000000146
 30
0.000000000000000
 11
1333.799999999969
 21
92.90000000000146
 31
0.000000000000000
  0
LINE
  5
A6
100
AcDbEntity
  8
A1
  6
CONTINUOUS
 62
7
100
AcDbLine
 10
1314.799999999967
 20
76.90000000000146
 30
0.000000000000000
 11
1333.799999999969
 21
76.90000000000146
 31
0.000000000000000
  0
ARC
  5
A7
100
AcDbEntity
  8
A1
  6
CONTINUOUS
 62
7
100
AcDbCircle
 10
1110.599999999968
 20
84.90000000000146
 30
0.000000000000000
 40
8.000000000000000
100
AcDbArc
 50
270.0000000000000
 51
450.0000000000000
  0
ARC
  5
A8
100
AcDbEntity
  8
A1
  6
CONTINUOUS
 62
7
100
AcDbCircle
 10
1091.599999999968
 20
84.90000000000146
 30
0.000000000000000
 40
8.000000000000000
100
AcDbArc
 50
90.00000000000000
 51
270.0000000000000
  0
LINE
  5
A9
100
AcDbEntity
  8
A1
  6
CONTINUOUS
 62
7
100
AcDbLine
 10
1091.599999999968
 20
92.90000000000146
 30
0.000000000000000
 11
1110.599999999968
 21
92.90000000000146
 31
0.000000000000000
  0
LINE
  5
AA
100
AcDbEntity
  8
A1
  6
CONTINUOUS
 62
7
100
AcDbLine
 10
1091.599999999968
 20
76.90000000000146
 30
0.000000000000000
 11
1110.599999999968
 21
76.90000000000146
 31
0.000000000000000
  0
ARC
  5
AB
100
AcDbEntity
  8
A1
  6
CONTINUOUS
 62
7
100
AcDbCircle
 10
1505.550384638129
 20
96.39780553198216
 30
0.000000000000000
 40
3.000000000000000
100
AcDbArc
 50
40.95575754733699
 51
120.0000000000000
  0
LINE
  5
AC
100
AcDbEntity
  8
A1
  6
CONTINUOUS
 62
7
100
AcDbLine
 10
1500.905181231649
 20
97.17999770995118
 30
0.000000000000000
 11
1504.050384638125
 21
98.99588174333667
 31
0.000000000000000
  0
LINE
  5
AD
100
AcDbEntity
  8
A1
  6
CONTINUOUS
 62
7
100
AcDbLine
 10
1508.595106126879
 20
97.43576991224211
 30
0.000000000000000
 11
1507.816032483681
 21
98.36423372541856
 31
0.000000000000000
  0
LINE
  5
AE
100
AcDbEntity
  8
A1
  6
CONTINUOUS
 62
7
100
AcDbLine
 10
1500.299999999969
 20
96.52398668713271
 30
0.000000000000000
 11
1500.299999999969
 21
73.27601331286699
 31
0.000000000000000
  0
LINE
  5
AF
100
AcDbEntity
  8
A1
  6
CONTINUOUS
 62
7
100
AcDbLine
 10
1518.149999999968
 20
92.29999999999563
 30
0.000000000000000
 11
1515.949999999968
 21
92.29999999999563
 31
0.000000000000000
  0
LINE
  5
B0
100
AcDbEntity
  8
A1
  6
CONTINUOUS
 62
7
100
AcDbLine
 10
1518.349999999966
 20
92.09999999999854
 30
0.000000000000000
 11
1518.349999999966
 21
87.34948974278086
 31
0.000000000000000
  0
LINE
  5
B1
100
AcDbEntity
  8
A1
  6
CONTINUOUS
 62
7
100
AcDbLine
 10
1515.749999999967
 20
92.09999999999854
 30
0.000000000000000
 11
1515.749999999967
 21
87.34948974278086
 31
0.000000000000000
  0
ARC
  5
B2
100
AcDbEntity
  8
A1
  6
CONTINUOUS
 62
7
100
AcDbCircle
 10
1518.149999999968
 20
92.09999999999854
 30
0.000000000000000
 40
0.2000000000000000
100
AcDbArc
 50
0.000000000000000
 51
90.00000000000000
  0
ARC
  5
B3
100
AcDbEntity
  8
A1
  6
CONTINUOUS
 62
7
100
AcDbCircle
 10
1515.949999999968
 20
92.09999999999854
 30
0.000000000000000
 40
0.2000000000000000
100
AcDbArc
 50
90.00000000000000
 51
180.0000000000000
  0
LINE
  5
B4
100
AcDbEntity
  8
A1
  6
CONTINUOUS
 62
7
100
AcDbLine
 10
1512.799999999966
 20
94.79999999999927
 30
0.000000000000000
 11
1512.799999999966
 21
96.59999999999491
 31
0.000000000000000
  0
LINE
  5
B5
100
AcDbEntity
  8
A1
  6
CONTINUOUS
 62
7
100
AcDbLine
 10
1533.799999999966
 20
76.15000000000146
 30
0.000000000000000
 11
1533.799999999966
 21
93.64999999999418
 31
0.000000000000000
  0
LINE
  5
B6
100
AcDbEntity
  8
A1
  6
CONTINUOUS
 62
7
100
AcDbLine
 10
1530.799999999966
 20
93.64999999999418
 30
0.000000000000000
 11
1530.799999999966
 21
76.15000000000146
 31
0.000000000000000
  0
ARC
  5
B7
100
AcDbEntity
  8
A1
  6
CONTINUOUS
 62
7
100
AcDbCircle
 10
1517.049999999966
 20
84.89999999999782
 30
0.000000000000000
 40
5.500000000000000
100
AcDbArc
 50
323.1301023541835
 51
396.8698976458443
  0
LINE
  5
B8
100
AcDbEntity
  8
A1
  6
CONTINUOUS
 62
7
100
AcDbLine
 10
1520.799999999966
 20
94.29999999999927
 30
0.000000000000000
 11
1513.299999999966
 21
94.29999999999927
 31
0.000000000000000
  0
LINE
  5
B9
100
AcDbEntity
  8
A1
  6
CONTINUOUS
 62
7
100
AcDbLine
 10
1512.549999999966
 20
87.59999999999491
 30
0.000000000000000
 11
1512.549999999966
 21
82.20000000000437
 31
0.000000000000000
  0
LINE
  5
BA
100
AcDbEntity
  8
A1
  6
CONTINUOUS
 62
7
100
AcDbLine
 10
1521.299999999966
 20
96.59999999999491
 30
0.000000000000000
 11
1521.299999999966
 21
94.79999999999927
 31
0.000000000000000
  0
ARC
  5
BB
100
AcDbEntity
  8
A1
  6
CONTINUOUS
 62
7
100
AcDbCircle
 10
1517.049999999966
 20
84.89999999999782
 30
0.000000000000000
 40
2.500000000000000
100
AcDbArc
 50
127.7997224354281
 51
232.2002775645719
  0
ARC
  5
BC
100
AcDbEntity
  8
A1
  6
CONTINUOUS
 62
7
100
AcDbCircle
 10
1517.049999999966
 20
84.89999999999782
 30
0.000000000000000
 40
2.500000000000000
100
AcDbArc
 50
307.7997224354277
 51
412.2002775645719
  0
ARC
  5
BD
100
AcDbEntity
  8
A1
  6
CONTINUOUS
 62
7
100
AcDbCircle
 10
1513.299999999966
 20
94.79999999999927
 30
0.000000000000000
 40
0.5000000000000000
100
AcDbArc
 50
180.0000000000000
 51
270.0000000000000
  0
ARC
  5
BE
100
AcDbEntity
  8
A1
  6
CONTINUOUS
 62
7
100
AcDbCircle
 10
1520.799999999966
 20
94.79999999999927
 30
0.000000000000000
 40
0.5000000000000000
100
AcDbArc
 50
270.0000000000000
 51
360.0000000000000
  0
ARC
  5
BF
100
AcDbEntity
  8
A1
  6
CONTINUOUS
 62
7
100
AcDbCircle
 10
1515.149999999968
 20
87.34948974278086
 30
0.000000000000000
 40
0.6000000000000000
100
AcDbArc
 50
307.7997224354273
 51
360.0000000000000
  0
ARC
  5
C0
100
AcDbEntity
  8
A1
  6
CONTINUOUS
 62
7
100
AcDbCircle
 10
1518.949999999968
 20
87.34948974278086
 30
0.000000000000000
 40
0.6000000000000000
100
AcDbArc
 50
180.0000000000000
 51
232.2002775645709
  0
ARC
  5
C1
100
AcDbEntity
  8
A1
  6
CONTINUOUS
 62
7
100
AcDbCircle
 10
1520.799999999966
 20
94.79999999999927
 30
0.000000000000000
 40
3.500000000000000
100
AcDbArc
 50
285.2184551577777
 51
343.2916562842898
  0
LINE
  5
C2
100
AcDbEntity
  8
A1
  6
CONTINUOUS
 62
7
100
AcDbLine
 10
1521.349999999966
 20
90.94027203031146
 30
0.000000000000000
 11
1521.349999999966
 21
88.49999999999636
 31
0.000000000000000
  0
ARC
  5
C3
100
AcDbEntity
  8
A1
  6
CONTINUOUS
 62
7
100
AcDbCircle
 10
1521.849999999966
 20
90.94027203031146
 30
0.000000000000000
 40
0.5000000000000000
100
AcDbArc
 50
105.2184551577803
 51
180.0000000000000
  0
LINE
  5
C4
100
AcDbEntity
  8
A1
  6
CONTINUOUS
 62
7
100
AcDbLine
 10
1530.299999999966
 20
94.14999999999418
 30
0.000000000000000
 11
1524.631122550865
 21
94.14999999999418
 31
0.000000000000000
  0
ARC
  5
C5
100
AcDbEntity
  8
A1
  6
CONTINUOUS
 62
7
100
AcDbCircle
 10
1530.299999999966
 20
93.64999999999418
 30
0.000000000000000
 40
0.5000000000000000
100
AcDbArc
 50
0.000000000000000
 51
90.00000000000000
  0
ARC
  5
C6
100
AcDbEntity
  8
A1
  6
CONTINUOUS
 62
7
100
AcDbCircle
 10
1530.299999999966
 20
93.64999999999418
 30
0.000000000000000
 40
3.500000000000000
100
AcDbArc
 50
4.653000000000000e-13
 51
90.00000000000000
  0
ARC
  5
C7
100
AcDbEntity
  8
A1
  6
CONTINUOUS
 62
7
100
AcDbCircle
 10
1524.631122550865
 20
93.64999999999418
 30
0.000000000000000
 40
0.5000000000000000
100
AcDbArc
 50
90.00000000000652
 51
163.2916562842906
  0
LINE
  5
C8
100
AcDbEntity
  8
A1
  6
CONTINUOUS
 62
7
100
AcDbLine
 10
1509.207941681372
 20
97.14999999999418
 30
0.000000000000000
 11
1512.249999999967
 21
97.14999999999418
 31
0.000000000000000
  0
LINE
  5
C9
100
AcDbEntity
  8
A1
  6
CONTINUOUS
 62
7
100
AcDbLine
 10
1521.849999999966
 20
97.14999999999418
 30
0.000000000000000
 11
1530.299999999966
 21
97.14999999999418
 31
0.000000000000000
  0
ARC
  5
CA
100
AcDbEntity
  8
A1
  6
CONTINUOUS
 62
7
100
AcDbCircle
 10
1521.849999999966
 20
88.49999999999636
 30
0.000000000000000
 40
0.5000000000000000
100
AcDbArc
 50
180.0000000000000
 51
216.8698976458401
  0
LINE
  5
CB
100
AcDbEntity
  8
A1
  6
CONTINUOUS
 62
7
100
AcDbLine
 10
1518.149999999968
 20
77.50000000000000
 30
0.000000000000000
 11
1515.949999999968
 21
77.50000000000000
 31
0.000000000000000
  0
LINE
  5
CC
100
AcDbEntity
  8
A1
  6
CONTINUOUS
 62
7
100
AcDbLine
 10
1518.349999999966
 20
77.70000000000073
 30
0.000000000000000
 11
1518.349999999966
 21
82.45051025721477
 31
0.000000000000000
  0
LINE
  5
CD
100
AcDbEntity
  8
A1
  6
CONTINUOUS
 62
7
100
AcDbLine
 10
1515.749999999967
 20
77.70000000000073
 30
0.000000000000000
 11
1515.749999999967
 21
82.45051025721477
 31
0.000000000000000
  0
ARC
  5
CE
100
AcDbEntity
  8
A1
  6
CONTINUOUS
 62
7
100
AcDbCircle
 10
1518.149999999968
 20
77.70000000000073
 30
0.000000000000000
 40
0.2000000000000000
100
AcDbArc
 50
270.0000000000000
 51
360.0000000000000
  0
ARC
  5
CF
100
AcDbEntity
  8
A1
  6
CONTINUOUS
 62
7
100
AcDbCircle
 10
1515.949999999968
 20
77.70000000000073
 30
0.000000000000000
 40
0.2000000000000000
100
AcDbArc
 50
180.0000000000000
 51
270.0000000000000
  0
LINE
  5
D0
100
AcDbEntity
  8
A1
  6
CONTINUOUS
 62
7
100
AcDbLine
 10
1512.799999999966
 20
75.00000000000000
 30
0.000000000000000
 11
1512.799999999966
 21
73.20000000000437
 31
0.000000000000000
  0
LINE
  5
D1
100
AcDbEntity
  8
A1
  6
CONTINUOUS
 62
7
100
AcDbLine
 10
1520.799999999966
 20
75.50000000000000
 30
0.000000000000000
 11
1513.299999999966
 21
75.50000000000000
 31
0.000000000000000
  0
LINE
  5
D2
100
AcDbEntity
  8
A1
  6
CONTINUOUS
 62
7
100
AcDbLine
 10
1521.299999999966
 20
73.20000000000437
 30
0.000000000000000
 11
1521.299999999966
 21
75.00000000000000
 31
0.000000000000000
  0
ARC
  5
D3
100
AcDbEntity
  8
A1
  6
CONTINUOUS
 62
7
100
AcDbCircle
 10
1513.299999999966
 20
75.00000000000000
 30
0.000000000000000
 40
0.5000000000000000
100
AcDbArc
 50
90.00000000000000
 51
180.0000000000000
  0
ARC
  5
D4
100
AcDbEntity
  8
A1
  6
CONTINUOUS
 62
7
100
AcDbCircle
 10
1520.799999999966
 20
75.00000000000000
 30
0.000000000000000
 40
0.5000000000000000
100
AcDbArc
 50
0.000000000000000
 51
90.00000000000000
  0
ARC
  5
D5
100
AcDbEntity
  8
A1
  6
CONTINUOUS
 62
7
100
AcDbCircle
 10
1515.149999999968
 20
82.45051025721477
 30
0.000000000000000
 40
0.6000000000000000
100
AcDbArc
 50
0.000000000000000
 51
52.20027756457263
  0
ARC
  5
D6
100
AcDbEntity
  8
A1
  6
CONTINUOUS
 62
7
100
AcDbCircle
 10
1518.949999999968
 20
82.45051025721477
 30
0.000000000000000
 40
0.6000000000000000
100
AcDbArc
 50
127.7997224354290
 51
180.0000000000000
  0
ARC
  5
D7
100
AcDbEntity
  8
A1
  6
CONTINUOUS
 62
7
100
AcDbCircle
 10
1520.799999999966
 20
75.00000000000000
 30
0.000000000000000
 40
3.500000000000000
100
AcDbArc
 50
16.70834371571017
 51
74.78154484222227
  0
LINE
  5
D8
100
AcDbEntity
  8
A1
  6
CONTINUOUS
 62
7
100
AcDbLine
 10
1521.349999999966
 20
78.85972796968781
 30
0.000000000000000
 11
1521.349999999966
 21
81.30000000000291
 31
0.000000000000000
  0
ARC
  5
D9
100
AcDbEntity
  8
A1
  6
CONTINUOUS
 62
7
100
AcDbCircle
 10
1521.849999999966
 20
78.85972796968781
 30
0.000000000000000
 40
0.5000000000000000
100
AcDbArc
 50
180.0000000000000
 51
254.7815448422206
  0
LINE
  5
DA
100
AcDbEntity
  8
A1
  6
CONTINUOUS
 62
7
100
AcDbLine
 10
1530.299999999966
 20
75.65000000000146
 30
0.000000000000000
 11
1524.631122550865
 21
75.65000000000146
 31
0.000000000000000
  0
ARC
  5
DB
100
AcDbEntity
  8
A1
  6
CONTINUOUS
 62
7
100
AcDbCircle
 10
1530.299999999966
 20
76.15000000000146
 30
0.000000000000000
 40
0.5000000000000000
100
AcDbArc
 50
270.0000000000000
 51
360.0000000000000
  0
ARC
  5
DC
100
AcDbEntity
  8
A1
  6
CONTINUOUS
 62
7
100
AcDbCircle
 10
1530.299999999966
 20
76.15000000000146
 30
0.000000000000000
 40
3.500000000000000
100
AcDbArc
 50
270.0000000000000
 51
359.9999999999996
  0
ARC
  5
DD
100
AcDbEntity
  8
A1
  6
CONTINUOUS
 62
7
100
AcDbCircle
 10
1524.631122550865
 20
76.15000000000146
 30
0.000000000000000
 40
0.5000000000000000
100
AcDbArc
 50
196.7083437157113
 51
269.9999999999935
  0
LINE
  5
DE
100
AcDbEntity
  8
A1
  6
CONTINUOUS
 62
7
100
AcDbLine
 10
1521.849999999966
 20
72.65000000000146
 30
0.000000000000000
 11
1530.299999999966
 21
72.65000000000146
 31
0.000000000000000
  0
ARC
  5
DF
100
AcDbEntity
  8
A1
  6
CONTINUOUS
 62
7
100
AcDbCircle
 10
1521.849999999966
 20
81.30000000000291
 30
0.000000000000000
 40
0.5000000000000000
100
AcDbArc
 50
143.1301023541599
 51
180.0000000000000
  0
LINE
  5
E0
100
AcDbEntity
  8
A1
  6
CONTINUOUS
 62
7
100
AcDbLine
 10
1500.299999999966
 20
93.59999999999491
 30
0.000000000000000
 11
1506.549999999966
 21
93.59999999999491
 31
0.000000000000000
  0
ARC
  5
E1
100
AcDbEntity
  8
A1
  6
CONTINUOUS
 62
7
100
AcDbCircle
 10
1506.549999999966
 20
87.59999999999491
 30
0.000000000000000
 40
6.000000000000000
100
AcDbArc
 50
0.000000000000000
 51
90.00000000000000
  0
LINE
  5
E2
100
AcDbEntity
  8
A1
  6
CONTINUOUS
 62
7
100
AcDbLine
 10
1500.299999999966
 20
76.20000000000437
 30
0.000000000000000
 11
1506.549999999966
 21
76.20000000000437
 31
0.000000000000000
  0
ARC
  5
E3
100
AcDbEntity
  8
A1
  6
CONTINUOUS
 62
7
100
AcDbCircle
 10
1506.549999999966
 20
82.20000000000437
 30
0.000000000000000
 40
6.000000000000000
100
AcDbArc
 50
270.0000000000000
 51
360.0000000000000
  0
LINE
  5
E4
100
AcDbEntity
  8
A1
  6
CONTINUOUS
 62
7
100
AcDbLine
 10
1509.207941681372
 20
72.65000000000146
 30
0.000000000000000
 11
1512.249999999967
 21
72.65000000000146
 31
0.000000000000000
  0
ARC
  5
E5
100
AcDbEntity
  8
A1
  6
CONTINUOUS
 62
7
100
AcDbCircle
 10
1512.249999999967
 20
73.20000000000437
 30
0.000000000000000
 40
0.5500000000000000
100
AcDbArc
 50
270.0000000000000
 51
359.9999999999970
  0
ARC
  5
E6
100
AcDbEntity
  8
A1
  6
CONTINUOUS
 62
7
100
AcDbCircle
 10
1521.849999999966
 20
73.20000000000437
 30
0.000000000000000
 40
0.5500000000000000
100
AcDbArc
 50
180.0000000000000
 51
270.0000000000000
  0
ARC
  5
E7
100
AcDbEntity
  8
A1
  6
CONTINUOUS
 62
7
100
AcDbCircle
 10
1512.249999999967
 20
96.59999999999491
 30
0.000000000000000
 40
0.5500000000000000
100
AcDbArc
 50
2.960800000000000e-12
 51
90.00000000000000
  0
ARC
  5
E8
100
AcDbEntity
  8
A1
  6
CONTINUOUS
 62
7
100
AcDbCircle
 10
1521.849999999966
 20
96.59999999999491
 30
0.000000000000000
 40
0.5500000000000000
100
AcDbArc
 50
90.00000000000000
 51
180.0000000000000
  0
ARC
  5
E9
100
AcDbEntity
  8
A1
  6
CONTINUOUS
 62
7
100
AcDbCircle
 10
1505.550384638129
 20
73.40219446801348
 30
0.000000000000000
 40
3.000000000000000
100
AcDbArc
 50
240.0000000000000
 51
319.0442424526630
  0
LINE
  5
EA
100
AcDbEntity
  8
A1
  6
CONTINUOUS
 62
7
100
AcDbLine
 10
1500.905181231653
 20
72.62000229004877
 30
0.000000000000000
 11
1504.050384638130
 21
70.80411825666340
 31
0.000000000000000
  0
LINE
  5
EB
100
AcDbEntity
  8
A1
  6
CONTINUOUS
 62
7
100
AcDbLine
 10
1508.595106126875
 20
72.36423008774773
 30
0.000000000000000
 11
1507.816032483677
 21
71.43576627457139
 31
0.000000000000000
  0
ARC
  5
EC
100
AcDbEntity
  8
A1
  6
CONTINUOUS
 62
7
100
AcDbCircle
 10
1509.207941681372
 20
97.94999999999709
 30
0.000000000000000
 40
0.8000000000000000
100
AcDbArc
 50
219.9999999999991
 51
270.0000000000000
  0
ARC
  5
ED
100
AcDbEntity
  8
A1
  6
CONTINUOUS
 62
7
100
AcDbCircle
 10
1509.207941681372
 20
71.85000000000218
 30
0.000000000000000
 40
0.8000000000000000
100
AcDbArc
 50
90.00000000000000
 51
140.0000000000009
  0
ARC
  5
EE
100
AcDbEntity
  8
A1
  6
CONTINUOUS
 62
7
100
AcDbCircle
 10
1501.655181231650
 20
73.91904039572546
 30
0.000000000000000
 40
1.500000000000000
100
AcDbArc
 50
205.3841182138332
 51
240.0000000000000
  0
ARC
  5
EF
100
AcDbEntity
  8
A1
  6
CONTINUOUS
 62
7
100
AcDbCircle
 10
1501.655181231650
 20
95.88095960427381
 30
0.000000000000000
 40
1.500000000000000
100
AcDbArc
 50
120.0000000000000
 51
154.6158817861668
  0
LINE
  5
F0
100
AcDbEntity
  8
A1
  6
CONTINUOUS
 62
7
100
AcDbLine
 10
1485.799999999967
 20
95.77971188716765
 30
0.000000000000000
 11
1076.299999999985
 21
95.77971188716765
 31
0.000000000000000
  0
LINE
  5
F1
100
AcDbEntity
  8
A1
  6
CONTINUOUS
 62
7
100
AcDbLine
 10
1485.799999999967
 20
74.02028811282798
 30
0.000000000000000
 11
1076.299999999985
 21
74.02028811282798
 31
0.000000000000000
  0
LINE
  5
F2
100
AcDbEntity
  8
A1
  6
CONTINUOUS
 62
7
100
AcDbLine
 10
1530.799999999966
 20
107.6858452961169
 30
0.000000000000000
 11
627.7999999999654
 21
107.6858452961169
 31
0.000000000000000
  0
LINE
  5
F3
100
AcDbEntity
  8
A1
  6
CONTINUOUS
 62
7
100
AcDbLine
 10
1530.799999999966
 20
111.3499999999985
 30
0.000000000000000
 11
627.7999999999654
 21
111.3499999999985
 31
0.000000000000000
  0
CIRCLE
  5
F4
100
AcDbEntity
  8
A3
  6
DASHED
 62
2
100
AcDbCircle
 10
1505.799999999966
 20
92.34969443902446
 30
0.000000000000000
 40
2.100000000000000
  0
CIRCLE
  5
F5
100
AcDbEntity
  8
A3
  6
DASHED
 62
2
100
AcDbCircle
 10
1505.799999999966
 20
77.34969443902446
 30
0.000000000000000
 40
2.100000000000000
  0
LINE
  5
F6
100
AcDbEntity
  8
A1
  6
CONTINUOUS
 62
7
100
AcDbLine
 10
1500.299999999968
 20
95.77971188716896
 30
0.000000000000000
 11
1495.799999999968
 21
95.77971188716876
 31
0.000000000000000
  0
LINE
  5
F7
100
AcDbEntity
  8
A1
  6
CONTINUOUS
 62
7
100
AcDbLine
 10
1500.299999999966
 20
74.02028811282798
 30
0.000000000000000
 11
1495.799999999966
 21
74.02028811282798
 31
0.000000000000000
  0
CIRCLE
  5
F8
100
AcDbEntity
  8
A1
  6
CONTINUOUS
 62
7
100
AcDbCircle
 10
201.5999999999869
 20
84.89999999999782
 30
0.000000000000000
 40
2.600000000000000
  0
CIRCLE
  5
F9
100
AcDbEntity
  8
A1
  6
CONTINUOUS
 62
7
100
AcDbCircle
 10
220.6999999999869
 20
84.89999999999782
 30
0.000000000000000
 40
3.299999999999999
  0
CIRCLE
  5
FA
100
AcDbEntity
  8
A1
  6
CONTINUOUS
 62
7
100
AcDbCircle
 10
265.0999999999883
 20
84.89999999999782
 30
0.000000000000000
 40
3.299999999999999
  0
CIRCLE
  5
FB
100
AcDbEntity
  8
A1
  6
CONTINUOUS
 62
7
100
AcDbCircle
 10
252.3999999999839
 20
84.89999999999782
 30
0.000000000000000
 40
2.600000000000000
  0
CIRCLE
  5
FC
100
AcDbEntity
  8
A1
  6
CONTINUOUS
 62
7
100
AcDbCircle
 10
392.0999999999865
 20
84.89999999999782
 30
0.000000000000000
 40
3.299999999999999
  0
CIRCLE
  5
FD
100
AcDbEntity
  8
A1
  6
CONTINUOUS
 62
7
100
AcDbCircle
 10
379.3999999999876
 20
84.89999999999782
 30
0.000000000000000
 40
2.600000000000000
  0
CIRCLE
  5
FE
100
AcDbEntity
  8
A1
  6
CONTINUOUS
 62
7
100
AcDbCircle
 10
239.6999999999869
 20
84.89999999999782
 30
0.000000000000000
 40
3.299999999999999
  0
CIRCLE
  5
FF
100
AcDbEntity
  8
A1
  6
CONTINUOUS
 62
7
100
AcDbCircle
 10
328.5999999999865
 20
84.89999999999782
 30
0.000000000000000
 40
3.299999999999999
  0
CIRCLE
  5
100
100
AcDbEntity
  8
A1
  6
CONTINUOUS
 62
7
100
AcDbCircle
 10
315.8999999999876
 20
84.89999999999782
 30
0.000000000000000
 40
2.600000000000000
  0
CIRCLE
  5
101
100
AcDbEntity
  8
A1
  6
CONTINUOUS
 62
7
100
AcDbCircle
 10
411.1999999999869
 20
84.89999999999782
 30
0.000000000000000
 40
3.550000000000000
  0
CIRCLE
  5
102
100
AcDbEntity
  8
A1
  6
CONTINUOUS
 62
7
100
AcDbCircle
 10
569.8999999999858
 20
84.89999999999782
 30
0.000000000000000
 40
3.299999999999999
  0
CIRCLE
  5
103
100
AcDbEntity
  8
A1
  6
CONTINUOUS
 62
7
100
AcDbCircle
 10
557.1999999999869
 20
84.89999999999782
 30
0.000000000000000
 40
2.600000000000000
  0
LINE
  5
104
100
AcDbEntity
  8
A1
  6
CONTINUOUS
 62
7
100
AcDbLine
 10
909.5499999999827
 20
81.59999999999854
 30
0.000000000000000
 11
900.2499999999725
 21
81.59999999999854
 31
0.000000000000000
  0
ARC
  5
105
100
AcDbEntity
  8
A1
  6
CONTINUOUS
 62
7
100
AcDbCircle
 10
909.5499999999827
 20
84.89999999999782
 30
0.000000000000000
 40
3.299999999999999
100
AcDbArc
 50
270.0000000000000
 51
450.0000000000000
  0
ARC
  5
106
100
AcDbEntity
  8
A1
  6
CONTINUOUS
 62
7
100
AcDbCircle
 10
900.2499999999725
 20
84.89999999999782
 30
0.000000000000000
 40
3.299999999999999
100
AcDbArc
 50
90.00000000000000
 51
270.0000000000000
  0
LINE
  5
107
100
AcDbEntity
  8
A1
  6
CONTINUOUS
 62
7
100
AcDbLine
 10
909.5499999999827
 20
88.19999999999709
 30
0.000000000000000
 11
900.2499999999725
 21
88.19999999999709
 31
0.000000000000000
  0
CIRCLE
  5
108
100
AcDbEntity
  8
A1
  6
CONTINUOUS
 62
7
100
AcDbCircle
 10
887.3999999999739
 20
84.89999999999782
 30
0.000000000000000
 40
3.550000000000000
  0
CIRCLE
  5
109
100
AcDbEntity
  8
A1
  6
CONTINUOUS
 62
7
100
AcDbCircle
 10
965.0999999999674
 20
84.89999999999782
 30
0.000000000000000
 40
3.299999999999999
  0
CIRCLE
  5
10A
100
AcDbEntity
  8
A1
  6
CONTINUOUS
 62
7
100
AcDbCircle
 10
977.7999999999681
 20
84.89999999999782
 30
0.000000000000000
 40
2.600000000000000
  0
LINE
  5
10B
100
AcDbEntity
  8
A1
  6
CONTINUOUS
 62
7
100
AcDbLine
 10
992.6499999999685
 20
82.29999999999563
 30
0.000000000000000
 11
988.3499999999783
 21
82.29999999999563
 31
0.000000000000000
  0
ARC
  5
10C
100
AcDbEntity
  8
A1
  6
CONTINUOUS
 62
7
100
AcDbCircle
 10
992.6499999999685
 20
84.89999999999782
 30
0.000000000000000
 40
2.600000000000000
100
AcDbArc
 50
270.0000000000000
 51
450.0000000000000
  0
ARC
  5
10D
100
AcDbEntity
  8
A1
  6
CONTINUOUS
 62
7
100
AcDbCircle
 10
988.3499999999783
 20
84.89999999999782
 30
0.000000000000000
 40
2.600000000000000
100
AcDbArc
 50
90.00000000000000
 51
270.0000000000000
  0
LINE
  5
10E
100
AcDbEntity
  8
A1
  6
CONTINUOUS
 62
7
100
AcDbLine
 10
992.6499999999685
 20
87.50000000000000
 30
0.000000000000000
 11
988.3499999999783
 21
87.50000000000000
 31
0.000000000000000
  0
LINE
  5
10F
100
AcDbEntity
  8
A1
  6
CONTINUOUS
 62
7
100
AcDbLine
 10
1076.299999999985
 20
103.6999999999971
 30
0.000000000000000
 11
169.7999999999877
 21
103.6999999999971
 31
0.000000000000000
  0
LINE
  5
110
100
AcDbEntity
  8
A3
  6
DASHED
 62
2
100
AcDbLine
 10
1076.299999999985
 20
100.0000000000000
 30
0.000000000000000
 11
169.9963014667785
 21
100.0000000000000
 31
0.000000000000000
  0
LINE
  5
111
100
AcDbEntity
  8
A1
  6
CONTINUOUS
 62
7
100
AcDbLine
 10
1038.999999999986
 20
96.39999999999219
 30
0.000000000000000
 11
1041.499999999979
 21
96.39999999999446
 31
0.000000000000000
  0
LINE
  5
112
100
AcDbEntity
  8
A1
  6
CONTINUOUS
 62
7
100
AcDbLine
 10
1038.999999999987
 20
96.39999999999493
 30
0.000000000000000
 11
1039.000000000008
 21
73.39999999999129
 31
0.000000000000000
  0
LINE
  5
113
100
AcDbEntity
  8
A1
  6
CONTINUOUS
 62
7
100
AcDbLine
 10
1041.499999999986
 20
96.39999999999692
 30
0.000000000000000
 11
1041.499999999997
 21
73.39999999999692
 31
0.000000000000000
  0
LINE
  5
114
100
AcDbEntity
  8
A1
  6
CONTINUOUS
 62
7
100
AcDbLine
 10
1034.699999999984
 20
94.39999999999326
 30
0.000000000000000
 11
1034.699999999995
 21
75.39999999999326
 31
0.000000000000000
  0
ARC
  5
115
100
AcDbEntity
  8
A1
  6
CONTINUOUS
 62
7
100
AcDbCircle
 10
1036.699999999984
 20
94.39999999999418
 30
0.000000000000000
 40
2.000000000000000
100
AcDbArc
 50
90.00000000005539
 51
180.0000000000521
  0
ARC
  5
116
100
AcDbEntity
  8
A1
  6
CONTINUOUS
 62
7
100
AcDbCircle
 10
1036.699999999995
 20
75.39999999999418
 30
0.000000000000000
 40
2.000000000000000
100
AcDbArc
 50
180.0000000000521
 51
270.0000000000554
  0
LINE
  5
117
100
AcDbEntity
  8
A1
  6
CONTINUOUS
 62
7
100
AcDbLine
 10
1039.000000000009
 20
73.39999999999695
 30
0.000000000000000
 11
1041.499999999998
 21
73.39999999999925
 31
0.000000000000000
  0
LINE
  5
118
100
AcDbEntity
  8
A1
  6
CONTINUOUS
 62
7
100
AcDbLine
 10
1076.299999999985
 20
66.09999999999907
 30
0.000000000000000
 11
1076.299999999985
 21
103.6999999999976
 31
0.000000000000000
  0
LINE
  5
119
100
AcDbEntity
  8
A1
  6
CONTINUOUS
 62
7
100
AcDbLine
 10
1036.699999999983
 20
96.39999999999525
 30
0.000000000000000
 11
1038.999999999986
 21
96.39999999999746
 31
0.000000000000000
  0
LINE
  5
11A
100
AcDbEntity
  8
A1
  6
CONTINUOUS
 62
7
100
AcDbLine
 10
1036.699999999998
 20
73.39999999999196
 30
0.000000000000000
 11
1039.000000000008
 21
73.39999999999426
 31
0.000000000000000
  0
LINE
  5
11B
100
AcDbEntity
  8
A1
  6
CONTINUOUS
 62
7
100
AcDbLine
 10
169.7999999999949
 20
96.39999999999534
 30
0.000000000000000
 11
172.2999999999894
 21
96.39999999999785
 31
0.000000000000000
  0
ARC
  5
11C
100
AcDbEntity
  8
A1
  6
CONTINUOUS
 62
7
100
AcDbCircle
 10
171.7999999999931
 20
97.40000000000146
 30
0.000000000000000
 40
1.000000000000000
100
AcDbArc
 50
270.0000000000521
 51
420.0000000000475
  0
LINE
  5
11D
100
AcDbEntity
  8
A1
  6
CONTINUOUS
 62
7
100
AcDbLine
 10
170.7999999999911
 20
99.13205080757017
 30
0.000000000000000
 11
172.2999999999911
 21
98.26602540378707
 31
0.000000000000000
  0
LINE
  5
11E
100
AcDbEntity
  8
A1
  6
CONTINUOUS
 62
7
100
AcDbLine
 10
169.7999999999865
 20
103.6999999999950
 30
0.000000000000000
 11
169.7999999999890
 21
100.8641016151357
 31
0.000000000000000
  0
ARC
  5
11F
100
AcDbEntity
  8
A1
  6
CONTINUOUS
 62
7
100
AcDbCircle
 10
171.7999999999895
 20
100.8641016151378
 30
0.000000000000000
 40
2.000000000000000
100
AcDbArc
 50
180.0000000000554
 51
240.0000000000566
  0
LINE
  5
120
100
AcDbEntity
  8
A1
  6
CONTINUOUS
 62
7
100
AcDbLine
 10
169.7999999999930
 20
96.39999999999839
 30
0.000000000000000
 11
169.8000000000148
 21
73.39999999999839
 31
0.000000000000000
  0
LINE
  5
121
100
AcDbEntity
  8
A1
  6
CONTINUOUS
 62
7
100
AcDbLine
 10
172.2999999999947
 20
96.40000000000283
 30
0.000000000000000
 11
172.3000000000056
 21
73.40000000000283
 31
0.000000000000000
  0
LINE
  5
122
100
AcDbEntity
  8
A1
  6
CONTINUOUS
 62
7
100
AcDbLine
 10
169.8000000000160
 20
73.39999999999534
 30
0.000000000000000
 11
172.3000000000051
 21
73.39999999999785
 31
0.000000000000000
  0
ARC
  5
123
100
AcDbEntity
  8
A1
  6
CONTINUOUS
 62
7
100
AcDbCircle
 10
171.8000000000168
 20
72.40000000000146
 30
0.000000000000000
 40
1.000000000000000
100
AcDbArc
 50
300.0000000000687
 51
450.0000000000521
  0
LINE
  5
124
100
AcDbEntity
  8
A1
  6
CONTINUOUS
 62
7
100
AcDbLine
 10
170.8000000000216
 20
70.66794919243034
 30
0.000000000000000
 11
172.3000000000198
 21
71.53397459621644
 31
0.000000000000000
  0
LINE
  5
125
100
AcDbEntity
  8
A1
  6
CONTINUOUS
 62
7
100
AcDbLine
 10
169.8000000000223
 20
66.09999999999752
 30
0.000000000000000
 11
169.8000000000196
 21
68.93589838486412
 31
0.000000000000000
  0
ARC
  5
126
100
AcDbEntity
  8
A1
  6
CONTINUOUS
 62
7
100
AcDbCircle
 10
171.8000000000204
 20
68.93589838486514
 30
0.000000000000000
 40
2.000000000000000
100
AcDbArc
 50
120.0000000000517
 51
180.0000000000554
  0
LINE
  5
127
100
AcDbEntity
  8
A1
  6
CONTINUOUS
 62
7
100
AcDbLine
 10
1076.299999999985
 20
98.60768479867693
 30
0.000000000000000
 11
1485.799999999967
 21
98.60768479867693
 31
0.000000000000000
  0
LINE
  5
128
100
AcDbEntity
  8
A1
  6
CONTINUOUS
 62
7
100
AcDbLine
 10
1076.299999999985
 20
71.19231520131871
 30
0.000000000000000
 11
1485.799999999965
 21
71.19231520131871
 31
0.000000000000000
  0
LINE
  5
129
100
AcDbEntity
  8
A1
  6
CONTINUOUS
 62
7
100
AcDbLine
 10
1076.299999999985
 20
66.09999999999854
 30
0.000000000000000
 11
169.7999999999877
 21
66.09999999999854
 31
0.000000000000000
  0
LINE
  5
12A
100
AcDbEntity
  8
A3
  6
DASHED
 62
2
100
AcDbLine
 10
1076.299999999985
 20
69.79999999999927
 30
0.000000000000000
 11
169.9963014667767
 21
69.79999999999927
 31
0.000000000000000
  0
LINE
  5
12B
100
AcDbEntity
  8
A1
  6
CONTINUOUS
 62
7
100
AcDbLine
 10
1530.799999999967
 20
62.11415470387874
 30
0.000000000000000
 11
627.7999999999645
 21
62.11415470387874
 31
0.000000000000000
  0
LINE
  5
12C
100
AcDbEntity
  8
A1
  6
CONTINUOUS
 62
7
100
AcDbLine
 10
1530.799999999965
 20
58.44999999999709
 30
0.000000000000000
 11
627.7999999999645
 21
58.44999999999709
 31
0.000000000000000
  0
LINE
  5
12D
100
AcDbEntity
  8
A1
  6
CONTINUOUS
 62
7
100
AcDbLine
 10
1993.199999999964
 20
50.00000000000162
 30
0.000000000000000
 11
1078.799999999964
 21
49.99999999999798
 31
0.000000000000000
  0
LINE
  5
12E
100
AcDbEntity
  8
A1
  6
CONTINUOUS
 62
7
100
AcDbLine
 10
1993.089058626617
 20
54.40000000000146
 30
0.000000000000000
 11
1078.799999999964
 21
54.40000000000146
 31
0.000000000000000
  0
LINE
  5
12F
100
AcDbEntity
  8
A1
  6
CONTINUOUS
 62
7
100
AcDbLine
 10
1116.523044737796
 20
84.89999999999941
 30
0.000000000000000
 11
1118.381209626206
 21
86.75816488841019
 31
0.000000000000000
  0
LINE
  5
130
100
AcDbEntity
  8
A1
  6
CONTINUOUS
 62
7
100
AcDbLine
 10
1118.381209626209
 20
83.04183511158476
 30
0.000000000000000
 11
1116.523044737798
 21
84.89999999999509
 31
0.000000000000000
  0
LINE
  5
131
100
AcDbEntity
  8
A3
  6
DASHED
 62
2
100
AcDbLine
 10
1342.776955262134
 20
84.89999999999839
 30
0.000000000000000
 11
1341.731378813960
 21
83.85442355182465
 31
0.000000000000000
  0
LINE
  5
132
100
AcDbEntity
  8
A3
  6
DASHED
 62
2
100
AcDbLine
 10
1341.731378813960
 20
85.94557644817121
 30
0.000000000000000
 11
1342.776955262136
 21
84.89999999999361
 31
0.000000000000000
  0
ARC
  5
133
100
AcDbEntity
  8
A3
  6
DASHED
 62
2
100
AcDbCircle
 10
1534.699999999964
 20
84.89999999999782
 30
0.000000000000000
 40
2.600000000000001
100
AcDbArc
 50
110.2522467421364
 51
249.7477532578636
  0
LINE
  5
134
100
AcDbEntity
  8
A1
  6
CONTINUOUS
 62
7
100
AcDbLine
 10
1495.799999999967
 20
98.60768479867390
 30
0.000000000000000
 11
1503.378007806632
 21
98.60768479867401
 31
0.000000000000000
  0
LINE
  5
135
100
AcDbEntity
  8
A1
  6
CONTINUOUS
 62
7
100
AcDbLine
 10
1507.579284247925
 20
98.60768479867885
 30
0.000000000000000
 11
1530.799999999968
 21
98.60768479867907
 31
0.000000000000000
  0
LINE
  5
136
100
AcDbEntity
  8
A1
  6
CONTINUOUS
 62
7
100
AcDbLine
 10
1503.378007806634
 20
71.19231520132234
 30
0.000000000000000
 11
1495.799999999966
 21
71.19231520132234
 31
0.000000000000000
  0
LINE
  5
137
100
AcDbEntity
  8
A1
  6
CONTINUOUS
 62
7
100
AcDbLine
 10
1530.799999999965
 20
71.19231520132128
 30
0.000000000000000
 11
1507.579284247924
 21
71.19231520132139
 31
0.000000000000000
  0
LINE
  5
138
100
AcDbEntity
  8
A1
  6
CONTINUOUS
 62
7
100
AcDbLine
 10
1515.749999999967
 20
87.34948974278053
 30
0.000000000000000
 11
1515.749999999967
 21
82.45051025721445
 31
0.000000000000000
  0
LINE
  5
139
100
AcDbEntity
  8
A1
  6
CONTINUOUS
 62
7
100
AcDbLine
 10
1518.349999999966
 20
87.34948974278053
 30
0.000000000000000
 11
1518.349999999966
 21
82.45051025721445
 31
0.000000000000000
  0
LINE
  5
13A
100
AcDbEntity
  8
A4
  6
CENTER
 62
1
100
AcDbLine
 10
1313.699999999965
 20
88.99999999999781
 30
0.000000000000000
 11
1313.699999999965
 21
80.79999999999782
 31
0.000000000000000
  0
LINE
  5
13B
100
AcDbEntity
  8
A4
  6
CENTER
 62
1
100
AcDbLine
 10
1326.399999999964
 20
89.69999999999781
 30
0.000000000000000
 11
1326.399999999964
 21
80.09999999999782
 31
0.000000000000000
  0
LINE
  5
13C
100
AcDbEntity
  8
A4
  6
CENTER
 62
1
100
AcDbLine
 10
1339.099999999965
 20
79.72304473782719
 30
0.000000000000000
 11
1339.099999999965
 21
90.07695526216571
 31
0.000000000000000
  0
LINE
  5
13D
100
AcDbEntity
  8
A4
  6
CENTER
 62
1
100
AcDbLine
 10
201.5999999999869
 20
88.99999999999781
 30
0.000000000000000
 11
201.5999999999869
 21
80.79999999999782
 31
0.000000000000000
  0
LINE
  5
13E
100
AcDbEntity
  8
A4
  6
CENTER
 62
1
100
AcDbLine
 10
220.6999999999869
 20
89.69999999999781
 30
0.000000000000000
 11
220.6999999999869
 21
80.09999999999782
 31
0.000000000000000
  0
LINE
  5
13F
100
AcDbEntity
  8
A4
  6
CENTER
 62
1
100
AcDbLine
 10
239.6999999999869
 20
89.69999999999781
 30
0.000000000000000
 11
239.6999999999869
 21
80.09999999999782
 31
0.000000000000000
  0
LINE
  5
140
100
AcDbEntity
  8
A4
  6
CENTER
 62
1
100
AcDbLine
 10
252.3999999999839
 20
88.99999999999781
 30
0.000000000000000
 11
252.3999999999839
 21
80.79999999999782
 31
0.000000000000000
  0
LINE
  5
141
100
AcDbEntity
  8
A4
  6
CENTER
 62
1
100
AcDbLine
 10
265.0999999999883
 20
89.69999999999781
 30
0.000000000000000
 11
265.0999999999883
 21
80.09999999999782
 31
0.000000000000000
  0
LINE
  5
142
100
AcDbEntity
  8
A4
  6
CENTER
 62
1
100
AcDbLine
 10
315.8999999999876
 20
88.99999999999781
 30
0.000000000000000
 11
315.8999999999876
 21
80.79999999999782
 31
0.000000000000000
  0
LINE
  5
143
100
AcDbEntity
  8
A4
  6
CENTER
 62
1
100
AcDbLine
 10
328.5999999999865
 20
89.69999999999781
 30
0.000000000000000
 11
328.5999999999865
 21
80.09999999999782
 31
0.000000000000000
  0
LINE
  5
144
100
AcDbEntity
  8
A4
  6
CENTER
 62
1
100
AcDbLine
 10
379.3999999999876
 20
88.99999999999781
 30
0.000000000000000
 11
379.3999999999876
 21
80.79999999999782
 31
0.000000000000000
  0
LINE
  5
145
100
AcDbEntity
  8
A4
  6
CENTER
 62
1
100
AcDbLine
 10
392.0999999999865
 20
89.69999999999781
 30
0.000000000000000
 11
392.0999999999865
 21
80.09999999999782
 31
0.000000000000000
  0
LINE
  5
146
100
AcDbEntity
  8
A4
  6
CENTER
 62
1
100
AcDbLine
 10
411.1999999999869
 20
89.94999999999781
 30
0.000000000000000
 11
411.1999999999869
 21
79.84999999999782
 31
0.000000000000000
  0
LINE
  5
147
100
AcDbEntity
  8
A4
  6
CENTER
 62
1
100
AcDbLine
 10
557.1999999999869
 20
88.99999999999781
 30
0.000000000000000
 11
557.1999999999869
 21
80.79999999999782
 31
0.000000000000000
  0
LINE
  5
148
100
AcDbEntity
  8
A4
  6
CENTER
 62
1
100
AcDbLine
 10
569.8999999999858
 20
89.69999999999781
 30
0.000000000000000
 11
569.8999999999858
 21
80.09999999999782
 31
0.000000000000000
  0
LINE
  5
149
100
AcDbEntity
  8
A4
  6
CENTER
 62
1
100
AcDbLine
 10
887.3999999999739
 20
89.94999999999781
 30
0.000000000000000
 11
887.3999999999739
 21
79.84999999999782
 31
0.000000000000000
  0
LINE
  5
14A
100
AcDbEntity
  8
A4
  6
CENTER
 62
1
100
AcDbLine
 10
904.8999999999776
 20
80.09999999999854
 30
0.000000000000000
 11
904.8999999999776
 21
89.69999999999709
 31
0.000000000000000
  0
LINE
  5
14B
100
AcDbEntity
  8
A4
  6
CENTER
 62
1
100
AcDbLine
 10
965.0999999999674
 20
89.69999999999781
 30
0.000000000000000
 11
965.0999999999674
 21
80.09999999999782
 31
0.000000000000000
  0
LINE
  5
14C
100
AcDbEntity
  8
A4
  6
CENTER
 62
1
100
AcDbLine
 10
977.7999999999681
 20
88.99999999999781
 30
0.000000000000000
 11
977.7999999999681
 21
80.79999999999782
 31
0.000000000000000
  0
LINE
  5
14D
100
AcDbEntity
  8
A4
  6
CENTER
 62
1
100
AcDbLine
 10
990.4999999999743
 20
80.79999999999563
 30
0.000000000000000
 11
990.4999999999743
 21
89.00000000000000
 31
0.000000000000000
  0
LINE
  5
14E
100
AcDbEntity
  8
A4
  6
CENTER
 62
1
100
AcDbLine
 10
1091.499999999966
 20
89.00000000000145
 30
0.000000000000000
 11
1091.499999999966
 21
80.80000000000146
 31
0.000000000000000
  0
LINE
  5
14F
100
AcDbEntity
  8
A4
  6
CENTER
 62
1
100
AcDbLine
 10
1132.899999999971
 20
80.09999999999854
 30
0.000000000000000
 11
1132.899999999971
 21
89.69999999999709
 31
0.000000000000000
  0
LINE
  5
150
100
AcDbEntity
  8
A4
  6
CENTER
 62
1
100
AcDbLine
 10
1167.699999999967
 20
89.70000000000145
 30
0.000000000000000
 11
1167.699999999967
 21
80.10000000000146
 31
0.000000000000000
  0
LINE
  5
151
100
AcDbEntity
  8
A4
  6
CENTER
 62
1
100
AcDbLine
 10
1154.999999999966
 20
89.00000000000145
 30
0.000000000000000
 11
1154.999999999966
 21
80.80000000000146
 31
0.000000000000000
  0
LINE
  5
152
100
AcDbEntity
  8
A4
  6
CENTER
 62
1
100
AcDbLine
 10
1534.699999999964
 20
88.99999999999781
 30
0.000000000000000
 11
1534.699999999964
 21
80.79999999999782
 31
0.000000000000000
  0
LINE
  5
153
100
AcDbEntity
  8
A4
  6
CENTER
 62
1
100
AcDbLine
 10
1547.399999999965
 20
89.69999999999781
 30
0.000000000000000
 11
1547.399999999965
 21
80.09999999999782
 31
0.000000000000000
  0
LINE
  5
154
100
AcDbEntity
  8
A4
  6
CENTER
 62
1
100
AcDbLine
 10
1560.099999999966
 20
79.72304473782719
 30
0.000000000000000
 11
1560.099999999966
 21
90.07695526216571
 31
0.000000000000000
  0
LINE
  5
155
100
AcDbEntity
  8
A4
  6
CENTER
 62
1
100
AcDbLine
 10
1572.799999999963
 20
80.05000000000081
 30
0.000000000000000
 11
1572.799999999963
 21
89.75000000000000
 31
0.000000000000000
  0
LINE
  5
156
100
AcDbEntity
  8
A4
  6
CENTER
 62
1
100
AcDbLine
 10
1732.899999999965
 20
88.99999999999781
 30
0.000000000000000
 11
1732.899999999965
 21
80.79999999999782
 31
0.000000000000000
  0
LINE
  5
157
100
AcDbEntity
  8
A4
  6
CENTER
 62
1
100
AcDbLine
 10
1745.599999999964
 20
89.69999999999781
 30
0.000000000000000
 11
1745.599999999964
 21
80.09999999999782
 31
0.000000000000000
  0
LINE
  5
158
100
AcDbEntity
  8
A4
  6
CENTER
 62
1
100
AcDbLine
 10
1758.299999999963
 20
79.72304473782719
 30
0.000000000000000
 11
1758.299999999963
 21
90.07695526216571
 31
0.000000000000000
  0
LINE
  5
159
100
AcDbEntity
  8
A4
  6
CENTER
 62
1
100
AcDbLine
 10
1770.999999999963
 20
80.04999999999860
 30
0.000000000000000
 11
1770.999999999963
 21
89.75000000000000
 31
0.000000000000000
  0
LINE
  5
15A
100
AcDbEntity
  8
A4
  6
CENTER
 62
1
100
AcDbLine
 10
1878.199999999964
 20
79.72304473782719
 30
0.000000000000000
 11
1878.199999999964
 21
90.07695526216571
 31
0.000000000000000
  0
LINE
  5
15B
100
AcDbEntity
  8
A4
  6
CENTER
 62
1
100
AcDbLine
 10
1888.399999999965
 20
80.79999999999563
 30
0.000000000000000
 11
1888.399999999965
 21
89.00000000000000
 31
0.000000000000000
  0
LINE
  5
15C
100
AcDbEntity
  8
A4
  6
CENTER
 62
1
100
AcDbLine
 10
1904.299999999986
 20
80.09999999999854
 30
0.000000000000000
 11
1904.299999999986
 21
89.69999999999709
 31
0.000000000000000
  0
LINE
  5
15D
100
AcDbEntity
  8
A4
  6
CENTER
 62
1
100
AcDbLine
 10
1920.199999999964
 20
88.99999999999781
 30
0.000000000000000
 11
1920.199999999964
 21
80.79999999999782
 31
0.000000000000000
  0
LINE
  5
15E
100
AcDbEntity
  8
A4
  6
CENTER
 62
1
100
AcDbLine
 10
1932.899999999963
 20
89.69999999999781
 30
0.000000000000000
 11
1932.899999999963
 21
80.09999999999782
 31
0.000000000000000
  0
LINE
  5
15F
100
AcDbEntity
  8
A4
  6
CENTER
 62
1
100
AcDbLine
 10
1948.799999999964
 20
80.05000000000091
 30
0.000000000000000
 11
1948.799999999964
 21
89.75000000000000
 31
0.000000000000000
  0
LINE
  5
160
100
AcDbEntity
  8
A4
  6
CENTER
 62
1
100
AcDbLine
 10
1961.499999999963
 20
89.69999999999781
 30
0.000000000000000
 11
1961.499999999963
 21
80.09999999999782
 31
0.000000000000000
  0
LINE
  5
161
100
AcDbEntity
  8
A1
  6
CONTINUOUS
 62
7
100
AcDbLine
 10
627.7999999999652
 20
111.3499999999984
 30
0.000000000000000
 11
627.7999999999565
 21
103.6999999999824
 31
0.000000000000000
  0
LINE
  5
162
100
AcDbEntity
  8
A1
  6
CONTINUOUS
 62
7
100
AcDbLine
 10
627.7999999999641
 20
58.44999999999907
 30
0.000000000000000
 11
627.8000000000721
 21
66.10000000035704
 31
0.000000000000000
  0
LINE
  5
163
100
AcDbEntity
  8
A1
  6
CONTINUOUS
 62
7
100
AcDbLine
 10
1078.799999999965
 20
49.99999999999886
 30
0.000000000000000
 11
1078.799999999957
 21
58.44999999998140
 31
0.000000000000000
  0
LINE
  5
164
100
AcDbEntity
  8
A1
  6
CONTINUOUS
 62
7
100
AcDbLine
 10
1078.799999999964
 20
119.7999999999954
 30
0.000000000000000
 11
1078.799999999956
 21
111.3500000003549
 31
0.000000000000000
  0
LINE
  5
165
100
AcDbEntity
  8
A4
  6
CENTER
 62
1
100
AcDbLine
 10
168.3000000000039
 20
84.89999999999782
 30
0.000000000000000
 11
1994.699999999964
 21
84.89999999999782
 31
0.000000000000000
  0
SPLINE
  5
166
100
AcDbEntity
  8
A1
  6
CONTINUOUS
 62
7
100
AcDbSpline
210
0.000000000000000
220
0.000000000000000
230
1.000000000000000
 70
     8
 71
     3
 72
    12
 73
     8
 74
     0
 42
1.000000000000000e-07
 43
1.000000000000000e-07
 12
-0.8305197130976012
 22
0.5569892334297037
 32
0.000000000000000
 13
-0.9922250698000425
 23
0.1244564616608841
 33
0.000000000000000
 40
0.000000000000000
 40
0.000000000000000
 40
0.000000000000000
 40
0.000000000000000
 40
0.1476387386511086
 40
0.2822857224892344
 40
0.4255565306639177
 40
0.5380608954054843
 40
0.6041930190010709
 40
0.6041930190010709
 40
0.6041930190010709
 40
0.6041930190010709
 10
1991.285787000759
 20
240.0161516083589
 30
0.000000000000000
 10
1991.244914706471
 20
240.0435626709808
 30
0.000000000000000
 10
1991.166175698137
 20
240.0950393186562
 30
0.000000000000000
 10
1991.046545488244
 20
240.1714907676300
 30
0.000000000000000
 10
1990.933949715652
 20
240.2361574787691
 30
0.000000000000000
 10
1990.837732464706
 20
240.2858183394222
 30
0.000000000000000
 10
1990.778786693584
 20
240.2972564766254
 30
0.000000000000000
 10
1990.756914043268
 20
240.2999999999937
 30
0.000000000000000
  0
ARC
  5
167
100
AcDbEntity
  8
A1
  6
CONTINUOUS
 62
7
100
AcDbCircle
 10
1990.700000000760
 20
237.7999999999937
 30
0.000000000000000
 40
2.500000000000000
100
AcDbArc
 50
0.000000000000000
 51
36.86992168960163
  0
ARC
  5
168
100
AcDbEntity
  8
A1
  6
CONTINUOUS
 62
7
100
AcDbCircle
 10
1990.700000000760
 20
237.7999999999914
 30
0.000000000000000
 40
2.500000000002328
100
AcDbArc
 50
36.86992168963221
 51
88.73278272352177
  0
ARC
  5
169
100
AcDbEntity
  8
A1
  6
CONTINUOUS
 62
7
100
AcDbCircle
 10
1990.345300625459
 20
238.5999999999939
 30
0.000000000000000
 40
1.699999999999980
100
AcDbArc
 50
45.00000000003521
 51
56.41129919730653
  0
ARC
  5
16A
100
AcDbEntity
  8
A1
  6
CONTINUOUS
 62
7
100
AcDbCircle
 10
1991.199996278602
 20
237.3210350142157
 30
0.000000000000000
 40
2.000003722157540
100
AcDbArc
 50
0.000000000000000
 51
44.99993810155792
  0
LINE
  5
16B
100
AcDbEntity
  8
A1
  6
CONTINUOUS
 62
7
100
AcDbLine
 10
1990.700000000760
 20
219.7999999999940
 30
0.000000000000000
 11
1990.700000000760
 21
224.7999999999940
 31
0.000000000000000
  0
LINE
  5
16C
100
AcDbEntity
  8
A1
  6
CONTINUOUS
 62
7
100
AcDbLine
 10
1993.200000000760
 20
224.7999999999940
 30
0.000000000000000
 11
1993.200000000760
 21
219.7999999999940
 31
0.000000000000000
  0
LINE
  5
16D
100
AcDbEntity
  8
A1
  6
CONTINUOUS
 62
7
100
AcDbLine
 10
1993.200000000760
 20
219.7999999999940
 30
0.000000000000000
 11
1990.700000000760
 21
219.7999999999940
 31
0.000000000000000
  0
LINE
  5
16E
100
AcDbEntity
  8
A1
  6
CONTINUOUS
 62
7
100
AcDbLine
 10
1990.700000000760
 20
224.7999999999940
 30
0.000000000000000
 11
1990.700000000760
 21
225.5999999999906
 31
0.000000000000000
  0
LINE
  5
16F
100
AcDbEntity
  8
A1
  6
CONTINUOUS
 62
7
100
AcDbLine
 10
1993.200000000760
 20
237.3210360142200
 30
0.000000000000000
 11
1993.200000000760
 21
237.7999999999940
 31
0.000000000000000
  0
LINE
  5
170
100
AcDbEntity
  8
A1
  6
CONTINUOUS
 62
7
100
AcDbLine
 10
1993.200000000760
 20
224.7999999999940
 30
0.000000000000000
 11
1993.200000000760
 21
225.5999999999906
 31
0.000000000000000
  0
LINE
  5
171
100
AcDbEntity
  8
A1
  6
CONTINUOUS
 62
7
100
AcDbLine
 10
1990.700000000760
 20
224.7999999999940
 30
0.000000000000000
 11
1993.200000000760
 21
224.7999999999940
 31
0.000000000000000
  0
LINE
  5
172
100
AcDbEntity
  8
A1
  6
CONTINUOUS
 62
7
100
AcDbLine
 10
1992.699999371296
 20
238.6439127903357
 30
0.000000000000000
 11
1992.699999371296
 21
239.3000008392798
 31
0.000000000000000
  0
LINE
  5
173
100
AcDbEntity
  8
A1
  6
CONTINUOUS
 62
7
100
AcDbLine
 10
1078.800000000760
 20
239.8020815280113
 30
0.000000000000000
 11
1078.800000000760
 21
240.2999999999941
 31
0.000000000000000
  0
LINE
  5
174
100
AcDbEntity
  8
A1
  6
CONTINUOUS
 62
7
100
AcDbLine
 10
1990.756914043268
 20
240.2999999999940
 30
0.000000000000000
 11
1078.800000000760
 21
240.2999999999941
 31
0.000000000000000
  0
LINE
  5
175
100
AcDbEntity
  8
A1
  6
CONTINUOUS
 62
7
100
AcDbLine
 10
1078.800000000760
 20
235.4714453403611
 30
0.000000000000000
 11
1078.800000000760
 21
239.8020815280113
 31
0.000000000000000
  0
LINE
  5
176
100
AcDbEntity
  8
A1
  6
CONTINUOUS
 62
7
100
AcDbLine
 10
1993.200000000760
 20
235.4714453403615
 30
0.000000000000000
 11
1993.200000000760
 21
237.3210350142160
 31
0.000000000000000
  0
LINE
  5
177
100
AcDbEntity
  8
A1
  6
CONTINUOUS
 62
7
100
AcDbLine
 10
1992.614214000760
 20
238.7352496807279
 30
0.000000000000000
 11
1991.547382153476
 21
239.8020815280117
 31
0.000000000000000
  0
LINE
  5
178
100
AcDbEntity
  8
A1
  6
CONTINUOUS
 62
7
100
AcDbLine
 10
1991.547382153476
 20
239.8020815280119
 30
0.000000000000000
 11
1078.800000000760
 21
239.8020815280119
 31
0.000000000000000
  0
LINE
  5
179
100
AcDbEntity
  8
A1
  6
CONTINUOUS
 62
7
100
AcDbLine
 10
1078.800000000760
 20
225.5999999999902
 30
0.000000000000000
 11
1078.800000000760
 21
235.4714453403611
 31
0.000000000000000
  0
LINE
  5
17A
100
AcDbEntity
  8
A1
  6
CONTINUOUS
 62
7
100
AcDbLine
 10
1993.200000000761
 20
225.5999999999903
 30
0.000000000000000
 11
1078.800000000760
 21
225.5999999999903
 31
0.000000000000000
  0
LINE
  5
17B
100
AcDbEntity
  8
A1
  6
CONTINUOUS
 62
7
100
AcDbLine
 10
1993.200000000760
 20
225.5999999999901
 30
0.000000000000000
 11
1993.200000000760
 21
235.4714453403615
 31
0.000000000000000
  0
LINE
  5
17C
100
AcDbEntity
  8
A1
  6
CONTINUOUS
 62
7
100
AcDbLine
 10
1993.200000000761
 20
235.4714453403612
 30
0.000000000000000
 11
1078.800000000760
 21
235.4714453403612
 31
0.000000000000000
  0
SPLINE
  5
17D
100
AcDbEntity
  8
A1
  6
CONTINUOUS
 62
7
100
AcDbSpline
210
0.000000000000000
220
0.000000000000000
230
1.000000000000000
 70
     8
 71
     3
 72
    17
 73
    13
 74
     0
 42
1.000000000000000e-07
 43
1.000000000000000e-07
 12
-0.007049927396110434
 22
-0.9999751489522168
 32
0.000000000000000
 13
0.9999995238422343
 23
0.0009758660589795909
 33
0.000000000000000
 40
0.000000000000000
 40
0.000000000000000
 40
0.000000000000000
 40
0.000000000000000
 40
0.2816393116382642
 40
0.5634931201143014
 40
0.8349480651393026
 40
1.117917651600770
 40
1.392672024345166
 40
1.687069308203279
 40
1.989579451103306
 40
2.312133100972365
 40
2.570875769953646
 40
2.836914172936874
 40
2.836914172936874
 40
2.836914172936874
 40
2.836914172936874
 10
627.8000000007604
 20
222.6686259856959
 30
0.000000000000000
 10
627.7993381551941
 20
222.5747485481605
 30
0.000000000000000
 10
627.8158280928582
 20
222.3863987365238
 30
0.000000000000000
 10
627.8915416415556
 20
222.1166919038513
 30
0.000000000000000
 10
628.0226344826305
 20
221.8682835551216
 30
0.000000000000000
 10
628.2017883201842
 20
221.6550973711627
 30
0.000000000000000
 10
628.4246660038451
 20
221.4765835775851
 30
0.000000000000000
 10
628.6801633924559
 20
221.3355820066216
 30
0.000000000000000
 10
628.9681988885249
 20
221.2282031886679
 30
0.000000000000000
 10
629.2558316085959
 20
221.1610900278450
 30
0.000000000000000
 10
629.5362933651257
 20
221.1252210369247
 30
0.000000000000000
 10
629.7113205753247
 20
221.1177273497700
 30
0.000000000000000
 10
629.8000000007604
 20
221.1178138890526
 30
0.000000000000000
  0
LINE
  5
17E
100
AcDbEntity
  8
A1
  6
CONTINUOUS
 62
7
100
AcDbLine
 10
627.8000000007604
 20
233.6989714449963
 30
0.000000000000000
 11
627.8000000007604
 21
235.9999999999880
 31
0.000000000000000
  0
LINE
  5
17F
100
AcDbEntity
  8
A1
  6
CONTINUOUS
 62
7
100
AcDbLine
 10
1078.800000000761
 20
235.9999999999874
 30
0.000000000000000
 11
627.8000000007609
 21
235.9999999999873
 31
0.000000000000000
  0
LINE
  5
180
100
AcDbEntity
  8
A1
  6
CONTINUOUS
 62
7
100
AcDbLine
 10
627.8000000007604
 20
233.6989714449963
 30
0.000000000000000
 11
627.8000000007604
 21
227.7878158831907
 31
0.000000000000000
  0
LINE
  5
181
100
AcDbEntity
  8
A1
  6
CONTINUOUS
 62
7
100
AcDbLine
 10
1078.800000000760
 20
233.6989714449963
 30
0.000000000000000
 11
627.8000000007604
 21
233.6989714449963
 31
0.000000000000000
  0
LINE
  5
182
100
AcDbEntity
  8
A1
  6
CONTINUOUS
 62
7
100
AcDbLine
 10
627.8000000007604
 20
222.6686259856959
 30
0.000000000000000
 11
627.8000000007604
 21
227.7878158831907
 31
0.000000000000000
  0
LINE
  5
183
100
AcDbEntity
  8
A1
  6
CONTINUOUS
 62
7
100
AcDbLine
 10
1530.800000000760
 20
221.1178138890525
 30
0.000000000000000
 11
629.8000000007604
 21
221.1178138890526
 31
0.000000000000000
  0
LINE
  5
184
100
AcDbEntity
  8
A1
  6
CONTINUOUS
 62
7
100
AcDbLine
 10
1530.800000000760
 20
221.1178138890525
 30
0.000000000000000
 11
1530.800000000760
 21
225.5999999999915
 31
0.000000000000000
  0
LINE
  5
185
100
AcDbEntity
  8
A1
  6
CONTINUOUS
 62
7
100
AcDbLine
 10
1078.800000000760
 20
227.7878158831907
 30
0.000000000000000
 11
627.8000000007604
 21
227.7878158831907
 31
0.000000000000000
  0
LINE
  5
186
100
AcDbEntity
  8
A1
  6
CONTINUOUS
 62
7
100
AcDbLine
 10
1533.800000000763
 20
224.2999999999954
 30
0.000000000000000
 11
1530.800000000760
 21
224.2999999999954
 31
0.000000000000000
  0
LINE
  5
187
100
AcDbEntity
  8
A1
  6
CONTINUOUS
 62
7
100
AcDbLine
 10
1533.800000000763
 20
225.5999999999915
 30
0.000000000000000
 11
1533.800000000763
 21
224.2999999999954
 31
0.000000000000000
  0
LINE
  5
188
100
AcDbEntity
  8
A1
  6
CONTINUOUS
 62
7
100
AcDbLine
 10
1076.300000000760
 20
220.4999999999944
 30
0.000000000000000
 11
1076.300000000760
 21
221.1178138890526
 31
0.000000000000000
  0
LINE
  5
189
100
AcDbEntity
  8
A1
  6
CONTINUOUS
 62
7
100
AcDbLine
 10
169.8000000007605
 20
220.4999999999940
 30
0.000000000000000
 11
169.8000000007605
 21
223.4267245149252
 31
0.000000000000000
  0
LINE
  5
18A
100
AcDbEntity
  8
A1
  6
CONTINUOUS
 62
7
100
AcDbLine
 10
1076.300000000760
 20
220.4999999999936
 30
0.000000000000000
 11
169.8000000007603
 21
220.4999999999935
 31
0.000000000000000
  0
LINE
  5
18B
100
AcDbEntity
  8
A1
  6
CONTINUOUS
 62
7
100
AcDbLine
 10
169.8000000007605
 20
228.2807816321946
 30
0.000000000000000
 11
169.8000000007605
 21
229.8999999999945
 31
0.000000000000000
  0
LINE
  5
18C
100
AcDbEntity
  8
A1
  6
CONTINUOUS
 62
7
100
AcDbLine
 10
627.8000000007609
 20
229.8999999999942
 30
0.000000000000000
 11
169.8000000007609
 21
229.8999999999941
 31
0.000000000000000
  0
LINE
  5
18D
100
AcDbEntity
  8
A1
  6
CONTINUOUS
 62
7
100
AcDbLine
 10
169.8000000007605
 20
228.1655205870464
 30
0.000000000000000
 11
169.8000000007605
 21
228.2807816321946
 31
0.000000000000000
  0
LINE
  5
18E
100
AcDbEntity
  8
A1
  6
CONTINUOUS
 62
7
100
AcDbLine
 10
627.8000000007604
 20
228.2807816321946
 30
0.000000000000000
 11
169.8000000007605
 21
228.2807816321946
 31
0.000000000000000
  0
LINE
  5
18F
100
AcDbEntity
  8
A1
  6
CONTINUOUS
 62
7
100
AcDbLine
 10
169.8000000007605
 20
228.1655205870464
 30
0.000000000000000
 11
169.8000000007605
 21
223.4267245149252
 31
0.000000000000000
  0
LINE
  5
190
100
AcDbEntity
  8
A1
  6
CONTINUOUS
 62
7
100
AcDbLine
 10
627.8000000007604
 20
223.4267245149252
 30
0.000000000000000
 11
169.8000000007605
 21
223.4267245149252
 31
0.000000000000000
  0
LINE
  5
191
100
AcDbEntity
  8
A1
  6
CONTINUOUS
 62
7
100
AcDbLine
 10
627.8000000007604
 20
228.1655205870464
 30
0.000000000000000
 11
169.8000000007605
 21
228.1655205870464
 31
0.000000000000000
  0
CIRCLE
  5
192
100
AcDbEntity
  8
A1
  6
CONTINUOUS
 62
7
100
AcDbCircle
 10
722.3000000014174
 20
84.89999999999782
 30
0.000000000000000
 40
3.299999999999999
  0
CIRCLE
  5
193
100
AcDbEntity
  8
A1
  6
CONTINUOUS
 62
7
100
AcDbCircle
 10
709.6000000014185
 20
84.89999999999782
 30
0.000000000000000
 40
2.600000000000000
  0
LINE
  5
194
100
AcDbEntity
  8
A4
  6
CENTER
 62
1
100
AcDbLine
 10
709.6000000014185
 20
88.99999999999781
 30
0.000000000000000
 11
709.6000000014185
 21
80.79999999999782
 31
0.000000000000000
  0
LINE
  5
195
100
AcDbEntity
  8
A4
  6
CENTER
 62
1
100
AcDbLine
 10
722.3000000014174
 20
89.69999999999781
 30
0.000000000000000
 11
722.3000000014174
 21
80.09999999999782
 31
0.000000000000000
  0
LINE
  5
196
100
AcDbEntity
  8
A4
  6
CENTER
 62
1
100
AcDbLine
 10
71.30000000000001
 20
84.89999999999782
 30
0.000000000000000
 11
48.50000000000000
 21
84.89999999999782
 31
0.000000000000000
  0
ARC
  5
197
100
AcDbEntity
  8
A1
  6
CONTINUOUS
 62
7
100
AcDbCircle
 10
59.40000000000003
 20
56.46499999999651
 30
0.000000000000000
 40
6.464999999999999
100
AcDbArc
 50
225.0000000000139
 51
325.0646696619304
  0
LINE
  5
198
100
AcDbEntity
  8
A1
  6
CONTINUOUS
 62
7
100
AcDbLine
 10
56.79999999999967
 20
67.52598846298692
 30
0.000000000000000
 11
56.79999999999990
 21
62.82418694697653
 31
0.000000000000000
  0
ARC
  5
199
100
AcDbEntity
  8
A1
  6
CONTINUOUS
 62
7
100
AcDbCircle
 10
64.80000000000001
 20
64.12499999999773
 30
0.000000000000000
 40
5.674999999999999
100
AcDbArc
 50
65.44387469328805
 51
140.8349970654087
  0
LINE
  5
19A
100
AcDbEntity
  8
A1
  6
CONTINUOUS
 62
7
100
AcDbLine
 10
52.50000000000000
 20
57.75764322519399
 30
0.000000000000000
 11
52.50000000000000
 21
112.0423567748015
 31
0.000000000000000
  0
LINE
  5
19B
100
AcDbEntity
  8
A1
  6
CONTINUOUS
 62
7
100
AcDbLine
 10
50.00000000000000
 20
57.42627237529382
 30
0.000000000000000
 11
50.00000000000000
 21
112.3737276247016
 31
0.000000000000000
  0
LINE
  5
19C
100
AcDbEntity
  8
A1
  6
CONTINUOUS
 62
7
100
AcDbLine
 10
69.80000000000001
 20
67.87055308192771
 30
0.000000000000000
 11
69.80000000000001
 21
101.9294469180678
 31
0.000000000000000
  0
LINE
  5
19D
100
AcDbEntity
  8
A1
  6
CONTINUOUS
 62
7
100
AcDbLine
 10
67.29999999999995
 20
69.37767788846577
 30
0.000000000000000
 11
67.29999999999995
 21
100.4223221115299
 31
0.000000000000000
  0
LINE
  5
19E
100
AcDbEntity
  8
A1
  6
CONTINUOUS
 62
7
100
AcDbLine
 10
52.49999999999991
 20
57.75764322519409
 30
0.000000000000000
 11
56.59632161259527
 21
53.66132161259706
 31
0.000000000000000
  0
LINE
  5
19F
100
AcDbEntity
  8
A1
  6
CONTINUOUS
 62
7
100
AcDbLine
 10
50.49791847198241
 20
56.22419084727713
 30
0.000000000000000
 11
54.82855465962898
 21
51.89355465962755
 31
0.000000000000000
  0
LINE
  5
1A0
100
AcDbEntity
  8
A1
  6
CONTINUOUS
 62
7
100
AcDbLine
 10
58.60000000000014
 20
74.02132034355782
 30
0.000000000000000
 11
58.60000000000014
 21
95.77867965643787
 31
0.000000000000000
  0
LINE
  5
1A1
100
AcDbEntity
  8
A1
  6
CONTINUOUS
 62
7
100
AcDbLine
 10
61.09999999999991
 20
74.02132034355782
 30
0.000000000000000
 11
61.09999999999991
 21
95.77867965643787
 31
0.000000000000000
  0
ARC
  5
1A2
100
AcDbEntity
  8
A1
  6
CONTINUOUS
 62
7
100
AcDbCircle
 10
59.40780553198391
 20
56.46499999999651
 30
0.000000000000000
 40
6.464999999999999
100
AcDbArc
 50
64.34116408558700
 51
109.9462850724337
  0
ARC
  5
1A3
100
AcDbEntity
  8
A1
  6
CONTINUOUS
 62
7
100
AcDbCircle
 10
56.59999999999991
 20
61.56557613951736
 30
0.000000000000000
 40
2.299999999999999
100
AcDbArc
 50
180.0000000000000
 51
269.8314188142185
  0
ARC
  5
1A4
100
AcDbEntity
  8
A1
  6
CONTINUOUS
 62
7
100
AcDbCircle
 10
57.09999999999951
 20
62.82418694697662
 30
0.000000000000000
 40
0.3000000000000000
100
AcDbArc
 50
180.0000000000000
 51
289.9462850724159
  0
LINE
  5
1A5
100
AcDbEntity
  8
A1
  6
CONTINUOUS
 62
7
100
AcDbLine
 10
62.01921836779971
 20
65.84999999999752
 30
0.000000000000000
 11
60.40000000000013
 21
66.78485616052460
 31
0.000000000000000
  0
LINE
  5
1A6
100
AcDbEntity
  8
A1
  6
CONTINUOUS
 62
7
100
AcDbLine
 10
54.29999999999994
 20
67.52598846298690
 30
0.000000000000000
 11
54.30000000000000
 21
61.56557613951760
 31
0.000000000000000
  0
ARC
  5
1A7
100
AcDbEntity
  8
A1
  6
CONTINUOUS
 62
7
100
AcDbCircle
 10
58.10000000000082
 20
67.52598846298679
 30
0.000000000000000
 40
1.299999999999999
100
AcDbArc
 50
134.9999999999982
 51
180.0000000000000
  0
LINE
  5
1A8
100
AcDbEntity
  8
A1
  6
CONTINUOUS
 62
7
100
AcDbLine
 10
57.18076118445812
 20
68.44522727852748
 30
0.000000000000000
 11
59.92842712474745
 21
71.19289321881662
 31
0.000000000000000
  0
LINE
  5
1A9
100
AcDbEntity
  8
A1
  6
CONTINUOUS
 62
7
100
AcDbLine
 10
55.41299423149158
 20
70.21299423149695
 30
0.000000000000000
 11
58.16066017178154
 21
72.96066017177691
 31
0.000000000000000
  0
ARC
  5
1AA
100
AcDbEntity
  8
A1
  6
CONTINUOUS
 62
7
100
AcDbCircle
 10
57.10000000000053
 20
74.02132034355782
 30
0.000000000000000
 40
1.499999999999999
100
AcDbArc
 50
315.0000000000169
 51
360.0000000000000
  0
ARC
  5
1AB
100
AcDbEntity
  8
A1
  6
CONTINUOUS
 62
7
100
AcDbCircle
 10
57.10000000000053
 20
74.02132034355782
 30
0.000000000000000
 40
3.999999999999999
100
AcDbArc
 50
314.9999999999931
 51
360.0000000000000
  0
ARC
  5
1AC
100
AcDbEntity
  8
A1
  6
CONTINUOUS
 62
7
100
AcDbCircle
 10
58.09999999999985
 20
67.52598846298679
 30
0.000000000000000
 40
3.800000000000001
100
AcDbArc
 50
135.0000000000043
 51
180.0000000000000
  0
ARC
  5
1AD
100
AcDbEntity
  8
A1
  6
CONTINUOUS
 62
7
100
AcDbCircle
 10
51.70000000000005
 20
57.42627237529382
 30
0.000000000000000
 40
1.700000000000000
100
AcDbArc
 50
180.0000000000000
 51
224.9999999999810
  0
LINE
  5
1AE
100
AcDbEntity
  8
A1
  6
CONTINUOUS
 62
7
100
AcDbLine
 10
64.69999999999993
 20
53.23159229373096
 30
0.000000000000000
 11
64.69999999999993
 21
52.76280808168644
 31
0.000000000000000
  0
LINE
  5
1AF
100
AcDbEntity
  8
A1
  6
CONTINUOUS
 62
7
100
AcDbLine
 10
62.78481904981712
 20
54.39999999999775
 30
0.000000000000000
 11
64.69999999999993
 21
53.23159229373090
 31
0.000000000000000
  0
ARC
  5
1B0
100
AcDbEntity
  8
A1
  6
CONTINUOUS
 62
7
100
AcDbCircle
 10
64.80000000000001
 20
64.12499999999773
 30
0.000000000000000
 40
5.674999999999999
100
AcDbArc
 50
246.0925117444462
 51
320.5510832248698
  0
LINE
  5
1B1
100
AcDbEntity
  8
A1
  6
CONTINUOUS
 62
7
100
AcDbLine
 10
69.18218611093533
 20
60.51916169398248
 30
0.000000000000000
 11
67.25705640860633
 21
62.11415470387798
 31
0.000000000000000
  0
LINE
  5
1B2
100
AcDbEntity
  8
A1
  6
CONTINUOUS
 62
7
100
AcDbLine
 10
60.40000000000015
 20
67.70907937969923
 30
0.000000000000000
 11
60.40000000000015
 21
66.78485616052467
 31
0.000000000000000
  0
LINE
  5
1B3
100
AcDbEntity
  8
A1
  6
CONTINUOUS
 62
7
100
AcDbLine
 10
62.13447941294771
 20
65.84999999999764
 30
0.000000000000000
 11
62.01921836779974
 21
65.84999999999764
 31
0.000000000000000
  0
ARC
  5
1B4
100
AcDbEntity
  8
A1
  6
CONTINUOUS
 62
7
100
AcDbCircle
 10
68.02944691807011
 20
67.87055308192771
 30
0.000000000000000
 40
1.770553081929961
100
AcDbArc
 50
229.2318156757769
 51
360.0000000000018
  0
ARC
  5
1B5
100
AcDbEntity
  8
A1
  6
CONTINUOUS
 62
7
100
AcDbCircle
 10
67.20000000000005
 20
69.37767788846577
 30
0.000000000000000
 40
0.1000000000000000
100
AcDbArc
 50
245.4438746932937
 51
360.0000000000000
  0
ARC
  5
1B6
100
AcDbEntity
  8
A1
  6
CONTINUOUS
 62
7
100
AcDbCircle
 10
59.40000000000003
 20
113.3349999999992
 30
0.000000000000000
 40
6.464999999999999
100
AcDbArc
 50
34.93533033806960
 51
134.9999999999861
  0
LINE
  5
1B7
100
AcDbEntity
  8
A1
  6
CONTINUOUS
 62
7
100
AcDbLine
 10
56.79999999999970
 20
102.2740115370089
 30
0.000000000000000
 11
56.79999999999993
 21
106.9758130530189
 31
0.000000000000000
  0
ARC
  5
1B8
100
AcDbEntity
  8
A1
  6
CONTINUOUS
 62
7
100
AcDbCircle
 10
64.80000000000001
 20
105.6749999999977
 30
0.000000000000000
 40
5.674999999999999
100
AcDbArc
 50
219.1650029345913
 51
294.5561253067119
  0
LINE
  5
1B9
100
AcDbEntity
  8
A1
  6
CONTINUOUS
 62
7
100
AcDbLine
 10
52.49999999999990
 20
112.0423567748014
 30
0.000000000000000
 11
56.59632161259528
 21
116.1386783873983
 31
0.000000000000000
  0
LINE
  5
1BA
100
AcDbEntity
  8
A1
  6
CONTINUOUS
 62
7
100
AcDbLine
 10
50.49791847198264
 20
113.5758091527182
 30
0.000000000000000
 11
54.82855465962922
 21
117.9064453403676
 31
0.000000000000000
  0
ARC
  5
1BB
100
AcDbEntity
  8
A1
  6
CONTINUOUS
 62
7
100
AcDbCircle
 10
59.40780553198391
 20
113.3349999999992
 30
0.000000000000000
 40
6.464999999999999
100
AcDbArc
 50
250.0537149275663
 51
295.6588359144130
  0
ARC
  5
1BC
100
AcDbEntity
  8
A1
  6
CONTINUOUS
 62
7
100
AcDbCircle
 10
56.59999999999991
 20
108.2344238604783
 30
0.000000000000000
 40
2.299999999999999
100
AcDbArc
 50
90.16858118578155
 51
180.0000000000000
  0
ARC
  5
1BD
100
AcDbEntity
  8
A1
  6
CONTINUOUS
 62
7
100
AcDbCircle
 10
57.09999999999951
 20
106.9758130530191
 30
0.000000000000000
 40
0.3000000000000000
100
AcDbArc
 50
70.05371492758402
 51
180.0000000000000
  0
LINE
  5
1BE
100
AcDbEntity
  8
A1
  6
CONTINUOUS
 62
7
100
AcDbLine
 10
62.01921836779960
 20
103.9499999999979
 30
0.000000000000000
 11
60.40000000000008
 21
103.0151438394712
 31
0.000000000000000
  0
LINE
  5
1BF
100
AcDbEntity
  8
A1
  6
CONTINUOUS
 62
7
100
AcDbLine
 10
54.30000000000001
 20
102.2740115370090
 30
0.000000000000000
 11
54.30000000000007
 21
108.2344238604782
 31
0.000000000000000
  0
ARC
  5
1C0
100
AcDbEntity
  8
A1
  6
CONTINUOUS
 62
7
100
AcDbCircle
 10
58.10000000000082
 20
102.2740115370089
 30
0.000000000000000
 40
1.299999999999999
100
AcDbArc
 50
180.0000000000000
 51
225.0000000000018
  0
LINE
  5
1C1
100
AcDbEntity
  8
A1
  6
CONTINUOUS
 62
7
100
AcDbLine
 10
57.18076118445815
 20
101.3547727214683
 30
0.000000000000000
 11
59.92842712474751
 21
98.60710678117908
 31
0.000000000000000
  0
LINE
  5
1C2
100
AcDbEntity
  8
A1
  6
CONTINUOUS
 62
7
100
AcDbLine
 10
55.41299423149145
 20
99.58700576849880
 30
0.000000000000000
 11
58.16066017178145
 21
96.83933982821871
 31
0.000000000000000
  0
ARC
  5
1C3
100
AcDbEntity
  8
A1
  6
CONTINUOUS
 62
7
100
AcDbCircle
 10
57.10000000000053
 20
95.77867965643787
 30
0.000000000000000
 40
1.499999999999999
100
AcDbArc
 50
0.000000000000000
 51
44.99999999998312
  0
ARC
  5
1C4
100
AcDbEntity
  8
A1
  6
CONTINUOUS
 62
7
100
AcDbCircle
 10
57.10000000000053
 20
95.77867965643787
 30
0.000000000000000
 40
3.999999999999999
100
AcDbArc
 50
0.000000000000000
 51
45.00000000000691
  0
ARC
  5
1C5
100
AcDbEntity
  8
A1
  6
CONTINUOUS
 62
7
100
AcDbCircle
 10
58.09999999999985
 20
102.2740115370089
 30
0.000000000000000
 40
3.800000000000001
100
AcDbArc
 50
180.0000000000000
 51
224.9999999999957
  0
ARC
  5
1C6
100
AcDbEntity
  8
A1
  6
CONTINUOUS
 62
7
100
AcDbCircle
 10
51.70000000000005
 20
112.3737276247016
 30
0.000000000000000
 40
1.700000000000000
100
AcDbArc
 50
135.0000000000190
 51
180.0000000000000
  0
LINE
  5
1C7
100
AcDbEntity
  8
A1
  6
CONTINUOUS
 62
7
100
AcDbLine
 10
64.69999999999993
 20
116.5684077062647
 30
0.000000000000000
 11
64.69999999999993
 21
117.0371919183095
 31
0.000000000000000
  0
LINE
  5
1C8
100
AcDbEntity
  8
A1
  6
CONTINUOUS
 62
7
100
AcDbLine
 10
62.78481904981718
 20
115.3999999999974
 30
0.000000000000000
 11
64.69999999999996
 21
116.5684077062648
 31
0.000000000000000
  0
ARC
  5
1C9
100
AcDbEntity
  8
A1
  6
CONTINUOUS
 62
7
100
AcDbCircle
 10
64.80000000000001
 20
105.6749999999977
 30
0.000000000000000
 40
5.674999999999999
100
AcDbArc
 50
39.44891677513021
 51
113.9074882555569
  0
LINE
  5
1CA
100
AcDbEntity
  8
A1
  6
CONTINUOUS
 62
7
100
AcDbLine
 10
69.18218611093542
 20
109.2808383060128
 30
0.000000000000000
 11
67.25705640860647
 21
107.6858452961176
 31
0.000000000000000
  0
LINE
  5
1CB
100
AcDbEntity
  8
A1
  6
CONTINUOUS
 62
7
100
AcDbLine
 10
60.40000000000015
 20
102.0909206202965
 30
0.000000000000000
 11
60.40000000000015
 21
103.0151438394710
 31
0.000000000000000
  0
LINE
  5
1CC
100
AcDbEntity
  8
A1
  6
CONTINUOUS
 62
7
100
AcDbLine
 10
62.13447941294771
 20
103.9499999999978
 30
0.000000000000000
 11
62.01921836779974
 21
103.9499999999978
 31
0.000000000000000
  0
ARC
  5
1CD
100
AcDbEntity
  8
A1
  6
CONTINUOUS
 62
7
100
AcDbCircle
 10
68.02944691807011
 20
101.9294469180678
 30
0.000000000000000
 40
1.770553081929961
100
AcDbArc
 50
359.9999999999982
 51
490.7681843242231
  0
ARC
  5
1CE
100
AcDbEntity
  8
A1
  6
CONTINUOUS
 62
7
100
AcDbCircle
 10
67.20000000000005
 20
100.4223221115299
 30
0.000000000000000
 40
0.1000000000000000
100
AcDbArc
 50
0.000000000000000
 51
114.5561253067063
  0
LINE
  5
1CF
100
AcDbEntity
  8
A1
  6
CONTINUOUS
 62
7
100
AcDbLine
 10
69.30000000000001
 20
65.12499999999773
 30
0.000000000000000
 11
60.09999999999980
 21
65.12499999999773
 31
0.000000000000000
  0
LINE
  5
1D0
100
AcDbEntity
  8
A1
  6
CONTINUOUS
 62
7
100
AcDbLine
 10
69.30000000000001
 20
64.12499999999773
 30
0.000000000000000
 11
69.30000000000001
 21
65.12499999999773
 31
0.000000000000000
  0
LINE
  5
1D1
100
AcDbEntity
  8
A1
  6
CONTINUOUS
 62
7
100
AcDbLine
 10
69.30000000000001
 20
64.12499999999773
 30
0.000000000000000
 11
60.09999999999980
 21
64.12499999999773
 31
0.000000000000000
  0
LINE
  5
1D2
100
AcDbEntity
  8
A1
  6
CONTINUOUS
 62
7
100
AcDbLine
 10
58.09999999999970
 20
67.40172439427511
 30
0.000000000000000
 11
58.09999999999977
 21
66.12499999999773
 31
0.000000000000000
  0
LINE
  5
1D3
100
AcDbEntity
  8
A1
  6
CONTINUOUS
 62
7
100
AcDbLine
 10
59.09999999999970
 20
67.40172439427504
 30
0.000000000000000
 11
59.09999999999977
 21
66.12499999999766
 31
0.000000000000000
  0
ARC
  5
1D4
100
AcDbEntity
  8
A1
  6
CONTINUOUS
 62
7
100
AcDbCircle
 10
60.09999999999980
 20
66.12499999999773
 30
0.000000000000000
 40
1.000000000000000
100
AcDbArc
 50
180.0000000000000
 51
270.0000000000000
  0
ARC
  5
1D5
100
AcDbEntity
  8
A1
  6
CONTINUOUS
 62
7
100
AcDbCircle
 10
60.09999999999980
 20
66.12499999999773
 30
0.000000000000000
 40
2.000000000000000
100
AcDbArc
 50
180.0000000000000
 51
270.0000000000000
  0
LINE
  5
1D6
100
AcDbEntity
  8
A1
  6
CONTINUOUS
 62
7
100
AcDbLine
 10
59.18786796564378
 20
67.61385642863107
 30
0.000000000000000
 11
65.88578643763172
 21
74.31177490061138
 31
0.000000000000000
  0
LINE
  5
1D7
100
AcDbEntity
  8
A1
  6
CONTINUOUS
 62
7
100
AcDbLine
 10
58.48076118445767
 20
68.32096320981806
 30
0.000000000000000
 11
65.17867965644551
 21
75.01888168179831
 31
0.000000000000000
  0
ARC
  5
1D8
100
AcDbEntity
  8
A1
  6
CONTINUOUS
 62
7
100
AcDbCircle
 10
59.39999999999969
 20
67.40172439427499
 30
0.000000000000000
 40
0.3000000000000000
100
AcDbArc
 50
134.9999999999654
 51
180.0000000000000
  0
ARC
  5
1D9
100
AcDbEntity
  8
A1
  6
CONTINUOUS
 62
7
100
AcDbCircle
 10
59.39999999999969
 20
67.40172439427511
 30
0.000000000000000
 40
1.300000000000000
100
AcDbArc
 50
134.9999999999672
 51
180.0000000000000
  0
LINE
  5
1DA
100
AcDbEntity
  8
A1
  6
CONTINUOUS
 62
7
100
AcDbLine
 10
65.88578643763893
 20
77.14020202535193
 30
0.000000000000000
 11
63.48786796564296
 21
79.53812049736972
 31
0.000000000000000
  0
LINE
  5
1DB
100
AcDbEntity
  8
A1
  6
CONTINUOUS
 62
7
100
AcDbLine
 10
65.17867965644925
 20
76.43309524416861
 30
0.000000000000000
 11
62.78076118445332
 21
78.83101371618638
 31
0.000000000000000
  0
ARC
  5
1DC
100
AcDbEntity
  8
A1
  6
CONTINUOUS
 62
7
100
AcDbCircle
 10
64.47157287525943
 20
75.72598846298524
 30
0.000000000000000
 40
1.000000000000000
100
AcDbArc
 50
314.9999999999672
 51
404.9999999997386
  0
ARC
  5
1DD
100
AcDbEntity
  8
A1
  6
CONTINUOUS
 62
7
100
AcDbCircle
 10
64.47157287525943
 20
75.72598846298524
 30
0.000000000000000
 40
2.000000000000000
100
AcDbArc
 50
314.9999999999675
 51
404.9999999997395
  0
ARC
  5
1DE
100
AcDbEntity
  8
A1
  6
CONTINUOUS
 62
7
100
AcDbCircle
 10
63.69999999999987
 20
79.75025253172464
 30
0.000000000000000
 40
0.3000000000000000
100
AcDbArc
 50
180.0000000000000
 51
224.9999999997390
  0
ARC
  5
1DF
100
AcDbEntity
  8
A1
  6
CONTINUOUS
 62
7
100
AcDbCircle
 10
63.69999999999993
 20
79.75025253172464
 30
0.000000000000000
 40
1.300000000000000
100
AcDbArc
 50
180.0000000000000
 51
224.9999999997396
  0
LINE
  5
1E0
100
AcDbEntity
  8
A1
  6
CONTINUOUS
 62
7
100
AcDbLine
 10
59.18786796564391
 20
102.1861435713644
 30
0.000000000000000
 11
65.88578643763177
 21
95.48822509938421
 31
0.000000000000000
  0
LINE
  5
1E1
100
AcDbEntity
  8
A1
  6
CONTINUOUS
 62
7
100
AcDbLine
 10
58.48076118445755
 20
101.4790367901774
 30
0.000000000000000
 11
65.17867965644540
 21
94.78111831819713
 31
0.000000000000000
  0
LINE
  5
1E2
100
AcDbEntity
  8
A1
  6
CONTINUOUS
 62
7
100
AcDbLine
 10
65.88578643763904
 20
92.65979797464368
 30
0.000000000000000
 11
63.48786796564307
 21
90.26187950262589
 31
0.000000000000000
  0
LINE
  5
1E3
100
AcDbEntity
  8
A1
  6
CONTINUOUS
 62
7
100
AcDbLine
 10
65.17867965644916
 20
93.36690475582704
 30
0.000000000000000
 11
62.78076118445328
 21
90.96898628380931
 31
0.000000000000000
  0
ARC
  5
1E4
100
AcDbEntity
  8
A1
  6
CONTINUOUS
 62
7
100
AcDbCircle
 10
64.47157287525943
 20
94.07401153701022
 30
0.000000000000000
 40
1.000000000000000
100
AcDbArc
 50
315.0000000002614
 51
405.0000000000328
  0
ARC
  5
1E5
100
AcDbEntity
  8
A1
  6
CONTINUOUS
 62
7
100
AcDbCircle
 10
64.47157287525943
 20
94.07401153701022
 30
0.000000000000000
 40
2.000000000000000
100
AcDbArc
 50
315.0000000002605
 51
405.0000000000325
  0
ARC
  5
1E6
100
AcDbEntity
  8
A1
  6
CONTINUOUS
 62
7
100
AcDbCircle
 10
63.69999999999987
 20
90.04974746827094
 30
0.000000000000000
 40
0.3000000000000000
100
AcDbArc
 50
135.0000000002610
 51
180.0000000000000
  0
ARC
  5
1E7
100
AcDbEntity
  8
A1
  6
CONTINUOUS
 62
7
100
AcDbCircle
 10
63.69999999999993
 20
90.04974746827082
 30
0.000000000000000
 40
1.300000000000000
100
AcDbArc
 50
135.0000000002604
 51
180.0000000000000
  0
LINE
  5
1E8
100
AcDbEntity
  8
A1
  6
CONTINUOUS
 62
7
100
AcDbLine
 10
69.30000000000001
 20
104.6749999999979
 30
0.000000000000000
 11
60.09999999999980
 21
104.6749999999979
 31
0.000000000000000
  0
LINE
  5
1E9
100
AcDbEntity
  8
A1
  6
CONTINUOUS
 62
7
100
AcDbLine
 10
69.30000000000001
 20
105.6749999999979
 30
0.000000000000000
 11
69.30000000000001
 21
104.6749999999979
 31
0.000000000000000
  0
LINE
  5
1EA
100
AcDbEntity
  8
A1
  6
CONTINUOUS
 62
7
100
AcDbLine
 10
69.30000000000001
 20
105.6749999999979
 30
0.000000000000000
 11
60.09999999999980
 21
105.6749999999979
 31
0.000000000000000
  0
ARC
  5
1EB
100
AcDbEntity
  8
A1
  6
CONTINUOUS
 62
7
100
AcDbCircle
 10
60.09999999999980
 20
103.6749999999979
 30
0.000000000000000
 40
2.000000000000000
100
AcDbArc
 50
90.00000000000000
 51
180.0000000000000
  0
ARC
  5
1EC
100
AcDbEntity
  8
A1
  6
CONTINUOUS
 62
7
100
AcDbCircle
 10
60.09999999999980
 20
103.6749999999979
 30
0.000000000000000
 40
1.000000000000000
100
AcDbArc
 50
90.00000000000000
 51
180.0000000000000
  0
LINE
  5
1ED
100
AcDbEntity
  8
A1
  6
CONTINUOUS
 62
7
100
AcDbLine
 10
59.09999999999974
 20
102.3982756057205
 30
0.000000000000000
 11
59.09999999999981
 21
103.6749999999978
 31
0.000000000000000
  0
ARC
  5
1EE
100
AcDbEntity
  8
A1
  6
CONTINUOUS
 62
7
100
AcDbCircle
 10
59.39999999999969
 20
102.3982756057205
 30
0.000000000000000
 40
0.3000000000000000
100
AcDbArc
 50
180.0000000000000
 51
225.0000000000346
  0
LINE
  5
1EF
100
AcDbEntity
  8
A1
  6
CONTINUOUS
 62
7
100
AcDbLine
 10
58.09999999999974
 20
102.3982756057205
 30
0.000000000000000
 11
58.09999999999981
 21
103.6749999999979
 31
0.000000000000000
  0
ARC
  5
1F0
100
AcDbEntity
  8
A1
  6
CONTINUOUS
 62
7
100
AcDbCircle
 10
59.39999999999969
 20
102.3982756057204
 30
0.000000000000000
 40
1.300000000000000
100
AcDbArc
 50
180.0000000000000
 51
225.0000000000328
  0
LINE
  5
1F1
100
AcDbEntity
  8
A1
  6
CONTINUOUS
 62
7
100
AcDbLine
 10
63.39999999999992
 20
79.75025253172464
 30
0.000000000000000
 11
63.39999999999992
 21
90.04974746827094
 31
0.000000000000000
  0
LINE
  5
1F2
100
AcDbEntity
  8
A1
  6
CONTINUOUS
 62
7
100
AcDbLine
 10
62.39999999999992
 20
79.75025253172464
 30
0.000000000000000
 11
62.39999999999992
 21
90.04974746827082
 31
0.000000000000000
  0
LINE
  5
1F3
100
AcDbEntity
  8
A1
  6
CONTINUOUS
 62
7
100
AcDbLine
 10
53.00000000000000
 20
59.18154842042520
 30
0.000000000000000
 11
53.00000000000000
 21
69.90000000000907
 31
0.000000000000000
  0
LINE
  5
1F4
100
AcDbEntity
  8
A1
  6
CONTINUOUS
 62
7
100
AcDbLine
 10
54.00000000000000
 20
59.18154842042520
 30
0.000000000000000
 11
54.00000000000000
 21
69.90000000000907
 31
0.000000000000000
  0
LINE
  5
1F5
100
AcDbEntity
  8
A1
  6
CONTINUOUS
 62
7
100
AcDbLine
 10
54.78356038606189
 20
58.20525241330526
 30
0.000000000000000
 11
64.99999999999935
 21
55.94032227968145
 31
0.000000000000000
  0
LINE
  5
1F6
100
AcDbEntity
  8
A1
  6
CONTINUOUS
 62
7
100
AcDbLine
 10
54.56712077212387
 20
57.22895640618546
 30
0.000000000000000
 11
64.78356038606127
 21
54.96402627256165
 31
0.000000000000000
  0
ARC
  5
1F7
100
AcDbEntity
  8
A1
  6
CONTINUOUS
 62
7
100
AcDbCircle
 10
55.00000000000000
 20
59.18154842042520
 30
0.000000000000000
 40
1.000000000000000
100
AcDbArc
 50
180.0000000000000
 51
257.4999999999999
  0
ARC
  5
1F8
100
AcDbEntity
  8
A1
  6
CONTINUOUS
 62
7
100
AcDbCircle
 10
55.00000000000000
 20
59.18154842042520
 30
0.000000000000000
 40
2.000000000000000
100
AcDbArc
 50
180.0000000000000
 51
257.5000000000001
  0
LINE
  5
1F9
100
AcDbEntity
  8
A1
  6
CONTINUOUS
 62
7
100
AcDbLine
 10
64.78356038606118
 20
54.96402627256153
 30
0.000000000000000
 11
64.99999999999929
 21
55.94032227968146
 31
0.000000000000000
  0
LINE
  5
1FA
100
AcDbEntity
  8
A1
  6
CONTINUOUS
 62
7
100
AcDbLine
 10
53.99999999998869
 20
69.89999999999785
 30
0.000000000000000
 11
55.41421356237257
 21
71.31421356238170
 31
0.000000000000000
  0
LINE
  5
1FB
100
AcDbEntity
  8
A1
  6
CONTINUOUS
 62
7
100
AcDbLine
 10
53.29289321880211
 20
70.60710678118440
 30
0.000000000000000
 11
54.70710678118598
 21
72.02132034356828
 31
0.000000000000000
  0
ARC
  5
1FC
100
AcDbEntity
  8
A1
  6
CONTINUOUS
 62
7
100
AcDbCircle
 10
54.00000000000000
 20
69.90000000000907
 30
0.000000000000000
 40
1.000000000000000
100
AcDbArc
 50
134.9999999999994
 51
180.0000000000000
  0
LINE
  5
1FD
100
AcDbEntity
  8
A1
  6
CONTINUOUS
 62
7
100
AcDbLine
 10
56.71213203435600
 20
78.81213203435375
 30
0.000000000000000
 11
54.58578643761587
 21
76.68578643761437
 31
0.000000000000000
  0
LINE
  5
1FE
100
AcDbEntity
  8
A1
  6
CONTINUOUS
 62
7
100
AcDbLine
 10
57.41923881554253
 20
78.10502525316720
 30
0.000000000000000
 11
55.29289321880228
 21
75.97867965642769
 31
0.000000000000000
  0
ARC
  5
1FF
100
AcDbEntity
  8
A1
  6
CONTINUOUS
 62
7
100
AcDbCircle
 10
56.50000000000011
 20
79.02426406870973
 30
0.000000000000000
 40
0.3000000000000000
100
AcDbArc
 50
314.9999999999885
 51
360.0000000000000
  0
ARC
  5
200
100
AcDbEntity
  8
A1
  6
CONTINUOUS
 62
7
100
AcDbCircle
 10
56.50000000000011
 20
79.02426406870973
 30
0.000000000000000
 40
1.300000000000000
100
AcDbArc
 50
314.9999999999903
 51
360.0000000000000
  0
ARC
  5
201
100
AcDbEntity
  8
A1
  6
CONTINUOUS
 62
7
100
AcDbCircle
 10
55.99999999998869
 20
75.27157287524096
 30
0.000000000000000
 40
2.000000000000000
100
AcDbArc
 50
134.9999999999902
 51
209.8279761925665
  0
ARC
  5
202
100
AcDbEntity
  8
A1
  6
CONTINUOUS
 62
7
100
AcDbCircle
 10
55.99999999998869
 20
75.27157287524096
 30
0.000000000000000
 40
1.000000000000000
100
AcDbArc
 50
134.9999999999902
 51
209.8279761925667
  0
ARC
  5
203
100
AcDbEntity
  8
A1
  6
CONTINUOUS
 62
7
100
AcDbCircle
 10
53.99999999999943
 20
72.72842712475472
 30
0.000000000000000
 40
2.000000000000000
100
AcDbArc
 50
315.0000000000000
 51
389.8279761925668
  0
ARC
  5
204
100
AcDbEntity
  8
A1
  6
CONTINUOUS
 62
7
100
AcDbCircle
 10
53.99999999999943
 20
72.72842712475472
 30
0.000000000000000
 40
1.000000000000000
100
AcDbArc
 50
315.0000000000006
 51
389.8279761925668
  0
LINE
  5
205
100
AcDbEntity
  8
A1
  6
CONTINUOUS
 62
7
100
AcDbLine
 10
54.26495462170313
 20
74.27677765244907
 30
0.000000000000000
 11
54.86752268914230
 21
73.22582473615074
 31
0.000000000000000
  0
LINE
  5
206
100
AcDbEntity
  8
A1
  6
CONTINUOUS
 62
7
100
AcDbLine
 10
55.73504537828502
 20
73.72322234754665
 30
0.000000000000000
 11
55.13247731084584
 21
74.77417526384500
 31
0.000000000000000
  0
LINE
  5
207
100
AcDbEntity
  8
A1
  6
CONTINUOUS
 62
7
100
AcDbLine
 10
53.00000000000000
 20
110.6184515795704
 30
0.000000000000000
 11
53.00000000000000
 21
99.89999999998639
 31
0.000000000000000
  0
LINE
  5
208
100
AcDbEntity
  8
A1
  6
CONTINUOUS
 62
7
100
AcDbLine
 10
54.00000000000000
 20
110.6184515795704
 30
0.000000000000000
 11
54.00000000000000
 21
99.89999999998639
 31
0.000000000000000
  0
LINE
  5
209
100
AcDbEntity
  8
A1
  6
CONTINUOUS
 62
7
100
AcDbLine
 10
54.78356038606191
 20
111.5947475866903
 30
0.000000000000000
 11
64.99999999999936
 21
113.8596777203141
 31
0.000000000000000
  0
LINE
  5
20A
100
AcDbEntity
  8
A1
  6
CONTINUOUS
 62
7
100
AcDbLine
 10
54.56712077212377
 20
112.5710435938100
 30
0.000000000000000
 11
64.78356038606123
 21
114.8359737274338
 31
0.000000000000000
  0
ARC
  5
20B
100
AcDbEntity
  8
A1
  6
CONTINUOUS
 62
7
100
AcDbCircle
 10
55.00000000000000
 20
110.6184515795704
 30
0.000000000000000
 40
1.000000000000000
100
AcDbArc
 50
102.5000000000001
 51
180.0000000000000
  0
ARC
  5
20C
100
AcDbEntity
  8
A1
  6
CONTINUOUS
 62
7
100
AcDbCircle
 10
55.00000000000000
 20
110.6184515795704
 30
0.000000000000000
 40
2.000000000000000
100
AcDbArc
 50
102.4999999999999
 51
180.0000000000000
  0
LINE
  5
20D
100
AcDbEntity
  8
A1
  6
CONTINUOUS
 62
7
100
AcDbLine
 10
64.78356038606120
 20
114.8359737274342
 30
0.000000000000000
 11
64.99999999999932
 21
113.8596777203142
 31
0.000000000000000
  0
LINE
  5
20E
100
AcDbEntity
  8
A1
  6
CONTINUOUS
 62
7
100
AcDbLine
 10
53.99999999998862
 20
99.89999999999773
 30
0.000000000000000
 11
55.41421356237252
 21
98.48578643761385
 31
0.000000000000000
  0
LINE
  5
20F
100
AcDbEntity
  8
A1
  6
CONTINUOUS
 62
7
100
AcDbLine
 10
53.29289321880206
 20
99.19289321881114
 30
0.000000000000000
 11
54.70710678118590
 21
97.77867965642731
 31
0.000000000000000
  0
ARC
  5
210
100
AcDbEntity
  8
A1
  6
CONTINUOUS
 62
7
100
AcDbCircle
 10
54.00000000000000
 20
99.89999999998639
 30
0.000000000000000
 40
1.000000000000000
100
AcDbArc
 50
180.0000000000000
 51
225.0000000000006
  0
LINE
  5
211
100
AcDbEntity
  8
A1
  6
CONTINUOUS
 62
7
100
AcDbLine
 10
56.71213203435592
 20
90.98786796564171
 30
0.000000000000000
 11
54.58578643761579
 21
93.11421356238108
 31
0.000000000000000
  0
LINE
  5
212
100
AcDbEntity
  8
A1
  6
CONTINUOUS
 62
7
100
AcDbLine
 10
57.41923881554231
 20
91.69497474682824
 30
0.000000000000000
 11
55.29289321880211
 21
93.82132034356771
 31
0.000000000000000
  0
ARC
  5
213
100
AcDbEntity
  8
A1
  6
CONTINUOUS
 62
7
100
AcDbCircle
 10
56.50000000000011
 20
90.77573593128574
 30
0.000000000000000
 40
0.3000000000000000
100
AcDbArc
 50
0.000000000000000
 51
45.00000000001150
  0
ARC
  5
214
100
AcDbEntity
  8
A1
  6
CONTINUOUS
 62
7
100
AcDbCircle
 10
56.50000000000011
 20
90.77573593128574
 30
0.000000000000000
 40
1.300000000000000
100
AcDbArc
 50
0.000000000000000
 51
45.00000000000972
  0
ARC
  5
215
100
AcDbEntity
  8
A1
  6
CONTINUOUS
 62
7
100
AcDbCircle
 10
55.99999999998869
 20
94.52842712475450
 30
0.000000000000000
 40
2.000000000000000
100
AcDbArc
 50
150.1720238074335
 51
225.0000000000098
  0
ARC
  5
216
100
AcDbEntity
  8
A1
  6
CONTINUOUS
 62
7
100
AcDbCircle
 10
55.99999999998869
 20
94.52842712475450
 30
0.000000000000000
 40
1.000000000000000
100
AcDbArc
 50
150.1720238074333
 51
225.0000000000098
  0
ARC
  5
217
100
AcDbEntity
  8
A1
  6
CONTINUOUS
 62
7
100
AcDbCircle
 10
53.99999999999943
 20
97.07157287524075
 30
0.000000000000000
 40
2.000000000000000
100
AcDbArc
 50
330.1720238074332
 51
404.9999999999999
  0
ARC
  5
218
100
AcDbEntity
  8
A1
  6
CONTINUOUS
 62
7
100
AcDbCircle
 10
53.99999999999943
 20
97.07157287524075
 30
0.000000000000000
 40
1.000000000000000
100
AcDbArc
 50
330.1720238074332
 51
404.9999999999994
  0
LINE
  5
219
100
AcDbEntity
  8
A1
  6
CONTINUOUS
 62
7
100
AcDbLine
 10
54.26495462170314
 20
95.52322234754661
 30
0.000000000000000
 11
54.86752268914232
 21
96.57417526384495
 31
0.000000000000000
  0
LINE
  5
21A
100
AcDbEntity
  8
A1
  6
CONTINUOUS
 62
7
100
AcDbLine
 10
55.73504537828511
 20
96.07677765244898
 30
0.000000000000000
 11
55.13247731084593
 21
95.02582473615064
 31
0.000000000000000
  0
LINE
  5
21B
100
AcDbEntity
  8
A1
  6
CONTINUOUS
 62
7
100
AcDbLine
 10
57.80000000000013
 20
79.02426406870973
 30
0.000000000000000
 11
57.80000000000013
 21
90.77573593128574
 31
0.000000000000000
  0
LINE
  5
21C
100
AcDbEntity
  8
A1
  6
CONTINUOUS
 62
7
100
AcDbLine
 10
56.80000000000013
 20
79.02426406870973
 30
0.000000000000000
 11
56.80000000000013
 21
90.77573593128574
 31
0.000000000000000
  0
ARC
  5
21D
100
AcDbEntity
  8
A1
  6
CONTINUOUS
 62
7
100
AcDbCircle
 10
59.40000000000003
 20
56.46499999999651
 30
0.000000000000000
 40
3.964999999999999
100
AcDbArc
 50
357.6659397403221
 51
517.3340602596779
  0
ARC
  5
21E
100
AcDbEntity
  8
A1
  6
CONTINUOUS
 62
7
100
AcDbCircle
 10
59.40000000000003
 20
56.46499999999651
 30
0.000000000000000
 40
3.964999999999999
100
AcDbArc
 50
171.8418556335158
 51
343.1581443664844
  0
ARC
  5
21F
100
AcDbEntity
  8
A1
  6
CONTINUOUS
 62
7
100
AcDbCircle
 10
64.80000000000001
 20
64.12499999999773
 30
0.000000000000000
 40
3.174999999999999
100
AcDbArc
 50
180.0000000000000
 51
360.0000000000000
  0
ARC
  5
220
100
AcDbEntity
  8
A1
  6
CONTINUOUS
 62
7
100
AcDbCircle
 10
64.80000000000001
 20
64.12499999999773
 30
0.000000000000000
 40
3.174999999999999
100
AcDbArc
 50
18.35843707533010
 51
161.6415629246699
  0
ARC
  5
221
100
AcDbEntity
  8
A1
  6
CONTINUOUS
 62
7
100
AcDbCircle
 10
64.80000000000001
 20
105.6749999999977
 30
0.000000000000000
 40
3.174999999999999
100
AcDbArc
 50
198.3584370753279
 51
341.6415629246720
  0
ARC
  5
222
100
AcDbEntity
  8
A1
  6
CONTINUOUS
 62
7
100
AcDbCircle
 10
64.80000000000001
 20
105.6749999999977
 30
0.000000000000000
 40
3.174999999999999
100
AcDbArc
 50
0.000000000000000
 51
180.0000000000000
  0
ARC
  5
223
100
AcDbEntity
  8
A1
  6
CONTINUOUS
 62
7
100
AcDbCircle
 10
59.40000000000003
 20
113.3349999999992
 30
0.000000000000000
 40
3.964999999999999
100
AcDbArc
 50
16.84185563351389
 51
188.1581443664863
  0
ARC
  5
224
100
AcDbEntity
  8
A1
  6
CONTINUOUS
 62
7
100
AcDbCircle
 10
59.40000000000003
 20
113.3349999999992
 30
0.000000000000000
 40
3.964999999999999
100
AcDbArc
 50
202.6659397403229
 51
362.3340602596767
  0
LINE
  5
225
100
AcDbEntity
  8
A4
  6
CENTER
 62
1
100
AcDbLine
 10
1120.199999999967
 20
79.72304473782719
 30
0.000000000000000
 11
1120.199999999967
 21
90.07695526216571
 31
0.000000000000000
  0
LINE
  5
226
100
AcDbEntity
  8
A4
  6
CENTER
 62
1
100
AcDbLine
 10
1110.599999999965
 20
89.70000000000145
 30
0.000000000000000
 11
1110.599999999965
 21
80.10000000000144
 31
0.000000000000000
  0
LINE
  5
227
100
AcDbEntity
  8
A4
  6
CENTER
 62
1
100
AcDbLine
 10
1100.999999999966
 20
80.05000000000291
 30
0.000000000000000
 11
1100.999999999966
 21
89.75000000000000
 31
0.000000000000000
  0
LINE
  5
228
100
AcDbEntity
  8
A4
  6
CENTER
 62
1
100
AcDbLine
 10
1351.799999999965
 20
80.04999999999991
 30
0.000000000000000
 11
1351.799999999965
 21
89.75000000000000
 31
0.000000000000000
  0
ENDSEC
  0
SECTION
  2
OBJECTS
  0
DICTIONARY
  5
254
100
AcDbDictionary
  3
ACAD_GROUP
350
255
  3
ACAD_LAYOUT
350
256
  3
ACAD_MLINESTYLE
350
257
  0
DICTIONARY
  5
255
102
{ACAD_REACTORS
330
254
102
}
330
254
100
AcDbDictionary
  0
DICTIONARY
  5
256
102
{ACAD_REACTORS
330
254
102
}
330
254
100
AcDbDictionary
  3
Model
350
258
  3
ﾚｲｱｳﾄ1
350
259
  3
ﾚｲｱｳﾄ2
350
25A
  0
DICTIONARY
  5
257
102
{ACAD_REACTORS
330
254
102
}
330
254
100
AcDbDictionary
  3
STANDARD
350
25B
  0
LAYOUT
  5
258
102
{ACAD_REACTORS
330
256
102
}
330
256
100
AcDbPlotSettings
 70
11952
  4
A3
 44
297.000000
 45
420.000000
 73
  1
 72
  1
100
AcDbLayout
  1
Model
 71
0
330
24B
  0
LAYOUT
  5
259
102
{ACAD_REACTORS
330
256
102
}
330
256
100
AcDbPlotSettings
100
AcDbLayout
  1
ﾚｲｱｳﾄ1
 71
1
330
24C
  0
LAYOUT
  5
25A
102
{ACAD_REACTORS
330
256
102
}
330
256
100
AcDbPlotSettings
100
AcDbLayout
  1
ﾚｲｱｳﾄ2
 71
2
330
24D
  0
MLINESTYLE
  5
25B
102
{ACAD_REACTORS
330
257
102
}
330
257
100
AcDbMlineStyle
  2
STANDARD
 70
     0
  3

 62
   256
 51
90.00
 52
90.00
 71
     2
 49
0.50
 62
   256
  6
BYLAYER
 49
-0.50
 62
   256
  6
BYLAYER
  0
ENDSEC
  0
EOF
