  0
SECTION
  2
HEADER
  9
$ACADVER
  1
AC1014
  9
$DWGCODEPAGE
  3
ANSI_932
  9
$LTSCALE
 40
20.0
  9
$FILLMODE
 70
     1
  9
$CLAYER
  8
0
  9
$PDMODE
 70
     0
  9
$SPLFRAME
 70
     0
  9
$SPLINETYPE
 70
     6
  9
$SPLINESEGS
 70
     8
  9
$DIMASZ
 40
2.000000
  9
$DIMEXE
 40
1.500000
  9
$DIMEXO
 40
0.800000
  9
$DIMTAD
 70
     1
  9
$DIMTIH
 70
     0
  9
$DIMTOH
 70
     0
  9
$DIMTVP
 40
0.500000
  9
$DIMTXT
 40
3.100000
  9
$EXTMIN
 10
0.000000
 20
0.000000
 30
0.000000
  9
$EXTMAX
 10
297.000000
 20
420.000000
 30
0.000000
  9
$MEASUREMENT
 70
  1
  9
$LIMMIN
 10
0.000000
 20
0.000000
  9
$LIMMAX
 10
297.000000
 20
420.000000
  9
$HANDLING
 70
     1
  9
$HANDSEED
  5
259
  9
$DIMBLK
  1
_OPEN
  9
$DIMDEC
 70
     2
  9
$DIMAUNIT
 70
     0
  9
$DIMZIN
 70
     8
  9
$DIMTOFL
 70
     1
  0
ENDSEC
  0
SECTION
  2
CLASSES
  0
ENDSEC
  0
SECTION
  2
TABLES
  0
TABLE
  2
VPORT
  5
226
100
AcDbSymbolTable
 70
     1
  0
VPORT
  5
227
100
AcDbSymbolTableRecord
100
AcDbViewportTableRecord
  2
*ACTIVE
 70
     0
 12
1004.542445
 22
96.738906
 40
157.477810
 41
12.630890
  0
ENDTAB
  0
TABLE
  2
LTYPE
  5
228
100
AcDbSymbolTable
 70
     3
  0
LTYPE
  5
229
100
AcDbSymbolTableRecord
100
AcDbLinetypeTableRecord
  2
BYBLOCK
 70
     0
  3

 72
    65
 73
     0
 40
0.0
  0
LTYPE
  5
22A
100
AcDbSymbolTableRecord
100
AcDbLinetypeTableRecord
  2
BYLAYER
 70
     0
  3

 72
    65
 73
     0
 40
0.0
  0
LTYPE
  5
22B
100
AcDbSymbolTableRecord
100
AcDbLinetypeTableRecord
  2
CONTINUOUS
 70
     0
  3
Solid line (NEC CAE2D for Win R18.0 : 2025.02.03)
 72
    65
 73
     0
 40
0.0
  0
LTYPE
  5
22C
100
AcDbSymbolTableRecord
100
AcDbLinetypeTableRecord
  2
DASHED
 70
     0
  3
__ __ __ __ __ __ __ __ __ __ __ __ __ _
 72
    65
 73
     2
 40
0.75
 49
0.5
 74
     0
 49
-0.25
 74
     0
  0
LTYPE
  5
22D
100
AcDbSymbolTableRecord
100
AcDbLinetypeTableRecord
  2
CENTER
 70
     0
  3
____ _ ____ _ ____ _ ____ _ ____ _ ____
 72
    65
 73
     4
 40
2.0
 49
1.25
 74
     0
 49
-0.25
 74
     0
 49
0.25
 74
     0
 49
-0.25
 74
     0
  0
ENDTAB
  0
TABLE
  2
LAYER
  5
22E
100
AcDbSymbolTable
 70
    19
  0
LAYER
  5
22F
100
AcDbSymbolTableRecord
100
AcDbLayerTableRecord
  2
0
 70
     0
 62
     7
  6
CONTINUOUS
  0
LAYER
  5
230
100
AcDbSymbolTableRecord
100
AcDbLayerTableRecord
  2
DXF0
 70
     0
 62
     7
  6
CONTINUOUS
  0
LAYER
  5
231
100
AcDbSymbolTableRecord
100
AcDbLayerTableRecord
  2
A0
 70
     0
 62
     9
  6
CONTINUOUS
  0
LAYER
  5
232
100
AcDbSymbolTableRecord
100
AcDbLayerTableRecord
  2
A1
 70
     0
 62
    12
  6
CONTINUOUS
  0
LAYER
  5
233
100
AcDbSymbolTableRecord
100
AcDbLayerTableRecord
  2
A2
 70
     0
 62
     9
  6
CONTINUOUS
  0
LAYER
  5
234
100
AcDbSymbolTableRecord
100
AcDbLayerTableRecord
  2
A3
 70
     0
 62
    12
  6
CONTINUOUS
  0
LAYER
  5
235
100
AcDbSymbolTableRecord
100
AcDbLayerTableRecord
  2
A4
 70
     0
 62
     9
  6
CONTINUOUS
  0
LAYER
  5
236
100
AcDbSymbolTableRecord
100
AcDbLayerTableRecord
  2
A5
 70
     0
 62
     8
  6
CONTINUOUS
  0
LAYER
  5
237
100
AcDbSymbolTableRecord
100
AcDbLayerTableRecord
  2
A6
 70
     0
 62
    12
  6
CONTINUOUS
  0
LAYER
  5
238
100
AcDbSymbolTableRecord
100
AcDbLayerTableRecord
  2
A7
 70
     0
 62
    12
  6
CONTINUOUS
  0
LAYER
  5
239
100
AcDbSymbolTableRecord
100
AcDbLayerTableRecord
  2
A8
 70
     0
 62
    10
  6
CONTINUOUS
  0
LAYER
  5
23A
100
AcDbSymbolTableRecord
100
AcDbLayerTableRecord
  2
A9
 70
     0
 62
     9
  6
CONTINUOUS
  0
LAYER
  5
23B
100
AcDbSymbolTableRecord
100
AcDbLayerTableRecord
  2
A10
 70
     0
 62
     6
  6
CONTINUOUS
  0
LAYER
  5
23C
100
AcDbSymbolTableRecord
100
AcDbLayerTableRecord
  2
A20
 70
     0
 62
     1
  6
CONTINUOUS
  0
LAYER
  5
23D
100
AcDbSymbolTableRecord
100
AcDbLayerTableRecord
  2
A30
 70
     0
 62
     1
  6
CONTINUOUS
  0
LAYER
  5
23E
100
AcDbSymbolTableRecord
100
AcDbLayerTableRecord
  2
A40
 70
     0
 62
     9
  6
CONTINUOUS
  0
LAYER
  5
23F
100
AcDbSymbolTableRecord
100
AcDbLayerTableRecord
  2
A50
 70
     0
 62
    12
  6
CONTINUOUS
  0
LAYER
  5
240
100
AcDbSymbolTableRecord
100
AcDbLayerTableRecord
  2
A1023
 70
     0
 62
     8
  6
CONTINUOUS
  0
LAYER
  5
241
100
AcDbSymbolTableRecord
100
AcDbLayerTableRecord
  2
DXF1023
 70
     0
 62
    16
  6
CONTINUOUS
  0
ENDTAB
  0
TABLE
  2
STYLE
  5
242
100
AcDbSymbolTable
 70
     4
  0
STYLE
  5
243
100
AcDbSymbolTableRecord
100
AcDbTextStyleTableRecord
  2
STANDARD
 70
    64
 40
0.0
 41
1.0
 50
0.0
 71
     0
 42
3.000000000000000
  3
TXT
  4

  0
STYLE
  5
244
100
AcDbSymbolTableRecord
100
AcDbTextStyleTableRecord
  2
ANKTATE
 70
    68
 40
0.0
 41
1.0
 50
0.0
 71
     0
 42
3.000000000000000
  3
TXT
  4

  0
STYLE
  5
245
100
AcDbSymbolTableRecord
100
AcDbTextStyleTableRecord
  2
KNJYOKO
 70
    64
 40
0.0
 41
1.0
 50
0.0
 71
     0
 42
3.000000000000000
  3
TXT
  4
BIGFONT
  0
STYLE
  5
246
100
AcDbSymbolTableRecord
100
AcDbTextStyleTableRecord
  2
KNJTATE
 70
    68
 40
0.0
 41
1.0
 50
0.0
 71
     0
 42
3.000000000000000
  3
TXT
  4
BIGFONT
  0
ENDTAB
  0
TABLE
  2
VIEW
  5
247
100
AcDbSymbolTable
 70
     0
  0
ENDTAB
  0
TABLE
  2
UCS
  5
248
100
AcDbSymbolTable
 70
     0
  0
ENDTAB
  0
TABLE
  2
APPID
  5
249
100
AcDbSymbolTable
 70
     1
  0
APPID
  5
24A
100
AcDbSymbolTableRecord
100
AcDbRegAppTableRecord
  2
ACAD
 70
     0
  0
ENDTAB
  0
TABLE
  2
DIMSTYLE
  5
24B
100
AcDbSymbolTable
 70
     2
  0
DIMSTYLE
105
24C
100
AcDbSymbolTableRecord
100
AcDbDimStyleTableRecord
  2
STANDARD
 70
     0
 41
2.000000
 44
1.500000
 42
0.800000
145
0.661290
140
3.100000
144
1.000000
146
0.645161
340
243
  0
DIMSTYLE
105
24D
100
AcDbSymbolTableRecord
100
AcDbDimStyleTableRecord
  2
DXF001
 70
     0
 41
2.000000
 44
1.500000
 42
0.800000
145
0.661290
140
3.100000
144
1.000000
146
0.645161
 77
     1
 73
     0
 74
     0
271
     2
275
     0
 78
     8
172
     1
340
243
  0
ENDTAB
  0
TABLE
  2
BLOCK_RECORD
  5
24E
100
AcDbSymbolTable
 70
    12
  0
BLOCK_RECORD
  5
24F
100
AcDbSymbolTableRecord
100
AcDbBlockTableRecord
  2
*MODEL_SPACE
  0
BLOCK_RECORD
  5
250
100
AcDbSymbolTableRecord
100
AcDbBlockTableRecord
  2
*PAPER_SPACE
  0
BLOCK_RECORD
  5
1
100
AcDbSymbolTableRecord
100
AcDbBlockTableRecord
  2
_NONE
  0
BLOCK_RECORD
  5
4
100
AcDbSymbolTableRecord
100
AcDbBlockTableRecord
  2
_CLOSED
  0
BLOCK_RECORD
  5
B
100
AcDbSymbolTableRecord
100
AcDbBlockTableRecord
  2
_DOT
  0
BLOCK_RECORD
  5
13
100
AcDbSymbolTableRecord
100
AcDbBlockTableRecord
  2
_OPEN
  0
BLOCK_RECORD
  5
19
100
AcDbSymbolTableRecord
100
AcDbBlockTableRecord
  2
_ORIGIN
  0
BLOCK_RECORD
  5
1E
100
AcDbSymbolTableRecord
100
AcDbBlockTableRecord
  2
_OPEN30
  0
BLOCK_RECORD
  5
24
100
AcDbSymbolTableRecord
100
AcDbBlockTableRecord
  2
_BOXFILLED
  0
BLOCK_RECORD
  5
29
100
AcDbSymbolTableRecord
100
AcDbBlockTableRecord
  2
_BOXBLANK
  0
BLOCK_RECORD
  5
31
100
AcDbSymbolTableRecord
100
AcDbBlockTableRecord
  2
_OBLIQUE
  0
BLOCK_RECORD
  5
35
100
AcDbSymbolTableRecord
100
AcDbBlockTableRecord
  2
_OPEN90
  0
BLOCK_RECORD
  5
3B
100
AcDbSymbolTableRecord
100
AcDbBlockTableRecord
  2
_CLOSEDBLANK
  0
BLOCK_RECORD
  5
41
100
AcDbSymbolTableRecord
100
AcDbBlockTableRecord
  2
_DOTBLANK
  0
ENDTAB
  0
ENDSEC
  0
SECTION
  2
BLOCKS
  0
BLOCK
  5
251
100
AcDbEntity
  8
0
100
AcDbBlockBegin
  2
*MODEL_SPACE
 70
     0
 10
0.0
 20
0.0
 30
0.0
  3
*MODEL_SPACE
  1

  0
ENDBLK
  5
252
100
AcDbEntity
  8
0
100
AcDbBlockEnd
  0
BLOCK
  5
253
100
AcDbEntity
  8
0
100
AcDbBlockBegin
  2
*PAPER_SPACE
 70
     0
 10
0.0
 20
0.0
 30
0.0
  3
*PAPER_SPACE
  1

  0
ENDBLK
  5
254
100
AcDbEntity
  8
0
100
AcDbBlockEnd
  0
BLOCK
  5
2
100
AcDbEntity
  8
0
100
AcDbBlockBegin
  2
_NONE
 70
     0
 10
0.0
 20
0.0
 30
0.0
  3
_NONE
  1

  0
ENDBLK
  5
3
100
AcDbEntity
  8
0
100
AcDbBlockEnd
  0
BLOCK
  5
5
100
AcDbEntity
  8
0
100
AcDbBlockBegin
  2
_CLOSED
 70
     0
 10
0.0
 20
0.0
 30
0.0
  3
_CLOSED
  1

  0
LINE
  5
6
100
AcDbEntity
  8
0
  6
BYBLOCK
 62
     0
100
AcDbLine
 10
-1.0
 20
0.166667
 30
0.0
 11
0.0
 21
0.0
 31
0.0
  0
LINE
  5
7
100
AcDbEntity
  8
0
  6
BYBLOCK
 62
     0
100
AcDbLine
 10
0.0
 20
0.0
 30
0.0
 11
-1.0
 21
-0.166667
 31
0.0
  0
LINE
  5
8
100
AcDbEntity
  8
0
  6
BYBLOCK
 62
     0
100
AcDbLine
 10
-1.0
 20
0.166667
 30
0.0
 11
-1.0
 21
-0.166667
 31
0.0
  0
LINE
  5
9
100
AcDbEntity
  8
0
  6
BYBLOCK
 62
     0
100
AcDbLine
 10
0.0
 20
0.0
 30
0.0
 11
-1.0
 21
0.0
 31
0.0
  0
ENDBLK
  5
A
100
AcDbEntity
  8
0
100
AcDbBlockEnd
  0
BLOCK
  5
C
100
AcDbEntity
  8
0
100
AcDbBlockBegin
  2
_DOT
 70
     0
 10
0.0
 20
0.0
 30
0.0
  3
_DOT
  1

  0
POLYLINE
  5
D
100
AcDbEntity
  8
0
  6
BYBLOCK
 62
     0
100
AcDb2dPolyline
 66
     1
 10
0.0
 20
0.0
 30
0.0
 70
     1
 40
0.5
 41
0.5
  0
VERTEX
  5
E
100
AcDbEntity
  8
0
  6
BYBLOCK
 62
     0
100
AcDbVertex
100
AcDb2dVertex
 10
-0.25
 20
0.0
 30
0.0
 42
1.0
  0
VERTEX
  5
F
100
AcDbEntity
  8
0
  6
BYBLOCK
 62
     0
100
AcDbVertex
100
AcDb2dVertex
 10
0.25
 20
0.0
 30
0.0
 42
1.0
  0
SEQEND
  5
10
100
AcDbEntity
  8
0
  6
BYBLOCK
 62
     0
  0
LINE
  5
11
100
AcDbEntity
  8
0
  6
BYBLOCK
 62
     0
100
AcDbLine
 10
-0.5
 20
0.0
 30
0.0
 11
-1.0
 21
0.0
 31
0.0
  0
ENDBLK
  5
12
100
AcDbEntity
  8
0
100
AcDbBlockEnd
  0
BLOCK
  5
14
100
AcDbEntity
  8
0
100
AcDbBlockBegin
  2
_OPEN
 70
     0
 10
0.0
 20
0.0
 30
0.0
  3
_OPEN
  1

  0
LINE
  5
15
100
AcDbEntity
  8
0
  6
BYBLOCK
 62
     0
100
AcDbLine
 10
-1.0
 20
0.166667
 30
0.0
 11
0.0
 21
0.0
 31
0.0
  0
LINE
  5
16
100
AcDbEntity
  8
0
  6
BYBLOCK
 62
     0
100
AcDbLine
 10
0.0
 20
0.0
 30
0.0
 11
-1.0
 21
-0.166667
 31
0.0
  0
LINE
  5
17
100
AcDbEntity
  8
0
  6
BYBLOCK
 62
     0
100
AcDbLine
 10
0.0
 20
0.0
 30
0.0
 11
-1.0
 21
0.0
 31
0.0
  0
ENDBLK
  5
18
100
AcDbEntity
  8
0
100
AcDbBlockEnd
  0
BLOCK
  5
1A
100
AcDbEntity
  8
0
100
AcDbBlockBegin
  2
_ORIGIN
 70
     0
 10
0.0
 20
0.0
 30
0.0
  3
_ORIGIN
  1

  0
CIRCLE
  5
1B
100
AcDbEntity
  8
0
  6
BYBLOCK
 62
     0
100
AcDbCircle
 10
0.0
 20
0.0
 30
0.0
 40
0.5
  0
LINE
  5
1C
100
AcDbEntity
  8
0
  6
BYBLOCK
 62
     0
100
AcDbLine
 10
0.0
 20
0.0
 30
0.0
 11
-1.0
 21
0.0
 31
0.0
  0
ENDBLK
  5
1D
100
AcDbEntity
  8
0
100
AcDbBlockEnd
  0
BLOCK
  5
1F
100
AcDbEntity
  8
0
100
AcDbBlockBegin
  2
_OPEN30
 70
     0
 10
0.0
 20
0.0
 30
0.0
  3
_OPEN30
  1

  0
LINE
  5
20
100
AcDbEntity
  8
0
  6
BYBLOCK
 62
     0
100
AcDbLine
 10
-1.0
 20
0.267949
 30
0.0
 11
0.0
 21
0.0
 31
0.0
  0
LINE
  5
21
100
AcDbEntity
  8
0
  6
BYBLOCK
 62
     0
100
AcDbLine
 10
0.0
 20
0.0
 30
0.0
 11
-1.0
 21
-0.267949
 31
0.0
  0
LINE
  5
22
100
AcDbEntity
  8
0
  6
BYBLOCK
 62
     0
100
AcDbLine
 10
0.0
 20
0.0
 30
0.0
 11
-1.0
 21
0.0
 31
0.0
  0
ENDBLK
  5
23
100
AcDbEntity
  8
0
100
AcDbBlockEnd
  0
BLOCK
  5
25
100
AcDbEntity
  8
0
100
AcDbBlockBegin
  2
_BOXFILLED
 70
     0
 10
0.0
 20
0.0
 30
0.0
  3
_BOXFILLED
  1

  0
SOLID
  5
26
100
AcDbEntity
  8
0
  6
BYBLOCK
 62
     0
100
AcDbTrace
 10
-0.5
 20
0.5
 30
0.0
 11
0.5
 21
0.5
 31
0.0
 12
-0.5
 22
-0.5
 32
0.0
 13
0.5
 23
-0.5
 33
0.0
  0
LINE
  5
27
100
AcDbEntity
  8
0
  6
BYBLOCK
 62
     0
100
AcDbLine
 10
-0.5
 20
0.0
 30
0.0
 11
-1.0
 21
0.0
 31
0.0
  0
ENDBLK
  5
28
100
AcDbEntity
  8
0
100
AcDbBlockEnd
  0
BLOCK
  5
2A
100
AcDbEntity
  8
0
100
AcDbBlockBegin
  2
_BOXBLANK
 70
     0
 10
0.0
 20
0.0
 30
0.0
  3
_BOXBLANK
  1

  0
LINE
  5
2B
100
AcDbEntity
  8
0
  6
BYBLOCK
 62
     0
100
AcDbLine
 10
-0.5
 20
-0.5
 30
0.0
 11
0.5
 21
-0.5
 31
0.0
  0
LINE
  5
2C
100
AcDbEntity
  8
0
  6
BYBLOCK
 62
     0
100
AcDbLine
 10
0.5
 20
-0.5
 30
0.0
 11
0.5
 21
0.5
 31
0.0
  0
LINE
  5
2D
100
AcDbEntity
  8
0
  6
BYBLOCK
 62
     0
100
AcDbLine
 10
0.5
 20
0.5
 30
0.0
 11
-0.5
 21
0.5
 31
0.0
  0
LINE
  5
2E
100
AcDbEntity
  8
0
  6
BYBLOCK
 62
     0
100
AcDbLine
 10
-0.5
 20
0.5
 30
0.0
 11
-0.5
 21
-0.5
 31
0.0
  0
LINE
  5
2F
100
AcDbEntity
  8
0
  6
BYBLOCK
 62
     0
100
AcDbLine
 10
-0.5
 20
0.0
 30
0.0
 11
-1.0
 21
0.0
 31
0.0
  0
ENDBLK
  5
30
100
AcDbEntity
  8
0
100
AcDbBlockEnd
  0
BLOCK
  5
32
100
AcDbEntity
  8
0
100
AcDbBlockBegin
  2
_OBLIQUE
 70
     0
 10
0.0
 20
0.0
 30
0.0
  3
_OBLIQUE
  1

  0
LINE
  5
33
100
AcDbEntity
  8
0
  6
BYBLOCK
 62
     0
100
AcDbLine
 10
-0.5
 20
-0.5
 30
0.0
 11
0.5
 21
0.5
 31
0.0
  0
ENDBLK
  5
34
100
AcDbEntity
  8
0
100
AcDbBlockEnd
  0
BLOCK
  5
36
100
AcDbEntity
  8
0
100
AcDbBlockBegin
  2
_OPEN90
 70
     0
 10
0.0
 20
0.0
 30
0.0
  3
_OPEN90
  1

  0
LINE
  5
37
100
AcDbEntity
  8
0
  6
BYBLOCK
 62
     0
100
AcDbLine
 10
-0.5
 20
0.5
 30
0.0
 11
0.0
 21
0.0
 31
0.0
  0
LINE
  5
38
100
AcDbEntity
  8
0
  6
BYBLOCK
 62
     0
100
AcDbLine
 10
0.0
 20
0.0
 30
0.0
 11
-0.5
 21
-0.5
 31
0.0
  0
LINE
  5
39
100
AcDbEntity
  8
0
  6
BYBLOCK
 62
     0
100
AcDbLine
 10
0.0
 20
0.0
 30
0.0
 11
-1.0
 21
0.0
 31
0.0
  0
ENDBLK
  5
3A
100
AcDbEntity
  8
0
100
AcDbBlockEnd
  0
BLOCK
  5
3C
100
AcDbEntity
  8
0
100
AcDbBlockBegin
  2
_CLOSEDBLANK
 70
     0
 10
0.0
 20
0.0
 30
0.0
  3
_CLOSEDBLANK
  1

  0
LINE
  5
3D
100
AcDbEntity
  8
0
  6
BYBLOCK
 62
     0
100
AcDbLine
 10
-1.0
 20
0.1666666666666666
 30
0.0
 11
0.0
 21
0.0
 31
0.0
  0
LINE
  5
3E
100
AcDbEntity
  8
0
  6
BYBLOCK
 62
     0
100
AcDbLine
 10
0.0
 20
0.0
 30
0.0
 11
-1.0
 21
-0.1666666666666666
 31
0.0
  0
LINE
  5
3F
100
AcDbEntity
  8
0
  6
BYBLOCK
 62
     0
100
AcDbLine
 10
-1.0
 20
0.1666666666666666
 30
0.0
 11
-1.0
 21
-0.1666666666666666
 31
0.0
  0
ENDBLK
  5
40
100
AcDbEntity
  8
0
100
AcDbBlockEnd
  0
BLOCK
  5
42
100
AcDbEntity
  8
0
100
AcDbBlockBegin
  2
_DOTBLANK
 70
     0
 10
0.0
 20
0.0
 30
0.0
  3
_DOTBLANK
  1

  0
CIRCLE
  5
43
100
AcDbEntity
  8
0
  6
BYBLOCK
 62
     0
100
AcDbCircle
 10
0.0
 20
0.0
 30
0.0
 40
0.5
  0
LINE
  5
44
100
AcDbEntity
  8
0
  6
BYBLOCK
 62
     0
100
AcDbLine
 10
-0.5
 20
0.0
 30
0.0
 11
-1.0
 21
0.0
 31
0.0
  0
ENDBLK
  5
45
100
AcDbEntity
  8
0
100
AcDbBlockEnd
  0
ENDSEC
  0
SECTION
  2
ENTITIES
  0
MTEXT
  5
46
100
AcDbEntity
  8
A7
  6
CONTINUOUS
 62
3
100
AcDbMText
 10
9.999997526638502
 20
18.00000076076889
 30
0.000000000000000
 40
3.000000000000000
 41
0.000000000000000
 71
     7
 72
     1
  1
{\H0.94x;{TYPE No.TM-377-38}}
 11
1.000000000000000
 21
0.000000000000000
 31
0.000000000000000
  7
STANDARD
  0
POINT
  5
47
100
AcDbEntity
  8
A10
  6
CONTINUOUS
 62
3
100
AcDbPoint
 10
9.999997526638502
 20
18.00000076076889
 30
0.000000000000000
  0
LINE
  5
48
100
AcDbEntity
  8
A2
  6
CENTER
 62
1
100
AcDbLine
 10
42.18489247542125
 20
75.70261997861884
 30
0.000000000000000
 11
19.38489247542122
 21
75.70261997861884
 31
0.000000000000000
  0
ARC
  5
49
100
AcDbEntity
  8
A1
  6
CONTINUOUS
 62
7
100
AcDbCircle
 10
30.28489247542127
 20
47.26761997861753
 30
0.000000000000000
 40
6.464999999999999
100
AcDbArc
 50
225.0000000000139
 51
325.0646696619304
  0
LINE
  5
4A
100
AcDbEntity
  8
A1
  6
CONTINUOUS
 62
7
100
AcDbLine
 10
27.68489247542092
 20
58.32860844160793
 30
0.000000000000000
 11
27.68489247542115
 21
53.62680692559756
 31
0.000000000000000
  0
ARC
  5
4B
100
AcDbEntity
  8
A1
  6
CONTINUOUS
 62
7
100
AcDbCircle
 10
35.68489247542125
 20
54.92761997861875
 30
0.000000000000000
 40
5.674999999999999
100
AcDbArc
 50
65.44387469328805
 51
140.8349970654087
  0
LINE
  5
4C
100
AcDbEntity
  8
A1
  6
CONTINUOUS
 62
7
100
AcDbLine
 10
23.38489247542124
 20
48.56026320381501
 30
0.000000000000000
 11
23.38489247542124
 21
102.8449767534224
 31
0.000000000000000
  0
LINE
  5
4D
100
AcDbEntity
  8
A1
  6
CONTINUOUS
 62
7
100
AcDbLine
 10
20.88489247542124
 20
48.22889235391484
 30
0.000000000000000
 11
20.88489247542124
 21
103.1763476033226
 31
0.000000000000000
  0
LINE
  5
4E
100
AcDbEntity
  8
A1
  6
CONTINUOUS
 62
7
100
AcDbLine
 10
40.68489247542125
 20
58.67317306054876
 30
0.000000000000000
 11
40.68489247542125
 21
92.73206689668872
 31
0.000000000000000
  0
LINE
  5
4F
100
AcDbEntity
  8
A1
  6
CONTINUOUS
 62
7
100
AcDbLine
 10
23.38489247542119
 20
48.56026320381513
 30
0.000000000000000
 11
27.48121408801654
 21
44.46394159121810
 31
0.000000000000000
  0
LINE
  5
50
100
AcDbEntity
  8
A1
  6
CONTINUOUS
 62
7
100
AcDbLine
 10
21.38281094740368
 20
47.02681082589812
 30
0.000000000000000
 11
25.71344713505024
 21
42.69617463824854
 31
0.000000000000000
  0
LINE
  5
51
100
AcDbEntity
  8
A1
  6
CONTINUOUS
 62
7
100
AcDbLine
 10
29.48489247542138
 20
64.82394032217884
 30
0.000000000000000
 11
29.48489247542138
 21
86.58129963505884
 31
0.000000000000000
  0
LINE
  5
52
100
AcDbEntity
  8
A1
  6
CONTINUOUS
 62
7
100
AcDbLine
 10
31.98489247542115
 20
64.82394032217884
 30
0.000000000000000
 11
31.98489247542115
 21
86.58129963505884
 31
0.000000000000000
  0
ARC
  5
53
100
AcDbEntity
  8
A1
  6
CONTINUOUS
 62
7
100
AcDbCircle
 10
30.29269800740515
 20
47.26761997861753
 30
0.000000000000000
 40
6.464999999999999
100
AcDbArc
 50
64.34116408558700
 51
109.9462850724337
  0
ARC
  5
54
100
AcDbEntity
  8
A1
  6
CONTINUOUS
 62
7
100
AcDbCircle
 10
27.48489247542115
 20
52.36819611813839
 30
0.000000000000000
 40
2.299999999999999
100
AcDbArc
 50
180.0000000000000
 51
269.8314188142185
  0
ARC
  5
55
100
AcDbEntity
  8
A1
  6
CONTINUOUS
 62
7
100
AcDbCircle
 10
27.98489247542075
 20
53.62680692559765
 30
0.000000000000000
 40
0.3000000000000000
100
AcDbArc
 50
180.0000000000000
 51
289.9462850724159
  0
LINE
  5
56
100
AcDbEntity
  8
A1
  6
CONTINUOUS
 62
7
100
AcDbLine
 10
32.90411084322096
 20
56.65261997861855
 30
0.000000000000000
 11
31.28489247542137
 21
57.58747613914564
 31
0.000000000000000
  0
LINE
  5
57
100
AcDbEntity
  8
A1
  6
CONTINUOUS
 62
7
100
AcDbLine
 10
25.18489247542120
 20
58.32860844160798
 30
0.000000000000000
 11
25.18489247542126
 21
52.36819611813858
 31
0.000000000000000
  0
ARC
  5
58
100
AcDbEntity
  8
A1
  6
CONTINUOUS
 62
7
100
AcDbCircle
 10
28.98489247542206
 20
58.32860844160784
 30
0.000000000000000
 40
1.299999999999999
100
AcDbArc
 50
134.9999999999982
 51
180.0000000000000
  0
LINE
  5
59
100
AcDbEntity
  8
A1
  6
CONTINUOUS
 62
7
100
AcDbLine
 10
28.06565365987942
 20
59.24784725714854
 30
0.000000000000000
 11
30.81331960016877
 21
61.99551319743770
 31
0.000000000000000
  0
LINE
  5
5A
100
AcDbEntity
  8
A1
  6
CONTINUOUS
 62
7
100
AcDbLine
 10
26.29788670691280
 20
61.01561421011790
 30
0.000000000000000
 11
29.04555264720280
 21
63.76328015039792
 31
0.000000000000000
  0
ARC
  5
5B
100
AcDbEntity
  8
A1
  6
CONTINUOUS
 62
7
100
AcDbCircle
 10
27.98489247542177
 20
64.82394032217884
 30
0.000000000000000
 40
1.499999999999999
100
AcDbArc
 50
315.0000000000169
 51
360.0000000000000
  0
ARC
  5
5C
100
AcDbEntity
  8
A1
  6
CONTINUOUS
 62
7
100
AcDbCircle
 10
27.98489247542177
 20
64.82394032217884
 30
0.000000000000000
 40
3.999999999999999
100
AcDbArc
 50
314.9999999999931
 51
360.0000000000000
  0
ARC
  5
5D
100
AcDbEntity
  8
A1
  6
CONTINUOUS
 62
7
100
AcDbCircle
 10
28.98489247542109
 20
58.32860844160784
 30
0.000000000000000
 40
3.800000000000001
100
AcDbArc
 50
135.0000000000043
 51
180.0000000000000
  0
ARC
  5
5E
100
AcDbEntity
  8
A1
  6
CONTINUOUS
 62
7
100
AcDbCircle
 10
22.58489247542128
 20
48.22889235391484
 30
0.000000000000000
 40
1.700000000000000
100
AcDbArc
 50
180.0000000000000
 51
224.9999999999810
  0
LINE
  5
5F
100
AcDbEntity
  8
A1
  6
CONTINUOUS
 62
7
100
AcDbLine
 10
35.58489247542117
 20
44.03421227235198
 30
0.000000000000000
 11
35.58489247542117
 21
43.56542806030747
 31
0.000000000000000
  0
LINE
  5
60
100
AcDbEntity
  8
A1
  6
CONTINUOUS
 62
7
100
AcDbLine
 10
33.66971152523837
 20
45.20261997861871
 30
0.000000000000000
 11
35.58489247542118
 21
44.03421227235185
 31
0.000000000000000
  0
ARC
  5
61
100
AcDbEntity
  8
A1
  6
CONTINUOUS
 62
7
100
AcDbCircle
 10
35.68489247542125
 20
54.92761997861875
 30
0.000000000000000
 40
5.674999999999999
100
AcDbArc
 50
246.0925117444462
 51
320.5510832248698
  0
LINE
  5
62
100
AcDbEntity
  8
A1
  6
CONTINUOUS
 62
7
100
AcDbLine
 10
40.06707858635659
 20
51.32178167260354
 30
0.000000000000000
 11
38.14194888402762
 21
52.91677468249901
 31
0.000000000000000
  0
LINE
  5
63
100
AcDbEntity
  8
A1
  6
CONTINUOUS
 62
7
100
AcDbLine
 10
31.28489247542139
 20
58.51169935832029
 30
0.000000000000000
 11
31.28489247542139
 21
57.58747613914569
 31
0.000000000000000
  0
LINE
  5
64
100
AcDbEntity
  8
A1
  6
CONTINUOUS
 62
7
100
AcDbLine
 10
33.01937188836895
 20
56.65261997861866
 30
0.000000000000000
 11
32.90411084322098
 21
56.65261997861866
 31
0.000000000000000
  0
ARC
  5
65
100
AcDbEntity
  8
A1
  6
CONTINUOUS
 62
7
100
AcDbCircle
 10
38.91433939349135
 20
58.67317306054876
 30
0.000000000000000
 40
1.770553081929961
100
AcDbArc
 50
229.2318156757769
 51
360.0000000000018
  0
ARC
  5
66
100
AcDbEntity
  8
A1
  6
CONTINUOUS
 62
7
100
AcDbCircle
 10
38.08489247542128
 20
60.18029786708679
 30
0.000000000000000
 40
0.1000000000000000
100
AcDbArc
 50
245.4438746932937
 51
360.0000000000000
  0
ARC
  5
67
100
AcDbEntity
  8
A1
  6
CONTINUOUS
 62
7
100
AcDbCircle
 10
30.28489247542127
 20
104.1376199786202
 30
0.000000000000000
 40
6.464999999999999
100
AcDbArc
 50
34.93533033806960
 51
134.9999999999861
  0
LINE
  5
68
100
AcDbEntity
  8
A1
  6
CONTINUOUS
 62
7
100
AcDbLine
 10
27.68489247542093
 20
93.07663151562996
 30
0.000000000000000
 11
27.68489247542115
 21
97.77843303163989
 31
0.000000000000000
  0
ARC
  5
69
100
AcDbEntity
  8
A1
  6
CONTINUOUS
 62
7
100
AcDbCircle
 10
35.68489247542125
 20
96.47761997861870
 30
0.000000000000000
 40
5.674999999999999
100
AcDbArc
 50
219.1650029345913
 51
294.5561253067119
  0
LINE
  5
6A
100
AcDbEntity
  8
A1
  6
CONTINUOUS
 62
7
100
AcDbLine
 10
23.38489247542110
 20
102.8449767534223
 30
0.000000000000000
 11
27.48121408801651
 21
106.9412983660192
 31
0.000000000000000
  0
LINE
  5
6B
100
AcDbEntity
  8
A1
  6
CONTINUOUS
 62
7
100
AcDbLine
 10
21.38281094740394
 20
104.3784291313392
 30
0.000000000000000
 11
25.71344713505055
 21
108.7090653189886
 31
0.000000000000000
  0
ARC
  5
6C
100
AcDbEntity
  8
A1
  6
CONTINUOUS
 62
7
100
AcDbCircle
 10
30.29269800740515
 20
104.1376199786202
 30
0.000000000000000
 40
6.464999999999999
100
AcDbArc
 50
250.0537149275663
 51
295.6588359144130
  0
ARC
  5
6D
100
AcDbEntity
  8
A1
  6
CONTINUOUS
 62
7
100
AcDbCircle
 10
27.48489247542115
 20
99.03704383909930
 30
0.000000000000000
 40
2.299999999999999
100
AcDbArc
 50
90.16858118578155
 51
180.0000000000000
  0
ARC
  5
6E
100
AcDbEntity
  8
A1
  6
CONTINUOUS
 62
7
100
AcDbCircle
 10
27.98489247542075
 20
97.77843303164003
 30
0.000000000000000
 40
0.3000000000000000
100
AcDbArc
 50
70.05371492758402
 51
180.0000000000000
  0
LINE
  5
6F
100
AcDbEntity
  8
A1
  6
CONTINUOUS
 62
7
100
AcDbLine
 10
32.90411084322084
 20
94.75261997861890
 30
0.000000000000000
 11
31.28489247542134
 21
93.81776381809216
 31
0.000000000000000
  0
LINE
  5
70
100
AcDbEntity
  8
A1
  6
CONTINUOUS
 62
7
100
AcDbLine
 10
25.18489247542123
 20
93.07663151562997
 30
0.000000000000000
 11
25.18489247542129
 21
99.03704383909917
 31
0.000000000000000
  0
ARC
  5
71
100
AcDbEntity
  8
A1
  6
CONTINUOUS
 62
7
100
AcDbCircle
 10
28.98489247542206
 20
93.07663151562987
 30
0.000000000000000
 40
1.299999999999999
100
AcDbArc
 50
180.0000000000000
 51
225.0000000000018
  0
LINE
  5
72
100
AcDbEntity
  8
A1
  6
CONTINUOUS
 62
7
100
AcDbLine
 10
28.06565365987932
 20
92.15739270008925
 30
0.000000000000000
 11
30.81331960016869
 21
89.40972675980001
 31
0.000000000000000
  0
LINE
  5
73
100
AcDbEntity
  8
A1
  6
CONTINUOUS
 62
7
100
AcDbLine
 10
26.29788670691264
 20
90.38962574711977
 30
0.000000000000000
 11
29.04555264720264
 21
87.64195980683968
 31
0.000000000000000
  0
ARC
  5
74
100
AcDbEntity
  8
A1
  6
CONTINUOUS
 62
7
100
AcDbCircle
 10
27.98489247542177
 20
86.58129963505884
 30
0.000000000000000
 40
1.499999999999999
100
AcDbArc
 50
0.000000000000000
 51
44.99999999998312
  0
ARC
  5
75
100
AcDbEntity
  8
A1
  6
CONTINUOUS
 62
7
100
AcDbCircle
 10
27.98489247542177
 20
86.58129963505884
 30
0.000000000000000
 40
3.999999999999999
100
AcDbArc
 50
0.000000000000000
 51
45.00000000000691
  0
ARC
  5
76
100
AcDbEntity
  8
A1
  6
CONTINUOUS
 62
7
100
AcDbCircle
 10
28.98489247542109
 20
93.07663151562987
 30
0.000000000000000
 40
3.800000000000001
100
AcDbArc
 50
180.0000000000000
 51
224.9999999999957
  0
ARC
  5
77
100
AcDbEntity
  8
A1
  6
CONTINUOUS
 62
7
100
AcDbCircle
 10
22.58489247542128
 20
103.1763476033226
 30
0.000000000000000
 40
1.700000000000000
100
AcDbArc
 50
135.0000000000190
 51
180.0000000000000
  0
LINE
  5
78
100
AcDbEntity
  8
A1
  6
CONTINUOUS
 62
7
100
AcDbLine
 10
35.58489247542117
 20
107.3710276848857
 30
0.000000000000000
 11
35.58489247542117
 21
107.8398118969304
 31
0.000000000000000
  0
LINE
  5
79
100
AcDbEntity
  8
A1
  6
CONTINUOUS
 62
7
100
AcDbLine
 10
33.66971152523845
 20
106.2026199786185
 30
0.000000000000000
 11
35.58489247542121
 21
107.3710276848858
 31
0.000000000000000
  0
ARC
  5
7A
100
AcDbEntity
  8
A1
  6
CONTINUOUS
 62
7
100
AcDbCircle
 10
35.68489247542125
 20
96.47761997861870
 30
0.000000000000000
 40
5.674999999999999
100
AcDbArc
 50
39.44891677513021
 51
113.9074882555569
  0
LINE
  5
7B
100
AcDbEntity
  8
A1
  6
CONTINUOUS
 62
7
100
AcDbLine
 10
40.06707858635666
 20
100.0834582846338
 30
0.000000000000000
 11
38.14194888402771
 21
98.48846527473870
 31
0.000000000000000
  0
LINE
  5
7C
100
AcDbEntity
  8
A1
  6
CONTINUOUS
 62
7
100
AcDbLine
 10
31.28489247542139
 20
92.89354059891743
 30
0.000000000000000
 11
31.28489247542139
 21
93.81776381809199
 31
0.000000000000000
  0
LINE
  5
7D
100
AcDbEntity
  8
A1
  6
CONTINUOUS
 62
7
100
AcDbLine
 10
33.01937188836895
 20
94.75261997861880
 30
0.000000000000000
 11
32.90411084322098
 21
94.75261997861880
 31
0.000000000000000
  0
ARC
  5
7E
100
AcDbEntity
  8
A1
  6
CONTINUOUS
 62
7
100
AcDbCircle
 10
38.91433939349135
 20
92.73206689668872
 30
0.000000000000000
 40
1.770553081929961
100
AcDbArc
 50
359.9999999999982
 51
490.7681843242231
  0
ARC
  5
7F
100
AcDbEntity
  8
A1
  6
CONTINUOUS
 62
7
100
AcDbCircle
 10
38.08489247542128
 20
91.22494209015089
 30
0.000000000000000
 40
0.1000000000000000
100
AcDbArc
 50
0.000000000000000
 51
114.5561253067063
  0
LINE
  5
80
100
AcDbEntity
  8
A1
  6
CONTINUOUS
 62
7
100
AcDbLine
 10
40.18489247542125
 20
55.92761997861875
 30
0.000000000000000
 11
30.98489247542103
 21
55.92761997861875
 31
0.000000000000000
  0
LINE
  5
81
100
AcDbEntity
  8
A1
  6
CONTINUOUS
 62
7
100
AcDbLine
 10
40.18489247542125
 20
54.92761997861875
 30
0.000000000000000
 11
40.18489247542125
 21
55.92761997861875
 31
0.000000000000000
  0
LINE
  5
82
100
AcDbEntity
  8
A1
  6
CONTINUOUS
 62
7
100
AcDbLine
 10
40.18489247542125
 20
54.92761997861875
 30
0.000000000000000
 11
30.98489247542103
 21
54.92761997861875
 31
0.000000000000000
  0
LINE
  5
83
100
AcDbEntity
  8
A1
  6
CONTINUOUS
 62
7
100
AcDbLine
 10
28.98489247542095
 20
58.20434437289606
 30
0.000000000000000
 11
28.98489247542102
 21
56.92761997861865
 31
0.000000000000000
  0
LINE
  5
84
100
AcDbEntity
  8
A1
  6
CONTINUOUS
 62
7
100
AcDbLine
 10
29.98489247542095
 20
58.20434437289600
 30
0.000000000000000
 11
29.98489247542102
 21
56.92761997861865
 31
0.000000000000000
  0
ARC
  5
85
100
AcDbEntity
  8
A1
  6
CONTINUOUS
 62
7
100
AcDbCircle
 10
30.98489247542103
 20
56.92761997861875
 30
0.000000000000000
 40
1.000000000000000
100
AcDbArc
 50
180.0000000000000
 51
270.0000000000000
  0
ARC
  5
86
100
AcDbEntity
  8
A1
  6
CONTINUOUS
 62
7
100
AcDbCircle
 10
30.98489247542103
 20
56.92761997861875
 30
0.000000000000000
 40
2.000000000000000
100
AcDbArc
 50
180.0000000000000
 51
270.0000000000000
  0
LINE
  5
87
100
AcDbEntity
  8
A1
  6
CONTINUOUS
 62
7
100
AcDbLine
 10
30.07276044106507
 20
58.41647640725211
 30
0.000000000000000
 11
35.85890401243505
 21
64.20261997861550
 31
0.000000000000000
  0
LINE
  5
88
100
AcDbEntity
  8
A1
  6
CONTINUOUS
 62
7
100
AcDbLine
 10
29.36565365987894
 20
59.12358318843902
 30
0.000000000000000
 11
34.45764297581103
 21
64.21557250436537
 31
0.000000000000000
  0
ARC
  5
89
100
AcDbEntity
  8
A1
  6
CONTINUOUS
 62
7
100
AcDbCircle
 10
30.28489247542093
 20
58.20434437289605
 30
0.000000000000000
 40
0.3000000000000000
100
AcDbArc
 50
134.9999999999654
 51
180.0000000000000
  0
ARC
  5
8A
100
AcDbEntity
  8
A1
  6
CONTINUOUS
 62
7
100
AcDbCircle
 10
30.28489247542093
 20
58.20434437289616
 30
0.000000000000000
 40
1.300000000000000
100
AcDbArc
 50
134.9999999999672
 51
180.0000000000000
  0
LINE
  5
8B
100
AcDbEntity
  8
A1
  6
CONTINUOUS
 62
7
100
AcDbLine
 10
30.07276044106512
 20
92.98876354998535
 30
0.000000000000000
 11
35.85890401243810
 21
87.20261997861898
 31
0.000000000000000
  0
LINE
  5
8C
100
AcDbEntity
  8
A1
  6
CONTINUOUS
 62
7
100
AcDbLine
 10
29.36565365987881
 20
92.28165676879838
 30
0.000000000000000
 11
34.45764297581299
 21
87.18966745287000
 31
0.000000000000000
  0
LINE
  5
8D
100
AcDbEntity
  8
A1
  6
CONTINUOUS
 62
7
100
AcDbLine
 10
40.18489247542125
 20
95.47761997861882
 30
0.000000000000000
 11
30.98489247542103
 21
95.47761997861882
 31
0.000000000000000
  0
LINE
  5
8E
100
AcDbEntity
  8
A1
  6
CONTINUOUS
 62
7
100
AcDbLine
 10
40.18489247542125
 20
96.47761997861882
 30
0.000000000000000
 11
40.18489247542125
 21
95.47761997861882
 31
0.000000000000000
  0
LINE
  5
8F
100
AcDbEntity
  8
A1
  6
CONTINUOUS
 62
7
100
AcDbLine
 10
40.18489247542125
 20
96.47761997861882
 30
0.000000000000000
 11
30.98489247542103
 21
96.47761997861882
 31
0.000000000000000
  0
ARC
  5
90
100
AcDbEntity
  8
A1
  6
CONTINUOUS
 62
7
100
AcDbCircle
 10
30.98489247542103
 20
94.47761997861882
 30
0.000000000000000
 40
2.000000000000000
100
AcDbArc
 50
90.00000000000000
 51
180.0000000000000
  0
ARC
  5
91
100
AcDbEntity
  8
A1
  6
CONTINUOUS
 62
7
100
AcDbCircle
 10
30.98489247542103
 20
94.47761997861882
 30
0.000000000000000
 40
1.000000000000000
100
AcDbArc
 50
90.00000000000000
 51
180.0000000000000
  0
LINE
  5
92
100
AcDbEntity
  8
A1
  6
CONTINUOUS
 62
7
100
AcDbLine
 10
29.98489247542096
 20
93.20089558434154
 30
0.000000000000000
 11
29.98489247542103
 21
94.47761997861880
 31
0.000000000000000
  0
ARC
  5
93
100
AcDbEntity
  8
A1
  6
CONTINUOUS
 62
7
100
AcDbCircle
 10
30.28489247542093
 20
93.20089558434144
 30
0.000000000000000
 40
0.3000000000000000
100
AcDbArc
 50
180.0000000000000
 51
225.0000000000346
  0
LINE
  5
94
100
AcDbEntity
  8
A1
  6
CONTINUOUS
 62
7
100
AcDbLine
 10
28.98489247542096
 20
93.20089558434147
 30
0.000000000000000
 11
28.98489247542103
 21
94.47761997861885
 31
0.000000000000000
  0
ARC
  5
95
100
AcDbEntity
  8
A1
  6
CONTINUOUS
 62
7
100
AcDbCircle
 10
30.28489247542093
 20
93.20089558434132
 30
0.000000000000000
 40
1.300000000000000
100
AcDbArc
 50
180.0000000000000
 51
225.0000000000328
  0
LINE
  5
96
100
AcDbEntity
  8
A1
  6
CONTINUOUS
 62
7
100
AcDbLine
 10
23.88489247542124
 20
49.98416839904617
 30
0.000000000000000
 11
23.88489247542124
 21
60.70261997863010
 31
0.000000000000000
  0
LINE
  5
97
100
AcDbEntity
  8
A1
  6
CONTINUOUS
 62
7
100
AcDbLine
 10
24.88489247542124
 20
49.98416839904617
 30
0.000000000000000
 11
24.88489247542124
 21
60.70261997863010
 31
0.000000000000000
  0
LINE
  5
98
100
AcDbEntity
  8
A1
  6
CONTINUOUS
 62
7
100
AcDbLine
 10
25.66845286148313
 20
49.00787239192623
 30
0.000000000000000
 11
35.88489247542059
 21
46.74294225830242
 31
0.000000000000000
  0
LINE
  5
99
100
AcDbEntity
  8
A1
  6
CONTINUOUS
 62
7
100
AcDbLine
 10
25.45201324754511
 20
48.03157638480646
 30
0.000000000000000
 11
35.66845286148251
 21
45.76664625118265
 31
0.000000000000000
  0
ARC
  5
9A
100
AcDbEntity
  8
A1
  6
CONTINUOUS
 62
7
100
AcDbCircle
 10
25.88489247542124
 20
49.98416839904617
 30
0.000000000000000
 40
1.000000000000000
100
AcDbArc
 50
180.0000000000000
 51
257.4999999999999
  0
ARC
  5
9B
100
AcDbEntity
  8
A1
  6
CONTINUOUS
 62
7
100
AcDbCircle
 10
25.88489247542124
 20
49.98416839904617
 30
0.000000000000000
 40
2.000000000000000
100
AcDbArc
 50
180.0000000000000
 51
257.5000000000001
  0
LINE
  5
9C
100
AcDbEntity
  8
A1
  6
CONTINUOUS
 62
7
100
AcDbLine
 10
35.66845286148244
 20
45.76664625118254
 30
0.000000000000000
 11
35.88489247542054
 21
46.74294225830247
 31
0.000000000000000
  0
LINE
  5
9D
100
AcDbEntity
  8
A1
  6
CONTINUOUS
 62
7
100
AcDbLine
 10
24.88489247540994
 20
60.70261997861881
 30
0.000000000000000
 11
26.29910603779381
 21
62.11683354100268
 31
0.000000000000000
  0
LINE
  5
9E
100
AcDbEntity
  8
A1
  6
CONTINUOUS
 62
7
100
AcDbLine
 10
24.17778569422335
 20
61.40972675980539
 30
0.000000000000000
 11
25.59199925660722
 21
62.82394032218926
 31
0.000000000000000
  0
ARC
  5
9F
100
AcDbEntity
  8
A1
  6
CONTINUOUS
 62
7
100
AcDbCircle
 10
24.88489247542124
 20
60.70261997863010
 30
0.000000000000000
 40
1.000000000000000
100
AcDbArc
 50
134.9999999999994
 51
180.0000000000000
  0
LINE
  5
A0
100
AcDbEntity
  8
A1
  6
CONTINUOUS
 62
7
100
AcDbLine
 10
27.59702450977728
 20
69.61475201297476
 30
0.000000000000000
 11
25.47067891303714
 21
67.48840641623538
 31
0.000000000000000
  0
LINE
  5
A1
100
AcDbEntity
  8
A1
  6
CONTINUOUS
 62
7
100
AcDbLine
 10
28.30413129096374
 20
68.90764523178817
 30
0.000000000000000
 11
26.17778569422352
 21
66.78129963504868
 31
0.000000000000000
  0
ARC
  5
A2
100
AcDbEntity
  8
A1
  6
CONTINUOUS
 62
7
100
AcDbCircle
 10
27.38489247542135
 20
69.82688404733075
 30
0.000000000000000
 40
0.3000000000000000
100
AcDbArc
 50
314.9999999999885
 51
360.0000000000000
  0
ARC
  5
A3
100
AcDbEntity
  8
A1
  6
CONTINUOUS
 62
7
100
AcDbCircle
 10
27.38489247542135
 20
69.82688404733075
 30
0.000000000000000
 40
1.300000000000000
100
AcDbArc
 50
314.9999999999903
 51
360.0000000000000
  0
ARC
  5
A4
100
AcDbEntity
  8
A1
  6
CONTINUOUS
 62
7
100
AcDbCircle
 10
26.88489247540993
 20
66.07419285386199
 30
0.000000000000000
 40
2.000000000000000
100
AcDbArc
 50
134.9999999999902
 51
209.8279761925665
  0
ARC
  5
A5
100
AcDbEntity
  8
A1
  6
CONTINUOUS
 62
7
100
AcDbCircle
 10
26.88489247540993
 20
66.07419285386199
 30
0.000000000000000
 40
1.000000000000000
100
AcDbArc
 50
134.9999999999902
 51
209.8279761925667
  0
ARC
  5
A6
100
AcDbEntity
  8
A1
  6
CONTINUOUS
 62
7
100
AcDbCircle
 10
24.88489247542067
 20
63.53104710337574
 30
0.000000000000000
 40
2.000000000000000
100
AcDbArc
 50
315.0000000000000
 51
389.8279761925668
  0
ARC
  5
A7
100
AcDbEntity
  8
A1
  6
CONTINUOUS
 62
7
100
AcDbCircle
 10
24.88489247542067
 20
63.53104710337574
 30
0.000000000000000
 40
1.000000000000000
100
AcDbArc
 50
315.0000000000006
 51
389.8279761925668
  0
LINE
  5
A8
100
AcDbEntity
  8
A1
  6
CONTINUOUS
 62
7
100
AcDbLine
 10
25.14984709712435
 20
65.07939763107015
 30
0.000000000000000
 11
25.75241516456352
 21
64.02844471477179
 31
0.000000000000000
  0
LINE
  5
A9
100
AcDbEntity
  8
A1
  6
CONTINUOUS
 62
7
100
AcDbLine
 10
26.61993785370628
 20
64.52584232616773
 30
0.000000000000000
 11
26.01736978626711
 21
65.57679524246608
 31
0.000000000000000
  0
LINE
  5
AA
100
AcDbEntity
  8
A1
  6
CONTINUOUS
 62
7
100
AcDbLine
 10
23.88489247542124
 20
101.4210715581913
 30
0.000000000000000
 11
23.88489247542124
 21
90.70261997860736
 31
0.000000000000000
  0
LINE
  5
AB
100
AcDbEntity
  8
A1
  6
CONTINUOUS
 62
7
100
AcDbLine
 10
24.88489247542124
 20
101.4210715581913
 30
0.000000000000000
 11
24.88489247542124
 21
90.70261997860736
 31
0.000000000000000
  0
LINE
  5
AC
100
AcDbEntity
  8
A1
  6
CONTINUOUS
 62
7
100
AcDbLine
 10
25.66845286148309
 20
102.3973675653114
 30
0.000000000000000
 11
35.88489247542056
 21
104.6622976989352
 31
0.000000000000000
  0
LINE
  5
AD
100
AcDbEntity
  8
A1
  6
CONTINUOUS
 62
7
100
AcDbLine
 10
25.45201324754504
 20
103.3736635724312
 30
0.000000000000000
 11
35.66845286148245
 21
105.6385937060550
 31
0.000000000000000
  0
ARC
  5
AE
100
AcDbEntity
  8
A1
  6
CONTINUOUS
 62
7
100
AcDbCircle
 10
25.88489247542124
 20
101.4210715581913
 30
0.000000000000000
 40
1.000000000000000
100
AcDbArc
 50
102.5000000000001
 51
180.0000000000000
  0
ARC
  5
AF
100
AcDbEntity
  8
A1
  6
CONTINUOUS
 62
7
100
AcDbCircle
 10
25.88489247542124
 20
101.4210715581913
 30
0.000000000000000
 40
2.000000000000000
100
AcDbArc
 50
102.4999999999999
 51
180.0000000000000
  0
LINE
  5
B0
100
AcDbEntity
  8
A1
  6
CONTINUOUS
 62
7
100
AcDbLine
 10
35.66845286148234
 20
105.6385937060551
 30
0.000000000000000
 11
35.88489247542046
 21
104.6622976989352
 31
0.000000000000000
  0
LINE
  5
B1
100
AcDbEntity
  8
A1
  6
CONTINUOUS
 62
7
100
AcDbLine
 10
24.88489247540986
 20
90.70261997861870
 30
0.000000000000000
 11
26.29910603779373
 21
89.28840641623482
 31
0.000000000000000
  0
LINE
  5
B2
100
AcDbEntity
  8
A1
  6
CONTINUOUS
 62
7
100
AcDbLine
 10
24.17778569422331
 20
89.99551319743213
 30
0.000000000000000
 11
25.59199925660714
 21
88.58129963504831
 31
0.000000000000000
  0
ARC
  5
B3
100
AcDbEntity
  8
A1
  6
CONTINUOUS
 62
7
100
AcDbCircle
 10
24.88489247542124
 20
90.70261997860736
 30
0.000000000000000
 40
1.000000000000000
100
AcDbArc
 50
180.0000000000000
 51
225.0000000000006
  0
LINE
  5
B4
100
AcDbEntity
  8
A1
  6
CONTINUOUS
 62
7
100
AcDbLine
 10
27.59702450977722
 20
81.79048794426282
 30
0.000000000000000
 11
25.47067891303710
 21
83.91683354100219
 31
0.000000000000000
  0
LINE
  5
B5
100
AcDbEntity
  8
A1
  6
CONTINUOUS
 62
7
100
AcDbLine
 10
28.30413129096363
 20
82.49759472544936
 30
0.000000000000000
 11
26.17778569422342
 21
84.62394032218883
 31
0.000000000000000
  0
ARC
  5
B6
100
AcDbEntity
  8
A1
  6
CONTINUOUS
 62
7
100
AcDbCircle
 10
27.38489247542135
 20
81.57835590990670
 30
0.000000000000000
 40
0.3000000000000000
100
AcDbArc
 50
0.000000000000000
 51
45.00000000001150
  0
ARC
  5
B7
100
AcDbEntity
  8
A1
  6
CONTINUOUS
 62
7
100
AcDbCircle
 10
27.38489247542135
 20
81.57835590990670
 30
0.000000000000000
 40
1.300000000000000
100
AcDbArc
 50
0.000000000000000
 51
45.00000000000972
  0
ARC
  5
B8
100
AcDbEntity
  8
A1
  6
CONTINUOUS
 62
7
100
AcDbCircle
 10
26.88489247540993
 20
85.33104710337547
 30
0.000000000000000
 40
2.000000000000000
100
AcDbArc
 50
150.1720238074335
 51
225.0000000000098
  0
ARC
  5
B9
100
AcDbEntity
  8
A1
  6
CONTINUOUS
 62
7
100
AcDbCircle
 10
26.88489247540993
 20
85.33104710337547
 30
0.000000000000000
 40
1.000000000000000
100
AcDbArc
 50
150.1720238074333
 51
225.0000000000098
  0
ARC
  5
BA
100
AcDbEntity
  8
A1
  6
CONTINUOUS
 62
7
100
AcDbCircle
 10
24.88489247542067
 20
87.87419285386171
 30
0.000000000000000
 40
2.000000000000000
100
AcDbArc
 50
330.1720238074332
 51
404.9999999999999
  0
ARC
  5
BB
100
AcDbEntity
  8
A1
  6
CONTINUOUS
 62
7
100
AcDbCircle
 10
24.88489247542067
 20
87.87419285386171
 30
0.000000000000000
 40
1.000000000000000
100
AcDbArc
 50
330.1720238074332
 51
404.9999999999994
  0
LINE
  5
BC
100
AcDbEntity
  8
A1
  6
CONTINUOUS
 62
7
100
AcDbLine
 10
25.14984709712437
 20
86.32584232616755
 30
0.000000000000000
 11
25.75241516456355
 21
87.37679524246587
 31
0.000000000000000
  0
LINE
  5
BD
100
AcDbEntity
  8
A1
  6
CONTINUOUS
 62
7
100
AcDbLine
 10
26.61993785370634
 20
86.87939763106992
 30
0.000000000000000
 11
26.01736978626716
 21
85.82844471477159
 31
0.000000000000000
  0
LINE
  5
BE
100
AcDbEntity
  8
A1
  6
CONTINUOUS
 62
7
100
AcDbLine
 10
28.68489247542136
 20
69.82688404733075
 30
0.000000000000000
 11
28.68489247542136
 21
81.57835590990670
 31
0.000000000000000
  0
LINE
  5
BF
100
AcDbEntity
  8
A1
  6
CONTINUOUS
 62
7
100
AcDbLine
 10
27.68489247542136
 20
69.82688404733075
 30
0.000000000000000
 11
27.68489247542136
 21
81.57835590990670
 31
0.000000000000000
  0
ARC
  5
C0
100
AcDbEntity
  8
A1
  6
CONTINUOUS
 62
7
100
AcDbCircle
 10
30.28489247542127
 20
47.26761997861753
 30
0.000000000000000
 40
3.964999999999999
100
AcDbArc
 50
357.6659397403221
 51
517.3340602596779
  0
ARC
  5
C1
100
AcDbEntity
  8
A1
  6
CONTINUOUS
 62
7
100
AcDbCircle
 10
30.28489247542127
 20
47.26761997861753
 30
0.000000000000000
 40
3.964999999999999
100
AcDbArc
 50
171.8418556335158
 51
343.1581443664844
  0
ARC
  5
C2
100
AcDbEntity
  8
A1
  6
CONTINUOUS
 62
7
100
AcDbCircle
 10
35.68489247542125
 20
54.92761997861875
 30
0.000000000000000
 40
3.174999999999999
100
AcDbArc
 50
180.0000000000000
 51
360.0000000000000
  0
ARC
  5
C3
100
AcDbEntity
  8
A1
  6
CONTINUOUS
 62
7
100
AcDbCircle
 10
35.68489247542125
 20
54.92761997861875
 30
0.000000000000000
 40
3.174999999999999
100
AcDbArc
 50
18.35843707533010
 51
161.6415629246699
  0
ARC
  5
C4
100
AcDbEntity
  8
A1
  6
CONTINUOUS
 62
7
100
AcDbCircle
 10
35.68489247542125
 20
96.47761997861870
 30
0.000000000000000
 40
3.174999999999999
100
AcDbArc
 50
198.3584370753279
 51
341.6415629246720
  0
ARC
  5
C5
100
AcDbEntity
  8
A1
  6
CONTINUOUS
 62
7
100
AcDbCircle
 10
35.68489247542125
 20
96.47761997861870
 30
0.000000000000000
 40
3.174999999999999
100
AcDbArc
 50
0.000000000000000
 51
180.0000000000000
  0
ARC
  5
C6
100
AcDbEntity
  8
A1
  6
CONTINUOUS
 62
7
100
AcDbCircle
 10
30.28489247542127
 20
104.1376199786202
 30
0.000000000000000
 40
3.964999999999999
100
AcDbArc
 50
16.84185563351389
 51
188.1581443664863
  0
ARC
  5
C7
100
AcDbEntity
  8
A1
  6
CONTINUOUS
 62
7
100
AcDbCircle
 10
30.28489247542127
 20
104.1376199786202
 30
0.000000000000000
 40
3.964999999999999
100
AcDbArc
 50
202.6659397403229
 51
362.3340602596767
  0
LINE
  5
C8
100
AcDbEntity
  8
A1
  6
CONTINUOUS
 62
7
100
AcDbLine
 10
32.68489247542125
 20
66.20261997861627
 30
0.000000000000000
 11
32.68489247542125
 21
85.20261997861887
 31
0.000000000000000
  0
LINE
  5
C9
100
AcDbEntity
  8
A1
  6
CONTINUOUS
 62
7
100
AcDbLine
 10
34.68489247542099
 20
87.20261997861886
 30
0.000000000000000
 11
40.68489247542311
 21
87.20261997861962
 31
0.000000000000000
  0
LINE
  5
CA
100
AcDbEntity
  8
A1
  6
CONTINUOUS
 62
7
100
AcDbLine
 10
34.68489247541994
 20
64.20261997861627
 30
0.000000000000000
 11
40.68489247542311
 21
64.20261997861235
 31
0.000000000000000
  0
ARC
  5
CB
100
AcDbEntity
  8
A1
  6
CONTINUOUS
 62
7
100
AcDbCircle
 10
34.68489247542125
 20
66.20261997861627
 30
0.000000000000000
 40
2.000000000000000
100
AcDbArc
 50
180.0000000000000
 51
270.0000000000000
  0
ARC
  5
CC
100
AcDbEntity
  8
A1
  6
CONTINUOUS
 62
7
100
AcDbCircle
 10
34.68489247542125
 20
85.20261997861887
 30
0.000000000000000
 40
2.000000000000000
100
AcDbArc
 50
90.00000000000000
 51
180.0000000000000
  0
LINE
  5
CD
100
AcDbEntity
  8
A1
  6
CONTINUOUS
 62
7
100
AcDbLine
 10
38.18489247542119
 20
60.18029786708679
 30
0.000000000000000
 11
38.18489247542119
 21
64.20261997861398
 31
0.000000000000000
  0
LINE
  5
CE
100
AcDbEntity
  8
A1
  6
CONTINUOUS
 62
7
100
AcDbLine
 10
38.18489247542119
 20
87.20261997861931
 30
0.000000000000000
 11
38.18489247542119
 21
91.22494209015089
 31
0.000000000000000
  0
LINE
  5
CF
100
AcDbEntity
  8
A1
  6
CONTINUOUS
 62
7
100
AcDbLine
 10
41.38489247542124
 20
55.70261997861468
 30
0.000000000000000
 11
41.38489247542124
 21
95.70261997861468
 31
0.000000000000000
  0
ARC
  5
D0
100
AcDbEntity
  8
A1
  6
CONTINUOUS
 62
7
100
AcDbCircle
 10
36.38489247542124
 20
95.70261997861468
 30
0.000000000000000
 40
5.000000000000000
100
AcDbArc
 50
0.000000000000000
 51
51.46273200887477
  0
ARC
  5
D1
100
AcDbEntity
  8
A1
  6
CONTINUOUS
 62
7
100
AcDbCircle
 10
36.38489247542124
 20
55.70261997861468
 30
0.000000000000000
 40
5.000000000000000
100
AcDbArc
 50
308.5372679911978
 51
360.0000000000000
  0
LINE
  5
D2
100
AcDbEntity
  8
A1
  6
CONTINUOUS
 62
7
100
AcDbLine
 10
23.88489247542124
 20
50.70261997860544
 30
0.000000000000000
 11
23.38489247546443
 21
50.70261997860507
 31
0.000000000000000
  0
LINE
  5
D3
100
AcDbEntity
  8
A1
  6
CONTINUOUS
 62
7
100
AcDbLine
 10
25.89874742422832
 20
50.70261997860693
 30
0.000000000000000
 11
24.88489247542124
 21
50.70261997860618
 31
0.000000000000000
  0
LINE
  5
D4
100
AcDbEntity
  8
A1
  6
CONTINUOUS
 62
7
100
AcDbLine
 10
23.88489247542124
 20
100.7026199786054
 30
0.000000000000000
 11
23.38489247542748
 21
100.7026199786051
 31
0.000000000000000
  0
LINE
  5
D5
100
AcDbEntity
  8
A1
  6
CONTINUOUS
 62
7
100
AcDbLine
 10
25.89874742420331
 20
100.7026199786069
 30
0.000000000000000
 11
24.88489247542124
 21
100.7026199786062
 31
0.000000000000000
  0
LINE
  5
D6
100
AcDbEntity
  8
A1
  6
CONTINUOUS
 62
7
100
AcDbLine
 10
1989.984892475398
 20
110.6026199786132
 30
0.000000000000000
 11
1024.784892475408
 21
110.6026199786170
 31
0.000000000000000
  0
LINE
  5
D7
100
AcDbEntity
  8
A1
  6
CONTINUOUS
 62
7
100
AcDbLine
 10
1989.873951102054
 20
106.2026199786188
 30
0.000000000000000
 11
1024.784892475404
 21
106.2026199786188
 31
0.000000000000000
  0
LINE
  5
D8
100
AcDbEntity
  8
A1
  6
CONTINUOUS
 62
7
100
AcDbLine
 10
1987.484892475411
 20
50.70261997861883
 30
0.000000000000000
 11
1989.984892475401
 21
50.70261997861883
 31
0.000000000000000
  0
LINE
  5
D9
100
AcDbEntity
  8
A1
  6
CONTINUOUS
 62
7
100
AcDbLine
 10
1987.484892475411
 20
100.7026199786188
 30
0.000000000000000
 11
1989.984892475401
 21
100.7026199786188
 31
0.000000000000000
  0
LINE
  5
DA
100
AcDbEntity
  8
A1
  6
CONTINUOUS
 62
7
100
AcDbLine
 10
1988.070678913039
 20
104.1168335409900
 30
0.000000000000000
 11
1989.399106037778
 21
105.4452606657301
 31
0.000000000000000
  0
ARC
  5
DB
100
AcDbEntity
  8
A1
  6
CONTINUOUS
 62
7
100
AcDbCircle
 10
1987.984892475401
 20
106.8594742281085
 30
0.000000000000000
 40
2.000000000000000
100
AcDbArc
 50
315.0000000000000
 51
360.0000000000000
  0
LINE
  5
DC
100
AcDbEntity
  8
A1
  6
CONTINUOUS
 62
7
100
AcDbLine
 10
1989.984892475401
 20
110.6026199786166
 30
0.000000000000000
 11
1989.984892475401
 21
106.8594742281085
 31
0.000000000000000
  0
LINE
  5
DD
100
AcDbEntity
  8
A1
  6
CONTINUOUS
 62
7
100
AcDbLine
 10
1989.984892475401
 20
100.7026199786188
 30
0.000000000000000
 11
1989.984892475401
 21
50.70261997861883
 31
0.000000000000000
  0
LINE
  5
DE
100
AcDbEntity
  8
A1
  6
CONTINUOUS
 62
7
100
AcDbLine
 10
1989.984892475401
 20
44.54576572913277
 30
0.000000000000000
 11
1989.984892475401
 21
40.80261997862101
 31
0.000000000000000
  0
LINE
  5
DF
100
AcDbEntity
  8
A1
  6
CONTINUOUS
 62
7
100
AcDbLine
 10
1987.484892475411
 20
100.7026199786188
 30
0.000000000000000
 11
1987.484892475411
 21
50.70261997861883
 31
0.000000000000000
  0
ARC
  5
E0
100
AcDbEntity
  8
A1
  6
CONTINUOUS
 62
7
100
AcDbCircle
 10
1989.484892475411
 20
102.7026199786188
 30
0.000000000000000
 40
2.000000000000000
100
AcDbArc
 50
135.0000000000000
 51
270.0000000000000
  0
LINE
  5
E1
100
AcDbEntity
  8
A1
  6
CONTINUOUS
 62
7
100
AcDbLine
 10
1988.070678913043
 20
47.28840641624458
 30
0.000000000000000
 11
1989.399106037782
 21
45.95997929150394
 31
0.000000000000000
  0
ARC
  5
E2
100
AcDbEntity
  8
A1
  6
CONTINUOUS
 62
7
100
AcDbCircle
 10
1987.984892475401
 20
44.54576572913277
 30
0.000000000000000
 40
2.000000000000000
100
AcDbArc
 50
0.000000000000000
 51
45.00000000000000
  0
ARC
  5
E3
100
AcDbEntity
  8
A1
  6
CONTINUOUS
 62
7
100
AcDbCircle
 10
1989.484892475411
 20
48.70261997862247
 30
0.000000000000000
 40
2.000000000000000
100
AcDbArc
 50
90.00000000000000
 51
225.0000000000000
  0
CIRCLE
  5
E4
100
AcDbEntity
  8
A1
  6
CONTINUOUS
 62
7
100
AcDbCircle
 10
1037.484892475400
 20
75.70261997862247
 30
0.000000000000000
 40
2.600000000000000
  0
CIRCLE
  5
E5
100
AcDbEntity
  8
A1
  6
CONTINUOUS
 62
7
100
AcDbCircle
 10
1056.584892475399
 20
75.70261997862247
 30
0.000000000000000
 40
3.299999999999999
  0
CIRCLE
  5
E6
100
AcDbEntity
  8
A3
  6
DASHED
 62
2
100
AcDbCircle
 10
1113.684892475401
 20
75.70261997862247
 30
0.000000000000000
 40
3.299999999999999
  0
LINE
  5
E7
100
AcDbEntity
  8
A3
  6
DASHED
 62
2
100
AcDbLine
 10
1081.934892475401
 20
72.40261997861955
 30
0.000000000000000
 11
1075.834892475399
 21
72.40261997861955
 31
0.000000000000000
  0
ARC
  5
E8
100
AcDbEntity
  8
A3
  6
DASHED
 62
2
100
AcDbCircle
 10
1081.934892475401
 20
75.70261997862247
 30
0.000000000000000
 40
3.299999999999999
100
AcDbArc
 50
270.0000000000000
 51
450.0000000000000
  0
ARC
  5
E9
100
AcDbEntity
  8
A3
  6
DASHED
 62
2
100
AcDbCircle
 10
1075.834892475399
 20
75.70261997862247
 30
0.000000000000000
 40
3.299999999999999
100
AcDbArc
 50
90.00000000000000
 51
270.0000000000000
  0
LINE
  5
EA
100
AcDbEntity
  8
A3
  6
DASHED
 62
2
100
AcDbLine
 10
1081.934892475401
 20
79.00261997861810
 30
0.000000000000000
 11
1075.834892475399
 21
79.00261997861810
 31
0.000000000000000
  0
LINE
  5
EB
100
AcDbEntity
  8
A1
  6
CONTINUOUS
 62
7
100
AcDbLine
 10
1043.634892475400
 20
72.35261997862392
 30
0.000000000000000
 11
1043.634892475400
 21
79.05261997862101
 31
0.000000000000000
  0
LINE
  5
EC
100
AcDbEntity
  8
A1
  6
CONTINUOUS
 62
7
100
AcDbLine
 10
1050.334892475399
 20
72.35261997862392
 30
0.000000000000000
 11
1050.334892475399
 21
79.05261997862101
 31
0.000000000000000
  0
LINE
  5
ED
100
AcDbEntity
  8
A1
  6
CONTINUOUS
 62
7
100
AcDbLine
 10
1043.634892475400
 20
72.35261997862392
 30
0.000000000000000
 11
1050.334892475399
 21
72.35261997862392
 31
0.000000000000000
  0
LINE
  5
EE
100
AcDbEntity
  8
A1
  6
CONTINUOUS
 62
7
100
AcDbLine
 10
1043.634892475400
 20
79.05261997862101
 30
0.000000000000000
 11
1050.334892475399
 21
79.05261997862101
 31
0.000000000000000
  0
LINE
  5
EF
100
AcDbEntity
  8
A3
  6
DASHED
 62
2
100
AcDbLine
 10
1066.184892475402
 20
72.02566471644724
 30
0.000000000000000
 11
1064.366102101644
 21
73.84445509020475
 31
0.000000000000000
  0
LINE
  5
F0
100
AcDbEntity
  8
A3
  6
DASHED
 62
2
100
AcDbLine
 10
1069.861847737568
 20
75.70261997862275
 30
0.000000000000000
 11
1066.184892475400
 21
79.37957524079087
 31
0.000000000000000
  0
LINE
  5
F1
100
AcDbEntity
  8
A3
  6
DASHED
 62
2
100
AcDbLine
 10
1064.366102101642
 20
77.56078486703444
 30
0.000000000000000
 11
1066.184892475399
 21
79.37957524079201
 31
0.000000000000000
  0
LINE
  5
F2
100
AcDbEntity
  8
A3
  6
DASHED
 62
2
100
AcDbLine
 10
1066.184892475396
 20
72.02566471645105
 30
0.000000000000000
 11
1069.861847737567
 21
75.70261997862121
 31
0.000000000000000
  0
CIRCLE
  5
F3
100
AcDbEntity
  8
A3
  6
DASHED
 62
2
100
AcDbCircle
 10
1100.984892475400
 20
75.70261997862247
 30
0.000000000000000
 40
2.600000000000000
  0
CIRCLE
  5
F4
100
AcDbEntity
  8
A1
  6
CONTINUOUS
 62
7
100
AcDbCircle
 10
1272.384892475399
 20
75.70261997861883
 30
0.000000000000000
 40
3.299999999999999
  0
CIRCLE
  5
F5
100
AcDbEntity
  8
A1
  6
CONTINUOUS
 62
7
100
AcDbCircle
 10
1259.684892475400
 20
75.70261997861883
 30
0.000000000000000
 40
2.600000000000000
  0
LINE
  5
F6
100
AcDbEntity
  8
A1
  6
CONTINUOUS
 62
7
100
AcDbLine
 10
1285.084892475401
 20
72.02566471644900
 30
0.000000000000000
 11
1281.407937213234
 21
75.70261997861712
 31
0.000000000000000
  0
LINE
  5
F7
100
AcDbEntity
  8
A1
  6
CONTINUOUS
 62
7
100
AcDbLine
 10
1287.716271289396
 20
76.74819642679188
 30
0.000000000000000
 11
1285.084892475401
 21
79.37957524078604
 31
0.000000000000000
  0
LINE
  5
F8
100
AcDbEntity
  8
A1
  6
CONTINUOUS
 62
7
100
AcDbLine
 10
1281.407937213227
 20
75.70261997861803
 30
0.000000000000000
 11
1285.084892475397
 21
79.37957524078843
 31
0.000000000000000
  0
LINE
  5
F9
100
AcDbEntity
  8
A1
  6
CONTINUOUS
 62
7
100
AcDbLine
 10
1285.084892475399
 20
72.02566471644536
 30
0.000000000000000
 11
1287.716271289396
 21
74.65704353044168
 31
0.000000000000000
  0
LINE
  5
FA
100
AcDbEntity
  8
A3
  6
DASHED
 62
2
100
AcDbLine
 10
1294.434892475398
 20
72.35261997861664
 30
0.000000000000000
 11
1294.434892475398
 21
79.05261997862101
 31
0.000000000000000
  0
LINE
  5
FB
100
AcDbEntity
  8
A3
  6
DASHED
 62
2
100
AcDbLine
 10
1301.134892475399
 20
72.35261997862028
 30
0.000000000000000
 11
1301.134892475399
 21
79.05261997862101
 31
0.000000000000000
  0
LINE
  5
FC
100
AcDbEntity
  8
A3
  6
DASHED
 62
2
100
AcDbLine
 10
1294.434892475399
 20
72.35261997862004
 30
0.000000000000000
 11
1301.134892475400
 21
72.35261997862095
 31
0.000000000000000
  0
LINE
  5
FD
100
AcDbEntity
  8
A3
  6
DASHED
 62
2
100
AcDbLine
 10
1294.434892475398
 20
79.05261997862101
 30
0.000000000000000
 11
1301.134892475399
 21
79.05261997862101
 31
0.000000000000000
  0
LINE
  5
FE
100
AcDbEntity
  8
A1
  6
CONTINUOUS
 62
7
100
AcDbLine
 10
1904.134892475400
 20
72.40261997861955
 30
0.000000000000000
 11
1898.034892475400
 21
72.40261997861955
 31
0.000000000000000
  0
ARC
  5
FF
100
AcDbEntity
  8
A1
  6
CONTINUOUS
 62
7
100
AcDbCircle
 10
1904.134892475400
 20
75.70261997861883
 30
0.000000000000000
 40
3.299999999999999
100
AcDbArc
 50
270.0000000000000
 51
450.0000000000000
  0
ARC
  5
100
100
AcDbEntity
  8
A1
  6
CONTINUOUS
 62
7
100
AcDbCircle
 10
1898.034892475400
 20
75.70261997861883
 30
0.000000000000000
 40
3.299999999999999
100
AcDbArc
 50
90.00000000000000
 51
270.0000000000000
  0
LINE
  5
101
100
AcDbEntity
  8
A1
  6
CONTINUOUS
 62
7
100
AcDbLine
 10
1904.134892475400
 20
79.00261997861810
 30
0.000000000000000
 11
1898.034892475400
 21
79.00261997861810
 31
0.000000000000000
  0
LINE
  5
102
100
AcDbEntity
  8
A1
  6
CONTINUOUS
 62
7
100
AcDbLine
 10
1887.334892475401
 20
73.10261997861664
 30
0.000000000000000
 11
1883.034892475402
 21
73.10261997861664
 31
0.000000000000000
  0
ARC
  5
103
100
AcDbEntity
  8
A1
  6
CONTINUOUS
 62
7
100
AcDbCircle
 10
1887.334892475401
 20
75.70261997861883
 30
0.000000000000000
 40
2.600000000000000
100
AcDbArc
 50
270.0000000000000
 51
450.0000000000000
  0
ARC
  5
104
100
AcDbEntity
  8
A1
  6
CONTINUOUS
 62
7
100
AcDbCircle
 10
1883.034892475402
 20
75.70261997861883
 30
0.000000000000000
 40
2.600000000000000
100
AcDbArc
 50
90.00000000000000
 51
270.0000000000000
  0
LINE
  5
105
100
AcDbEntity
  8
A1
  6
CONTINUOUS
 62
7
100
AcDbLine
 10
1887.334892475401
 20
78.30261997862101
 30
0.000000000000000
 11
1883.034892475402
 21
78.30261997862101
 31
0.000000000000000
  0
CIRCLE
  5
106
100
AcDbEntity
  8
A1
  6
CONTINUOUS
 62
7
100
AcDbCircle
 10
1958.284892475400
 20
75.70261997861883
 30
0.000000000000000
 40
3.299999999999999
  0
CIRCLE
  5
107
100
AcDbEntity
  8
A1
  6
CONTINUOUS
 62
7
100
AcDbCircle
 10
1929.684892475399
 20
75.70261997861883
 30
0.000000000000000
 40
3.299999999999999
  0
CIRCLE
  5
108
100
AcDbEntity
  8
A1
  6
CONTINUOUS
 62
7
100
AcDbCircle
 10
1916.984892475401
 20
75.70261997861883
 30
0.000000000000000
 40
2.600000000000000
  0
LINE
  5
109
100
AcDbEntity
  8
A1
  6
CONTINUOUS
 62
7
100
AcDbLine
 10
1874.984892475399
 20
72.02566471644991
 30
0.000000000000000
 11
1871.307937213228
 21
75.70261997862042
 31
0.000000000000000
  0
LINE
  5
10A
100
AcDbEntity
  8
A1
  6
CONTINUOUS
 62
7
100
AcDbLine
 10
1878.661847737571
 20
75.70261997861439
 30
0.000000000000000
 11
1874.984892475401
 21
79.37957524078479
 31
0.000000000000000
  0
LINE
  5
10B
100
AcDbEntity
  8
A1
  6
CONTINUOUS
 62
7
100
AcDbLine
 10
1871.307937213227
 20
75.70261997861815
 30
0.000000000000000
 11
1874.984892475396
 21
79.37957524078865
 31
0.000000000000000
  0
LINE
  5
10C
100
AcDbEntity
  8
A1
  6
CONTINUOUS
 62
7
100
AcDbLine
 10
1874.984892475402
 20
72.02566471644832
 30
0.000000000000000
 11
1878.661847737570
 21
75.70261997861621
 31
0.000000000000000
  0
LINE
  5
10D
100
AcDbEntity
  8
A1
  6
CONTINUOUS
 62
7
100
AcDbLine
 10
1942.234892475401
 20
72.35261997862028
 30
0.000000000000000
 11
1942.234892475401
 21
79.05261997862101
 31
0.000000000000000
  0
LINE
  5
10E
100
AcDbEntity
  8
A1
  6
CONTINUOUS
 62
7
100
AcDbLine
 10
1948.934892475401
 20
72.35261997862028
 30
0.000000000000000
 11
1948.934892475401
 21
79.05261997862101
 31
0.000000000000000
  0
LINE
  5
10F
100
AcDbEntity
  8
A1
  6
CONTINUOUS
 62
7
100
AcDbLine
 10
1942.234892475401
 20
72.35261997862067
 30
0.000000000000000
 11
1948.934892475398
 21
72.35261997862158
 31
0.000000000000000
  0
LINE
  5
110
100
AcDbEntity
  8
A1
  6
CONTINUOUS
 62
7
100
AcDbLine
 10
1942.234892475401
 20
79.05261997862101
 30
0.000000000000000
 11
1948.934892475401
 21
79.05261997862101
 31
0.000000000000000
  0
LINE
  5
111
100
AcDbEntity
  8
A1
  6
CONTINUOUS
 62
7
100
AcDbLine
 10
1504.084892475400
 20
63.48851836348615
 30
0.000000000000000
 11
1504.084892475400
 21
49.25261997861810
 31
0.000000000000000
  0
LINE
  5
112
100
AcDbEntity
  8
A1
  6
CONTINUOUS
 62
7
100
AcDbLine
 10
1504.084892475400
 20
87.91672159375150
 30
0.000000000000000
 11
1504.084892475400
 21
102.1526199786196
 31
0.000000000000000
  0
LINE
  5
113
100
AcDbEntity
  8
A1
  6
CONTINUOUS
 62
7
100
AcDbLine
 10
1459.084892475400
 20
55.70261997862247
 30
0.000000000000000
 11
1469.084892475400
 21
55.70261997862247
 31
0.000000000000000
  0
LINE
  5
114
100
AcDbEntity
  8
A1
  6
CONTINUOUS
 62
7
100
AcDbLine
 10
1459.084892475400
 20
95.70261997862247
 30
0.000000000000000
 11
1469.084892475400
 21
95.70261997862247
 31
0.000000000000000
  0
LINE
  5
115
100
AcDbEntity
  8
A1
  6
CONTINUOUS
 62
7
100
AcDbLine
 10
1469.084892475400
 20
95.70261997862247
 30
0.000000000000000
 11
1469.084892475400
 21
55.70261997862247
 31
0.000000000000000
  0
LINE
  5
116
100
AcDbEntity
  8
A1
  6
CONTINUOUS
 62
7
100
AcDbLine
 10
1459.084892475400
 20
95.70261997862247
 30
0.000000000000000
 11
1459.084892475400
 21
55.70261997862247
 31
0.000000000000000
  0
LINE
  5
117
100
AcDbEntity
  8
A1
  6
CONTINUOUS
 62
7
100
AcDbLine
 10
1459.084892475400
 20
68.01202105537516
 30
0.000000000000000
 11
1469.084892475400
 21
68.01202105537516
 31
0.000000000000000
  0
LINE
  5
118
100
AcDbEntity
  8
A1
  6
CONTINUOUS
 62
7
100
AcDbLine
 10
1459.084892475400
 20
83.39321890186250
 30
0.000000000000000
 11
1469.084892475400
 21
83.39321890186250
 31
0.000000000000000
  0
LINE
  5
119
100
AcDbEntity
  8
A1
  6
CONTINUOUS
 62
7
100
AcDbLine
 10
1494.584892475400
 20
86.58233186578866
 30
0.000000000000000
 11
1486.084892475400
 21
86.58233186578866
 31
0.000000000000000
  0
LINE
  5
11A
100
AcDbEntity
  8
A1
  6
CONTINUOUS
 62
7
100
AcDbLine
 10
1494.584892475400
 20
64.82290809144899
 30
0.000000000000000
 11
1486.084892475400
 21
64.82290809144899
 31
0.000000000000000
  0
ARC
  5
11B
100
AcDbEntity
  8
A1
  6
CONTINUOUS
 62
7
100
AcDbCircle
 10
1279.784892475404
 20
75.70261997862247
 30
0.000000000000000
 40
8.000000000000000
100
AcDbArc
 50
270.0000000000000
 51
450.0000000000000
  0
ARC
  5
11C
100
AcDbEntity
  8
A1
  6
CONTINUOUS
 62
7
100
AcDbCircle
 10
1260.784892475402
 20
75.70261997862247
 30
0.000000000000000
 40
8.000000000000000
100
AcDbArc
 50
90.00000000000000
 51
270.0000000000000
  0
LINE
  5
11D
100
AcDbEntity
  8
A1
  6
CONTINUOUS
 62
7
100
AcDbLine
 10
1260.784892475402
 20
83.70261997862247
 30
0.000000000000000
 11
1279.784892475404
 21
83.70261997862247
 31
0.000000000000000
  0
LINE
  5
11E
100
AcDbEntity
  8
A1
  6
CONTINUOUS
 62
7
100
AcDbLine
 10
1260.784892475402
 20
67.70261997862247
 30
0.000000000000000
 11
1279.784892475404
 21
67.70261997862247
 31
0.000000000000000
  0
ARC
  5
11F
100
AcDbEntity
  8
A1
  6
CONTINUOUS
 62
7
100
AcDbCircle
 10
1056.584892475402
 20
75.70261997862247
 30
0.000000000000000
 40
8.000000000000000
100
AcDbArc
 50
270.0000000000000
 51
450.0000000000000
  0
ARC
  5
120
100
AcDbEntity
  8
A1
  6
CONTINUOUS
 62
7
100
AcDbCircle
 10
1037.584892475402
 20
75.70261997862247
 30
0.000000000000000
 40
8.000000000000000
100
AcDbArc
 50
90.00000000000000
 51
270.0000000000000
  0
LINE
  5
121
100
AcDbEntity
  8
A1
  6
CONTINUOUS
 62
7
100
AcDbLine
 10
1037.584892475402
 20
83.70261997862247
 30
0.000000000000000
 11
1056.584892475402
 21
83.70261997862247
 31
0.000000000000000
  0
LINE
  5
122
100
AcDbEntity
  8
A1
  6
CONTINUOUS
 62
7
100
AcDbLine
 10
1037.584892475402
 20
67.70261997862247
 30
0.000000000000000
 11
1056.584892475402
 21
67.70261997862247
 31
0.000000000000000
  0
ARC
  5
123
100
AcDbEntity
  8
A1
  6
CONTINUOUS
 62
7
100
AcDbCircle
 10
1478.835277113562
 20
87.20042551060317
 30
0.000000000000000
 40
3.000000000000000
100
AcDbArc
 50
40.95575754733699
 51
120.0000000000000
  0
LINE
  5
124
100
AcDbEntity
  8
A1
  6
CONTINUOUS
 62
7
100
AcDbLine
 10
1474.190073707081
 20
87.98261768857469
 30
0.000000000000000
 11
1477.335277113558
 21
89.79850172195995
 31
0.000000000000000
  0
LINE
  5
125
100
AcDbEntity
  8
A1
  6
CONTINUOUS
 62
7
100
AcDbLine
 10
1481.879998602313
 20
88.23838989086642
 30
0.000000000000000
 11
1481.100924959115
 21
89.16685370404298
 31
0.000000000000000
  0
LINE
  5
126
100
AcDbEntity
  8
A1
  6
CONTINUOUS
 62
7
100
AcDbLine
 10
1473.584892475404
 20
87.32660666575235
 30
0.000000000000000
 11
1473.584892475404
 21
64.07863329148664
 31
0.000000000000000
  0
LINE
  5
127
100
AcDbEntity
  8
A1
  6
CONTINUOUS
 62
7
100
AcDbLine
 10
1491.434892475402
 20
83.10261997861664
 30
0.000000000000000
 11
1489.234892475401
 21
83.10261997861664
 31
0.000000000000000
  0
LINE
  5
128
100
AcDbEntity
  8
A1
  6
CONTINUOUS
 62
7
100
AcDbLine
 10
1491.634892475399
 20
82.90261997861955
 30
0.000000000000000
 11
1491.634892475399
 21
78.15210972140187
 31
0.000000000000000
  0
LINE
  5
129
100
AcDbEntity
  8
A1
  6
CONTINUOUS
 62
7
100
AcDbLine
 10
1489.034892475401
 20
82.90261997861955
 30
0.000000000000000
 11
1489.034892475401
 21
78.15210972140187
 31
0.000000000000000
  0
ARC
  5
12A
100
AcDbEntity
  8
A1
  6
CONTINUOUS
 62
7
100
AcDbCircle
 10
1491.434892475402
 20
82.90261997861955
 30
0.000000000000000
 40
0.2000000000000000
100
AcDbArc
 50
0.000000000000000
 51
90.00000000000000
  0
ARC
  5
12B
100
AcDbEntity
  8
A1
  6
CONTINUOUS
 62
7
100
AcDbCircle
 10
1489.234892475401
 20
82.90261997861955
 30
0.000000000000000
 40
0.2000000000000000
100
AcDbArc
 50
90.00000000000000
 51
180.0000000000000
  0
LINE
  5
12C
100
AcDbEntity
  8
A1
  6
CONTINUOUS
 62
7
100
AcDbLine
 10
1486.084892475400
 20
85.60261997862028
 30
0.000000000000000
 11
1486.084892475400
 21
87.40261997861592
 31
0.000000000000000
  0
LINE
  5
12D
100
AcDbEntity
  8
A1
  6
CONTINUOUS
 62
7
100
AcDbLine
 10
1507.084892475400
 20
66.95261997862247
 30
0.000000000000000
 11
1507.084892475400
 21
84.45261997861519
 31
0.000000000000000
  0
LINE
  5
12E
100
AcDbEntity
  8
A1
  6
CONTINUOUS
 62
7
100
AcDbLine
 10
1504.084892475400
 20
84.45261997861519
 30
0.000000000000000
 11
1504.084892475400
 21
66.95261997862247
 31
0.000000000000000
  0
ARC
  5
12F
100
AcDbEntity
  8
A1
  6
CONTINUOUS
 62
7
100
AcDbCircle
 10
1490.334892475400
 20
75.70261997861883
 30
0.000000000000000
 40
5.500000000000000
100
AcDbArc
 50
323.1301023541835
 51
396.8698976458443
  0
LINE
  5
130
100
AcDbEntity
  8
A1
  6
CONTINUOUS
 62
7
100
AcDbLine
 10
1494.084892475400
 20
85.10261997862028
 30
0.000000000000000
 11
1486.584892475400
 21
85.10261997862028
 31
0.000000000000000
  0
LINE
  5
131
100
AcDbEntity
  8
A1
  6
CONTINUOUS
 62
7
100
AcDbLine
 10
1485.834892475400
 20
78.40261997861592
 30
0.000000000000000
 11
1485.834892475400
 21
73.00261997862538
 31
0.000000000000000
  0
LINE
  5
132
100
AcDbEntity
  8
A1
  6
CONTINUOUS
 62
7
100
AcDbLine
 10
1494.584892475400
 20
87.40261997861592
 30
0.000000000000000
 11
1494.584892475400
 21
85.60261997862028
 31
0.000000000000000
  0
ARC
  5
133
100
AcDbEntity
  8
A1
  6
CONTINUOUS
 62
7
100
AcDbCircle
 10
1490.334892475400
 20
75.70261997861883
 30
0.000000000000000
 40
2.500000000000000
100
AcDbArc
 50
127.7997224354281
 51
232.2002775645719
  0
ARC
  5
134
100
AcDbEntity
  8
A1
  6
CONTINUOUS
 62
7
100
AcDbCircle
 10
1490.334892475400
 20
75.70261997861883
 30
0.000000000000000
 40
2.500000000000000
100
AcDbArc
 50
307.7997224354277
 51
412.2002775645719
  0
ARC
  5
135
100
AcDbEntity
  8
A1
  6
CONTINUOUS
 62
7
100
AcDbCircle
 10
1486.584892475400
 20
85.60261997862028
 30
0.000000000000000
 40
0.5000000000000000
100
AcDbArc
 50
180.0000000000000
 51
270.0000000000000
  0
ARC
  5
136
100
AcDbEntity
  8
A1
  6
CONTINUOUS
 62
7
100
AcDbCircle
 10
1494.084892475400
 20
85.60261997862028
 30
0.000000000000000
 40
0.5000000000000000
100
AcDbArc
 50
270.0000000000000
 51
360.0000000000000
  0
ARC
  5
137
100
AcDbEntity
  8
A1
  6
CONTINUOUS
 62
7
100
AcDbCircle
 10
1488.434892475402
 20
78.15210972140187
 30
0.000000000000000
 40
0.6000000000000000
100
AcDbArc
 50
307.7997224354273
 51
360.0000000000000
  0
ARC
  5
138
100
AcDbEntity
  8
A1
  6
CONTINUOUS
 62
7
100
AcDbCircle
 10
1492.234892475401
 20
78.15210972140187
 30
0.000000000000000
 40
0.6000000000000000
100
AcDbArc
 50
180.0000000000000
 51
232.2002775645709
  0
ARC
  5
139
100
AcDbEntity
  8
A1
  6
CONTINUOUS
 62
7
100
AcDbCircle
 10
1494.084892475400
 20
85.60261997862028
 30
0.000000000000000
 40
3.500000000000000
100
AcDbArc
 50
285.2184551577777
 51
343.2916562842898
  0
LINE
  5
13A
100
AcDbEntity
  8
A1
  6
CONTINUOUS
 62
7
100
AcDbLine
 10
1494.634892475399
 20
81.74289200893247
 30
0.000000000000000
 11
1494.634892475399
 21
79.30261997861737
 31
0.000000000000000
  0
ARC
  5
13B
100
AcDbEntity
  8
A1
  6
CONTINUOUS
 62
7
100
AcDbCircle
 10
1495.134892475399
 20
81.74289200893247
 30
0.000000000000000
 40
0.5000000000000000
100
AcDbArc
 50
105.2184551577803
 51
180.0000000000000
  0
LINE
  5
13C
100
AcDbEntity
  8
A1
  6
CONTINUOUS
 62
7
100
AcDbLine
 10
1503.584892475400
 20
84.95261997861519
 30
0.000000000000000
 11
1497.916015026299
 21
84.95261997861519
 31
0.000000000000000
  0
ARC
  5
13D
100
AcDbEntity
  8
A1
  6
CONTINUOUS
 62
7
100
AcDbCircle
 10
1503.584892475400
 20
84.45261997861519
 30
0.000000000000000
 40
0.5000000000000000
100
AcDbArc
 50
0.000000000000000
 51
90.00000000000000
  0
ARC
  5
13E
100
AcDbEntity
  8
A1
  6
CONTINUOUS
 62
7
100
AcDbCircle
 10
1503.584892475400
 20
84.45261997861519
 30
0.000000000000000
 40
3.500000000000000
100
AcDbArc
 50
4.653000000000000e-13
 51
90.00000000000000
  0
ARC
  5
13F
100
AcDbEntity
  8
A1
  6
CONTINUOUS
 62
7
100
AcDbCircle
 10
1497.916015026299
 20
84.45261997861519
 30
0.000000000000000
 40
0.5000000000000000
100
AcDbArc
 50
90.00000000000652
 51
163.2916562842906
  0
LINE
  5
140
100
AcDbEntity
  8
A1
  6
CONTINUOUS
 62
7
100
AcDbLine
 10
1482.492834156806
 20
87.95261997861519
 30
0.000000000000000
 11
1485.534892475401
 21
87.95261997861519
 31
0.000000000000000
  0
LINE
  5
141
100
AcDbEntity
  8
A1
  6
CONTINUOUS
 62
7
100
AcDbLine
 10
1495.134892475399
 20
87.95261997861519
 30
0.000000000000000
 11
1503.584892475400
 21
87.95261997861519
 31
0.000000000000000
  0
ARC
  5
142
100
AcDbEntity
  8
A1
  6
CONTINUOUS
 62
7
100
AcDbCircle
 10
1495.134892475399
 20
79.30261997861737
 30
0.000000000000000
 40
0.5000000000000000
100
AcDbArc
 50
180.0000000000000
 51
216.8698976458401
  0
LINE
  5
143
100
AcDbEntity
  8
A1
  6
CONTINUOUS
 62
7
100
AcDbLine
 10
1491.434892475402
 20
68.30261997862101
 30
0.000000000000000
 11
1489.234892475401
 21
68.30261997862101
 31
0.000000000000000
  0
LINE
  5
144
100
AcDbEntity
  8
A1
  6
CONTINUOUS
 62
7
100
AcDbLine
 10
1491.634892475399
 20
68.50261997862174
 30
0.000000000000000
 11
1491.634892475399
 21
73.25313023583578
 31
0.000000000000000
  0
LINE
  5
145
100
AcDbEntity
  8
A1
  6
CONTINUOUS
 62
7
100
AcDbLine
 10
1489.034892475401
 20
68.50261997862174
 30
0.000000000000000
 11
1489.034892475401
 21
73.25313023583578
 31
0.000000000000000
  0
ARC
  5
146
100
AcDbEntity
  8
A1
  6
CONTINUOUS
 62
7
100
AcDbCircle
 10
1491.434892475402
 20
68.50261997862174
 30
0.000000000000000
 40
0.2000000000000000
100
AcDbArc
 50
270.0000000000000
 51
360.0000000000000
  0
ARC
  5
147
100
AcDbEntity
  8
A1
  6
CONTINUOUS
 62
7
100
AcDbCircle
 10
1489.234892475401
 20
68.50261997862174
 30
0.000000000000000
 40
0.2000000000000000
100
AcDbArc
 50
180.0000000000000
 51
270.0000000000000
  0
LINE
  5
148
100
AcDbEntity
  8
A1
  6
CONTINUOUS
 62
7
100
AcDbLine
 10
1486.084892475400
 20
65.80261997862101
 30
0.000000000000000
 11
1486.084892475400
 21
64.00261997862538
 31
0.000000000000000
  0
LINE
  5
149
100
AcDbEntity
  8
A1
  6
CONTINUOUS
 62
7
100
AcDbLine
 10
1494.084892475400
 20
66.30261997862101
 30
0.000000000000000
 11
1486.584892475400
 21
66.30261997862101
 31
0.000000000000000
  0
LINE
  5
14A
100
AcDbEntity
  8
A1
  6
CONTINUOUS
 62
7
100
AcDbLine
 10
1494.584892475400
 20
64.00261997862538
 30
0.000000000000000
 11
1494.584892475400
 21
65.80261997862101
 31
0.000000000000000
  0
ARC
  5
14B
100
AcDbEntity
  8
A1
  6
CONTINUOUS
 62
7
100
AcDbCircle
 10
1486.584892475400
 20
65.80261997862101
 30
0.000000000000000
 40
0.5000000000000000
100
AcDbArc
 50
90.00000000000000
 51
180.0000000000000
  0
ARC
  5
14C
100
AcDbEntity
  8
A1
  6
CONTINUOUS
 62
7
100
AcDbCircle
 10
1494.084892475400
 20
65.80261997862101
 30
0.000000000000000
 40
0.5000000000000000
100
AcDbArc
 50
0.000000000000000
 51
90.00000000000000
  0
ARC
  5
14D
100
AcDbEntity
  8
A1
  6
CONTINUOUS
 62
7
100
AcDbCircle
 10
1488.434892475402
 20
73.25313023583578
 30
0.000000000000000
 40
0.6000000000000000
100
AcDbArc
 50
0.000000000000000
 51
52.20027756457263
  0
ARC
  5
14E
100
AcDbEntity
  8
A1
  6
CONTINUOUS
 62
7
100
AcDbCircle
 10
1492.234892475401
 20
73.25313023583578
 30
0.000000000000000
 40
0.6000000000000000
100
AcDbArc
 50
127.7997224354290
 51
180.0000000000000
  0
ARC
  5
14F
100
AcDbEntity
  8
A1
  6
CONTINUOUS
 62
7
100
AcDbCircle
 10
1494.084892475400
 20
65.80261997862101
 30
0.000000000000000
 40
3.500000000000000
100
AcDbArc
 50
16.70834371571017
 51
74.78154484222227
  0
LINE
  5
150
100
AcDbEntity
  8
A1
  6
CONTINUOUS
 62
7
100
AcDbLine
 10
1494.634892475399
 20
69.66234794830882
 30
0.000000000000000
 11
1494.634892475399
 21
72.10261997862392
 31
0.000000000000000
  0
ARC
  5
151
100
AcDbEntity
  8
A1
  6
CONTINUOUS
 62
7
100
AcDbCircle
 10
1495.134892475399
 20
69.66234794830882
 30
0.000000000000000
 40
0.5000000000000000
100
AcDbArc
 50
180.0000000000000
 51
254.7815448422206
  0
LINE
  5
152
100
AcDbEntity
  8
A1
  6
CONTINUOUS
 62
7
100
AcDbLine
 10
1503.584892475400
 20
66.45261997862247
 30
0.000000000000000
 11
1497.916015026299
 21
66.45261997862247
 31
0.000000000000000
  0
ARC
  5
153
100
AcDbEntity
  8
A1
  6
CONTINUOUS
 62
7
100
AcDbCircle
 10
1503.584892475400
 20
66.95261997862247
 30
0.000000000000000
 40
0.5000000000000000
100
AcDbArc
 50
270.0000000000000
 51
360.0000000000000
  0
ARC
  5
154
100
AcDbEntity
  8
A1
  6
CONTINUOUS
 62
7
100
AcDbCircle
 10
1503.584892475400
 20
66.95261997862247
 30
0.000000000000000
 40
3.500000000000000
100
AcDbArc
 50
270.0000000000000
 51
359.9999999999996
  0
ARC
  5
155
100
AcDbEntity
  8
A1
  6
CONTINUOUS
 62
7
100
AcDbCircle
 10
1497.916015026299
 20
66.95261997862247
 30
0.000000000000000
 40
0.5000000000000000
100
AcDbArc
 50
196.7083437157113
 51
269.9999999999935
  0
LINE
  5
156
100
AcDbEntity
  8
A1
  6
CONTINUOUS
 62
7
100
AcDbLine
 10
1495.134892475399
 20
63.45261997862247
 30
0.000000000000000
 11
1503.584892475400
 21
63.45261997862247
 31
0.000000000000000
  0
ARC
  5
157
100
AcDbEntity
  8
A1
  6
CONTINUOUS
 62
7
100
AcDbCircle
 10
1495.134892475399
 20
72.10261997862392
 30
0.000000000000000
 40
0.5000000000000000
100
AcDbArc
 50
143.1301023541599
 51
180.0000000000000
  0
LINE
  5
158
100
AcDbEntity
  8
A1
  6
CONTINUOUS
 62
7
100
AcDbLine
 10
1473.584892475400
 20
84.40261997861592
 30
0.000000000000000
 11
1479.834892475400
 21
84.40261997861592
 31
0.000000000000000
  0
ARC
  5
159
100
AcDbEntity
  8
A1
  6
CONTINUOUS
 62
7
100
AcDbCircle
 10
1479.834892475400
 20
78.40261997861592
 30
0.000000000000000
 40
6.000000000000000
100
AcDbArc
 50
0.000000000000000
 51
90.00000000000000
  0
LINE
  5
15A
100
AcDbEntity
  8
A1
  6
CONTINUOUS
 62
7
100
AcDbLine
 10
1473.584892475400
 20
67.00261997862538
 30
0.000000000000000
 11
1479.834892475400
 21
67.00261997862538
 31
0.000000000000000
  0
ARC
  5
15B
100
AcDbEntity
  8
A1
  6
CONTINUOUS
 62
7
100
AcDbCircle
 10
1479.834892475400
 20
73.00261997862538
 30
0.000000000000000
 40
6.000000000000000
100
AcDbArc
 50
270.0000000000000
 51
360.0000000000000
  0
LINE
  5
15C
100
AcDbEntity
  8
A1
  6
CONTINUOUS
 62
7
100
AcDbLine
 10
1482.492834156806
 20
63.45261997862247
 30
0.000000000000000
 11
1485.534892475401
 21
63.45261997862247
 31
0.000000000000000
  0
ARC
  5
15D
100
AcDbEntity
  8
A1
  6
CONTINUOUS
 62
7
100
AcDbCircle
 10
1485.534892475401
 20
64.00261997862538
 30
0.000000000000000
 40
0.5500000000000000
100
AcDbArc
 50
270.0000000000000
 51
359.9999999999970
  0
ARC
  5
15E
100
AcDbEntity
  8
A1
  6
CONTINUOUS
 62
7
100
AcDbCircle
 10
1495.134892475399
 20
64.00261997862538
 30
0.000000000000000
 40
0.5500000000000000
100
AcDbArc
 50
180.0000000000000
 51
270.0000000000000
  0
ARC
  5
15F
100
AcDbEntity
  8
A1
  6
CONTINUOUS
 62
7
100
AcDbCircle
 10
1485.534892475401
 20
87.40261997861592
 30
0.000000000000000
 40
0.5500000000000000
100
AcDbArc
 50
2.960800000000000e-12
 51
90.00000000000000
  0
ARC
  5
160
100
AcDbEntity
  8
A1
  6
CONTINUOUS
 62
7
100
AcDbCircle
 10
1495.134892475399
 20
87.40261997861592
 30
0.000000000000000
 40
0.5500000000000000
100
AcDbArc
 50
90.00000000000000
 51
180.0000000000000
  0
ARC
  5
161
100
AcDbEntity
  8
A1
  6
CONTINUOUS
 62
7
100
AcDbCircle
 10
1478.835277113562
 20
64.20481444663449
 30
0.000000000000000
 40
3.000000000000000
100
AcDbArc
 50
240.0000000000000
 51
319.0442424526630
  0
LINE
  5
162
100
AcDbEntity
  8
A1
  6
CONTINUOUS
 62
7
100
AcDbLine
 10
1474.190073707088
 20
63.42262226867138
 30
0.000000000000000
 11
1477.335277113565
 21
61.60673823528612
 31
0.000000000000000
  0
LINE
  5
163
100
AcDbEntity
  8
A1
  6
CONTINUOUS
 62
7
100
AcDbLine
 10
1481.879998602310
 20
63.16685006636919
 30
0.000000000000000
 11
1481.100924959113
 21
62.23838625319297
 31
0.000000000000000
  0
ARC
  5
164
100
AcDbEntity
  8
A1
  6
CONTINUOUS
 62
7
100
AcDbCircle
 10
1482.492834156806
 20
88.75261997861810
 30
0.000000000000000
 40
0.8000000000000000
100
AcDbArc
 50
219.9999999999991
 51
270.0000000000000
  0
ARC
  5
165
100
AcDbEntity
  8
A1
  6
CONTINUOUS
 62
7
100
AcDbCircle
 10
1482.492834156806
 20
62.65261997862319
 30
0.000000000000000
 40
0.8000000000000000
100
AcDbArc
 50
90.00000000000000
 51
140.0000000000009
  0
ARC
  5
166
100
AcDbEntity
  8
A1
  6
CONTINUOUS
 62
7
100
AcDbCircle
 10
1474.940073707084
 20
64.72166037434647
 30
0.000000000000000
 40
1.500000000000000
100
AcDbArc
 50
205.3841182138332
 51
240.0000000000000
  0
ARC
  5
167
100
AcDbEntity
  8
A1
  6
CONTINUOUS
 62
7
100
AcDbCircle
 10
1474.940073707084
 20
86.68357958289482
 30
0.000000000000000
 40
1.500000000000000
100
AcDbArc
 50
120.0000000000000
 51
154.6158817861668
  0
LINE
  5
168
100
AcDbEntity
  8
A1
  6
CONTINUOUS
 62
7
100
AcDbLine
 10
1459.084892475402
 20
86.58233186578866
 30
0.000000000000000
 11
1022.984892475413
 21
86.58233186578866
 31
0.000000000000000
  0
LINE
  5
169
100
AcDbEntity
  8
A1
  6
CONTINUOUS
 62
7
100
AcDbLine
 10
1459.084892475402
 20
64.82290809144899
 30
0.000000000000000
 11
1022.984892475413
 21
64.82290809144899
 31
0.000000000000000
  0
LINE
  5
16A
100
AcDbEntity
  8
A1
  6
CONTINUOUS
 62
7
100
AcDbLine
 10
1504.084892475400
 20
98.48846527473791
 30
0.000000000000000
 11
550.3848924753643
 21
98.48846527473791
 31
0.000000000000000
  0
LINE
  5
16B
100
AcDbEntity
  8
A1
  6
CONTINUOUS
 62
7
100
AcDbLine
 10
1504.084892475400
 20
102.1526199786196
 30
0.000000000000000
 11
550.3848924753636
 21
102.1526199786196
 31
0.000000000000000
  0
CIRCLE
  5
16C
100
AcDbEntity
  8
A3
  6
DASHED
 62
2
100
AcDbCircle
 10
1479.084892475400
 20
83.15231441764547
 30
0.000000000000000
 40
2.100000000000000
  0
CIRCLE
  5
16D
100
AcDbEntity
  8
A3
  6
DASHED
 62
2
100
AcDbCircle
 10
1479.084892475400
 20
68.15231441764547
 30
0.000000000000000
 40
2.100000000000000
  0
LINE
  5
16E
100
AcDbEntity
  8
A1
  6
CONTINUOUS
 62
7
100
AcDbLine
 10
1473.584892475400
 20
86.58233186578964
 30
0.000000000000000
 11
1469.084892475400
 21
86.58233186578944
 31
0.000000000000000
  0
LINE
  5
16F
100
AcDbEntity
  8
A1
  6
CONTINUOUS
 62
7
100
AcDbLine
 10
1473.584892475400
 20
64.82290809144899
 30
0.000000000000000
 11
1469.084892475400
 21
64.82290809144899
 31
0.000000000000000
  0
CIRCLE
  5
170
100
AcDbEntity
  8
A1
  6
CONTINUOUS
 62
7
100
AcDbCircle
 10
97.58489247542093
 20
75.70261997861883
 30
0.000000000000000
 40
2.600000000000000
  0
CIRCLE
  5
171
100
AcDbEntity
  8
A1
  6
CONTINUOUS
 62
7
100
AcDbCircle
 10
116.6848924754213
 20
75.70261997861883
 30
0.000000000000000
 40
3.299999999999999
  0
CIRCLE
  5
172
100
AcDbEntity
  8
A1
  6
CONTINUOUS
 62
7
100
AcDbCircle
 10
161.0848924754227
 20
75.70261997861883
 30
0.000000000000000
 40
3.299999999999999
  0
CIRCLE
  5
173
100
AcDbEntity
  8
A1
  6
CONTINUOUS
 62
7
100
AcDbCircle
 10
148.3848924754184
 20
75.70261997861883
 30
0.000000000000000
 40
2.600000000000000
  0
CIRCLE
  5
174
100
AcDbEntity
  8
A1
  6
CONTINUOUS
 62
7
100
AcDbCircle
 10
288.0848924754209
 20
75.70261997861883
 30
0.000000000000000
 40
3.299999999999999
  0
CIRCLE
  5
175
100
AcDbEntity
  8
A1
  6
CONTINUOUS
 62
7
100
AcDbCircle
 10
275.3848924754220
 20
75.70261997861883
 30
0.000000000000000
 40
2.600000000000000
  0
CIRCLE
  5
176
100
AcDbEntity
  8
A1
  6
CONTINUOUS
 62
7
100
AcDbCircle
 10
135.6848924754213
 20
75.70261997861883
 30
0.000000000000000
 40
3.299999999999999
  0
CIRCLE
  5
177
100
AcDbEntity
  8
A1
  6
CONTINUOUS
 62
7
100
AcDbCircle
 10
224.5848924754209
 20
75.70261997861883
 30
0.000000000000000
 40
3.299999999999999
  0
CIRCLE
  5
178
100
AcDbEntity
  8
A1
  6
CONTINUOUS
 62
7
100
AcDbCircle
 10
211.8848924754220
 20
75.70261997861883
 30
0.000000000000000
 40
2.600000000000000
  0
CIRCLE
  5
179
100
AcDbEntity
  8
A1
  6
CONTINUOUS
 62
7
100
AcDbCircle
 10
307.1848924754213
 20
75.70261997861883
 30
0.000000000000000
 40
3.550000000000000
  0
CIRCLE
  5
17A
100
AcDbEntity
  8
A1
  6
CONTINUOUS
 62
7
100
AcDbCircle
 10
465.8848924754202
 20
75.70261997861883
 30
0.000000000000000
 40
3.299999999999999
  0
CIRCLE
  5
17B
100
AcDbEntity
  8
A1
  6
CONTINUOUS
 62
7
100
AcDbCircle
 10
453.1848924754213
 20
75.70261997861883
 30
0.000000000000000
 40
2.600000000000000
  0
LINE
  5
17C
100
AcDbEntity
  8
A1
  6
CONTINUOUS
 62
7
100
AcDbLine
 10
856.3348924754100
 20
72.40261997861955
 30
0.000000000000000
 11
847.0348924753998
 21
72.40261997861955
 31
0.000000000000000
  0
ARC
  5
17D
100
AcDbEntity
  8
A1
  6
CONTINUOUS
 62
7
100
AcDbCircle
 10
856.3348924754100
 20
75.70261997861883
 30
0.000000000000000
 40
3.299999999999999
100
AcDbArc
 50
270.0000000000000
 51
450.0000000000000
  0
ARC
  5
17E
100
AcDbEntity
  8
A1
  6
CONTINUOUS
 62
7
100
AcDbCircle
 10
847.0348924753998
 20
75.70261997861883
 30
0.000000000000000
 40
3.299999999999999
100
AcDbArc
 50
90.00000000000000
 51
270.0000000000000
  0
LINE
  5
17F
100
AcDbEntity
  8
A1
  6
CONTINUOUS
 62
7
100
AcDbLine
 10
856.3348924754100
 20
79.00261997861810
 30
0.000000000000000
 11
847.0348924753998
 21
79.00261997861810
 31
0.000000000000000
  0
CIRCLE
  5
180
100
AcDbEntity
  8
A1
  6
CONTINUOUS
 62
7
100
AcDbCircle
 10
834.1848924754013
 20
75.70261997861883
 30
0.000000000000000
 40
3.550000000000000
  0
CIRCLE
  5
181
100
AcDbEntity
  8
A1
  6
CONTINUOUS
 62
7
100
AcDbCircle
 10
911.8848924753947
 20
75.70261997861883
 30
0.000000000000000
 40
3.299999999999999
  0
CIRCLE
  5
182
100
AcDbEntity
  8
A1
  6
CONTINUOUS
 62
7
100
AcDbCircle
 10
924.5848924753955
 20
75.70261997861883
 30
0.000000000000000
 40
2.600000000000000
  0
LINE
  5
183
100
AcDbEntity
  8
A1
  6
CONTINUOUS
 62
7
100
AcDbLine
 10
939.4348924753958
 20
73.10261997861664
 30
0.000000000000000
 11
935.1348924754056
 21
73.10261997861664
 31
0.000000000000000
  0
ARC
  5
184
100
AcDbEntity
  8
A1
  6
CONTINUOUS
 62
7
100
AcDbCircle
 10
939.4348924753958
 20
75.70261997861883
 30
0.000000000000000
 40
2.600000000000000
100
AcDbArc
 50
270.0000000000000
 51
450.0000000000000
  0
ARC
  5
185
100
AcDbEntity
  8
A1
  6
CONTINUOUS
 62
7
100
AcDbCircle
 10
935.1348924754056
 20
75.70261997861883
 30
0.000000000000000
 40
2.600000000000000
100
AcDbArc
 50
90.00000000000000
 51
270.0000000000000
  0
LINE
  5
186
100
AcDbEntity
  8
A1
  6
CONTINUOUS
 62
7
100
AcDbLine
 10
939.4348924753958
 20
78.30261997862101
 30
0.000000000000000
 11
935.1348924754056
 21
78.30261997862101
 31
0.000000000000000
  0
CIRCLE
  5
187
100
AcDbEntity
  8
A1
  6
CONTINUOUS
 62
7
100
AcDbCircle
 10
618.2848924754207
 20
75.70261997861883
 30
0.000000000000000
 40
3.299999999999999
  0
CIRCLE
  5
188
100
AcDbEntity
  8
A1
  6
CONTINUOUS
 62
7
100
AcDbCircle
 10
605.5848924754218
 20
75.70261997861883
 30
0.000000000000000
 40
2.600000000000000
  0
LINE
  5
189
100
AcDbEntity
  8
A1
  6
CONTINUOUS
 62
7
100
AcDbLine
 10
1023.084892475413
 20
94.50261997861810
 30
0.000000000000000
 11
65.78489247542166
 21
94.50261997861810
 31
0.000000000000000
  0
LINE
  5
18A
100
AcDbEntity
  8
A1
  6
CONTINUOUS
 62
7
100
AcDbLine
 10
1023.084892475413
 20
90.80261997862101
 30
0.000000000000000
 11
65.98119394221249
 21
90.80261997862101
 31
0.000000000000000
  0
LINE
  5
18B
100
AcDbEntity
  8
A1
  6
CONTINUOUS
 62
7
100
AcDbLine
 10
985.7848924754126
 20
87.20261997861627
 30
0.000000000000000
 11
988.2848924754053
 21
87.20261997861854
 31
0.000000000000000
  0
LINE
  5
18C
100
AcDbEntity
  8
A1
  6
CONTINUOUS
 62
7
100
AcDbLine
 10
985.7848924754140
 20
87.20261997861840
 30
0.000000000000000
 11
985.7848924754359
 21
64.20261997861476
 31
0.000000000000000
  0
LINE
  5
18D
100
AcDbEntity
  8
A1
  6
CONTINUOUS
 62
7
100
AcDbLine
 10
988.2848924754140
 20
87.20261997861726
 30
0.000000000000000
 11
988.2848924754250
 21
64.20261997861726
 31
0.000000000000000
  0
LINE
  5
18E
100
AcDbEntity
  8
A1
  6
CONTINUOUS
 62
7
100
AcDbLine
 10
981.4848924754119
 20
85.20261997861449
 30
0.000000000000000
 11
981.4848924754227
 21
66.20261997861449
 31
0.000000000000000
  0
ARC
  5
18F
100
AcDbEntity
  8
A1
  6
CONTINUOUS
 62
7
100
AcDbCircle
 10
983.4848924754115
 20
85.20261997861519
 30
0.000000000000000
 40
2.000000000000000
100
AcDbArc
 50
90.00000000005539
 51
180.0000000000521
  0
ARC
  5
190
100
AcDbEntity
  8
A1
  6
CONTINUOUS
 62
7
100
AcDbCircle
 10
983.4848924754224
 20
66.20261997861519
 30
0.000000000000000
 40
2.000000000000000
100
AcDbArc
 50
180.0000000000521
 51
270.0000000000554
  0
LINE
  5
191
100
AcDbEntity
  8
A1
  6
CONTINUOUS
 62
7
100
AcDbLine
 10
985.7848924754360
 20
64.20261997861714
 30
0.000000000000000
 11
988.2848924754251
 21
64.20261997861944
 31
0.000000000000000
  0
LINE
  5
192
100
AcDbEntity
  8
A1
  6
CONTINUOUS
 62
7
100
AcDbLine
 10
983.4848924754109
 20
87.20261997861762
 30
0.000000000000000
 11
985.7848924754138
 21
87.20261997861984
 31
0.000000000000000
  0
LINE
  5
193
100
AcDbEntity
  8
A1
  6
CONTINUOUS
 62
7
100
AcDbLine
 10
983.4848924754255
 20
64.20261997861404
 30
0.000000000000000
 11
985.7848924754356
 21
64.20261997861634
 31
0.000000000000000
  0
LINE
  5
194
100
AcDbEntity
  8
A1
  6
CONTINUOUS
 62
7
100
AcDbLine
 10
65.78489247542862
 20
87.20261997861550
 30
0.000000000000000
 11
68.28489247542316
 21
87.20261997861800
 31
0.000000000000000
  0
ARC
  5
195
100
AcDbEntity
  8
A1
  6
CONTINUOUS
 62
7
100
AcDbCircle
 10
67.78489247542711
 20
88.20261997862247
 30
0.000000000000000
 40
1.000000000000000
100
AcDbArc
 50
270.0000000000521
 51
420.0000000000475
  0
LINE
  5
196
100
AcDbEntity
  8
A1
  6
CONTINUOUS
 62
7
100
AcDbLine
 10
66.78489247542481
 20
89.93467078618997
 30
0.000000000000000
 11
68.28489247542475
 21
89.06864538240686
 31
0.000000000000000
  0
LINE
  5
197
100
AcDbEntity
  8
A1
  6
CONTINUOUS
 62
7
100
AcDbLine
 10
65.78489247542062
 20
94.50261997861665
 30
0.000000000000000
 11
65.78489247542312
 21
91.66672159375733
 31
0.000000000000000
  0
ARC
  5
198
100
AcDbEntity
  8
A1
  6
CONTINUOUS
 62
7
100
AcDbCircle
 10
67.78489247542348
 20
91.66672159375878
 30
0.000000000000000
 40
2.000000000000000
100
AcDbArc
 50
180.0000000000554
 51
240.0000000000566
  0
LINE
  5
199
100
AcDbEntity
  8
A1
  6
CONTINUOUS
 62
7
100
AcDbLine
 10
65.78489247542674
 20
87.20261997862401
 30
0.000000000000000
 11
65.78489247544857
 21
64.20261997862401
 31
0.000000000000000
  0
LINE
  5
19A
100
AcDbEntity
  8
A1
  6
CONTINUOUS
 62
7
100
AcDbLine
 10
68.28489247542761
 20
87.20261997862454
 30
0.000000000000000
 11
68.28489247543853
 21
64.20261997862454
 31
0.000000000000000
  0
LINE
  5
19B
100
AcDbEntity
  8
A1
  6
CONTINUOUS
 62
7
100
AcDbLine
 10
65.78489247544981
 20
64.20261997861550
 30
0.000000000000000
 11
68.28489247543889
 21
64.20261997861800
 31
0.000000000000000
  0
ARC
  5
19C
100
AcDbEntity
  8
A1
  6
CONTINUOUS
 62
7
100
AcDbCircle
 10
67.78489247545076
 20
63.20261997862247
 30
0.000000000000000
 40
1.000000000000000
100
AcDbArc
 50
300.0000000000687
 51
450.0000000000521
  0
LINE
  5
19D
100
AcDbEntity
  8
A1
  6
CONTINUOUS
 62
7
100
AcDbLine
 10
66.78489247545376
 20
61.47056917105024
 30
0.000000000000000
 11
68.28489247545197
 21
62.33659457483634
 31
0.000000000000000
  0
LINE
  5
19E
100
AcDbEntity
  8
A1
  6
CONTINUOUS
 62
7
100
AcDbLine
 10
65.78489247545618
 20
56.90261997862378
 30
0.000000000000000
 11
65.78489247545345
 21
59.73851836349037
 31
0.000000000000000
  0
ARC
  5
19F
100
AcDbEntity
  8
A1
  6
CONTINUOUS
 62
7
100
AcDbCircle
 10
67.78489247545440
 20
59.73851836348615
 30
0.000000000000000
 40
2.000000000000000
100
AcDbArc
 50
120.0000000000517
 51
180.0000000000554
  0
LINE
  5
1A0
100
AcDbEntity
  8
A1
  6
CONTINUOUS
 62
7
100
AcDbLine
 10
1022.984892475413
 20
89.41030477729794
 30
0.000000000000000
 11
1459.084892475401
 21
89.41030477729794
 31
0.000000000000000
  0
LINE
  5
1A1
100
AcDbEntity
  8
A1
  6
CONTINUOUS
 62
7
100
AcDbLine
 10
1022.984892475413
 20
61.99493517993972
 30
0.000000000000000
 11
1459.084892475400
 21
61.99493517993972
 31
0.000000000000000
  0
LINE
  5
1A2
100
AcDbEntity
  8
A1
  6
CONTINUOUS
 62
7
100
AcDbLine
 10
1023.084892475413
 20
56.90261997861955
 30
0.000000000000000
 11
65.78489247542166
 21
56.90261997861955
 31
0.000000000000000
  0
LINE
  5
1A3
100
AcDbEntity
  8
A1
  6
CONTINUOUS
 62
7
100
AcDbLine
 10
1023.084892475413
 20
60.60261997862028
 30
0.000000000000000
 11
65.98119394221067
 21
60.60261997862028
 31
0.000000000000000
  0
LINE
  5
1A4
100
AcDbEntity
  8
A1
  6
CONTINUOUS
 62
7
100
AcDbLine
 10
1504.084892475400
 20
52.91677468249975
 30
0.000000000000000
 11
550.3848924758904
 21
52.91677468249975
 31
0.000000000000000
  0
LINE
  5
1A5
100
AcDbEntity
  8
A1
  6
CONTINUOUS
 62
7
100
AcDbLine
 10
1504.084892475400
 20
49.25261997861810
 30
0.000000000000000
 11
550.3848924759368
 21
49.25261997861810
 31
0.000000000000000
  0
LINE
  5
1A6
100
AcDbEntity
  8
A1
  6
CONTINUOUS
 62
7
100
AcDbLine
 10
1989.984892475399
 20
40.80261997862447
 30
0.000000000000000
 11
1024.784892475408
 21
40.80261997862060
 31
0.000000000000000
  0
LINE
  5
1A7
100
AcDbEntity
  8
A1
  6
CONTINUOUS
 62
7
100
AcDbLine
 10
1989.873951102052
 20
45.20261997862247
 30
0.000000000000000
 11
1024.784892475404
 21
45.20261997862247
 31
0.000000000000000
  0
LINE
  5
1A8
100
AcDbEntity
  8
A1
  6
CONTINUOUS
 62
7
100
AcDbLine
 10
1062.507937213228
 20
75.70261997862190
 30
0.000000000000000
 11
1064.366102101638
 21
77.56078486703268
 31
0.000000000000000
  0
LINE
  5
1A9
100
AcDbEntity
  8
A1
  6
CONTINUOUS
 62
7
100
AcDbLine
 10
1064.366102101641
 20
73.84445509020441
 30
0.000000000000000
 11
1062.507937213231
 21
75.70261997861485
 31
0.000000000000000
  0
LINE
  5
1AA
100
AcDbEntity
  8
A3
  6
DASHED
 62
2
100
AcDbLine
 10
1288.761847737569
 20
75.70261997861360
 30
0.000000000000000
 11
1287.716271289396
 21
74.65704353044009
 31
0.000000000000000
  0
LINE
  5
1AB
100
AcDbEntity
  8
A3
  6
DASHED
 62
2
100
AcDbLine
 10
1287.716271289396
 20
76.74819642678858
 30
0.000000000000000
 11
1288.761847737568
 21
75.70261997861337
 31
0.000000000000000
  0
LINE
  5
1AC
100
AcDbEntity
  8
A1
  6
CONTINUOUS
 62
7
100
AcDbLine
 10
1469.084892475401
 20
89.41030477729389
 30
0.000000000000000
 11
1476.662900282067
 21
89.41030477729400
 31
0.000000000000000
  0
LINE
  5
1AD
100
AcDbEntity
  8
A1
  6
CONTINUOUS
 62
7
100
AcDbLine
 10
1480.864176723358
 20
89.41030477730099
 30
0.000000000000000
 11
1504.084892475401
 21
89.41030477730122
 31
0.000000000000000
  0
LINE
  5
1AE
100
AcDbEntity
  8
A1
  6
CONTINUOUS
 62
7
100
AcDbLine
 10
1476.662900282067
 20
61.99493517994335
 30
0.000000000000000
 11
1469.084892475400
 21
61.99493517994335
 31
0.000000000000000
  0
LINE
  5
1AF
100
AcDbEntity
  8
A1
  6
CONTINUOUS
 62
7
100
AcDbLine
 10
1504.084892475400
 20
61.99493517994359
 30
0.000000000000000
 11
1480.864176723359
 21
61.99493517994370
 31
0.000000000000000
  0
LINE
  5
1B0
100
AcDbEntity
  8
A1
  6
CONTINUOUS
 62
7
100
AcDbLine
 10
1489.034892475401
 20
78.15210972140179
 30
0.000000000000000
 11
1489.034892475401
 21
73.25313023583570
 31
0.000000000000000
  0
LINE
  5
1B1
100
AcDbEntity
  8
A1
  6
CONTINUOUS
 62
7
100
AcDbLine
 10
1491.634892475399
 20
78.15210972140179
 30
0.000000000000000
 11
1491.634892475399
 21
73.25313023583570
 31
0.000000000000000
  0
LINE
  5
1B2
100
AcDbEntity
  8
A2
  6
CENTER
 62
1
100
AcDbLine
 10
1259.684892475400
 20
87.30261997862101
 30
0.000000000000000
 11
1259.684892475400
 21
64.10261997862028
 31
0.000000000000000
  0
LINE
  5
1B3
100
AcDbEntity
  8
A2
  6
CENTER
 62
1
100
AcDbLine
 10
1272.384892475399
 20
88.00261997861810
 30
0.000000000000000
 11
1272.384892475399
 21
63.40261997861955
 31
0.000000000000000
  0
LINE
  5
1B4
100
AcDbEntity
  8
A2
  6
CENTER
 62
1
100
AcDbLine
 10
1297.784892475400
 20
63.35261997862028
 30
0.000000000000000
 11
1297.784892475400
 21
88.05261997862101
 31
0.000000000000000
  0
LINE
  5
1B5
100
AcDbEntity
  8
A2
  6
CENTER
 62
1
100
AcDbLine
 10
1285.084892475400
 20
63.02566471644889
 30
0.000000000000000
 11
1285.084892475400
 21
88.37957524079241
 31
0.000000000000000
  0
LINE
  5
1B6
100
AcDbEntity
  8
A2
  6
CENTER
 62
1
100
AcDbLine
 10
97.58489247542093
 20
85.80261997862101
 30
0.000000000000000
 11
97.58489247542093
 21
65.60261997861664
 31
0.000000000000000
  0
LINE
  5
1B7
100
AcDbEntity
  8
A2
  6
CENTER
 62
1
100
AcDbLine
 10
116.6848924754213
 20
86.50261997861810
 30
0.000000000000000
 11
116.6848924754213
 21
64.90261997861955
 31
0.000000000000000
  0
LINE
  5
1B8
100
AcDbEntity
  8
A2
  6
CENTER
 62
1
100
AcDbLine
 10
135.6848924754213
 20
86.50261997861810
 30
0.000000000000000
 11
135.6848924754213
 21
64.90261997861955
 31
0.000000000000000
  0
LINE
  5
1B9
100
AcDbEntity
  8
A2
  6
CENTER
 62
1
100
AcDbLine
 10
148.3848924754184
 20
85.80261997862101
 30
0.000000000000000
 11
148.3848924754184
 21
65.60261997861664
 31
0.000000000000000
  0
LINE
  5
1BA
100
AcDbEntity
  8
A2
  6
CENTER
 62
1
100
AcDbLine
 10
161.0848924754227
 20
86.50261997861810
 30
0.000000000000000
 11
161.0848924754227
 21
64.90261997861955
 31
0.000000000000000
  0
LINE
  5
1BB
100
AcDbEntity
  8
A2
  6
CENTER
 62
1
100
AcDbLine
 10
211.8848924754220
 20
85.80261997862101
 30
0.000000000000000
 11
211.8848924754220
 21
65.60261997861664
 31
0.000000000000000
  0
LINE
  5
1BC
100
AcDbEntity
  8
A2
  6
CENTER
 62
1
100
AcDbLine
 10
224.5848924754209
 20
86.50261997861810
 30
0.000000000000000
 11
224.5848924754209
 21
64.90261997861955
 31
0.000000000000000
  0
LINE
  5
1BD
100
AcDbEntity
  8
A2
  6
CENTER
 62
1
100
AcDbLine
 10
275.3848924754220
 20
85.80261997862101
 30
0.000000000000000
 11
275.3848924754220
 21
65.60261997861664
 31
0.000000000000000
  0
LINE
  5
1BE
100
AcDbEntity
  8
A2
  6
CENTER
 62
1
100
AcDbLine
 10
288.0848924754209
 20
86.50261997861810
 30
0.000000000000000
 11
288.0848924754209
 21
64.90261997861955
 31
0.000000000000000
  0
LINE
  5
1BF
100
AcDbEntity
  8
A2
  6
CENTER
 62
1
100
AcDbLine
 10
307.1848924754213
 20
86.75261997861810
 30
0.000000000000000
 11
307.1848924754213
 21
64.65261997861955
 31
0.000000000000000
  0
LINE
  5
1C0
100
AcDbEntity
  8
A2
  6
CENTER
 62
1
100
AcDbLine
 10
453.1848924754213
 20
85.80261997862101
 30
0.000000000000000
 11
453.1848924754213
 21
65.60261997861664
 31
0.000000000000000
  0
LINE
  5
1C1
100
AcDbEntity
  8
A2
  6
CENTER
 62
1
100
AcDbLine
 10
465.8848924754202
 20
86.50261997861810
 30
0.000000000000000
 11
465.8848924754202
 21
64.90261997861955
 31
0.000000000000000
  0
LINE
  5
1C2
100
AcDbEntity
  8
A2
  6
CENTER
 62
1
100
AcDbLine
 10
605.5848924754218
 20
85.80261997862101
 30
0.000000000000000
 11
605.5848924754218
 21
65.60261997861664
 31
0.000000000000000
  0
LINE
  5
1C3
100
AcDbEntity
  8
A2
  6
CENTER
 62
1
100
AcDbLine
 10
618.2848924754207
 20
86.50261997861810
 30
0.000000000000000
 11
618.2848924754207
 21
64.90261997861955
 31
0.000000000000000
  0
LINE
  5
1C4
100
AcDbEntity
  8
A2
  6
CENTER
 62
1
100
AcDbLine
 10
834.1848924754013
 20
86.75261997861810
 30
0.000000000000000
 11
834.1848924754013
 21
64.65261997861955
 31
0.000000000000000
  0
LINE
  5
1C5
100
AcDbEntity
  8
A2
  6
CENTER
 62
1
100
AcDbLine
 10
851.6848924754049
 20
64.90261997861955
 30
0.000000000000000
 11
851.6848924754049
 21
86.50261997861810
 31
0.000000000000000
  0
LINE
  5
1C6
100
AcDbEntity
  8
A2
  6
CENTER
 62
1
100
AcDbLine
 10
911.8848924753947
 20
86.50261997861810
 30
0.000000000000000
 11
911.8848924753947
 21
64.90261997861955
 31
0.000000000000000
  0
LINE
  5
1C7
100
AcDbEntity
  8
A2
  6
CENTER
 62
1
100
AcDbLine
 10
924.5848924753955
 20
85.80261997862101
 30
0.000000000000000
 11
924.5848924753955
 21
65.60261997862028
 31
0.000000000000000
  0
LINE
  5
1C8
100
AcDbEntity
  8
A2
  6
CENTER
 62
1
100
AcDbLine
 10
937.2848924754016
 20
65.60261997861664
 30
0.000000000000000
 11
937.2848924754016
 21
85.80261997862101
 31
0.000000000000000
  0
LINE
  5
1C9
100
AcDbEntity
  8
A2
  6
CENTER
 62
1
100
AcDbLine
 10
1037.484892475400
 20
85.80261997862101
 30
0.000000000000000
 11
1037.484892475400
 21
65.60261997862028
 31
0.000000000000000
  0
LINE
  5
1CA
100
AcDbEntity
  8
A2
  6
CENTER
 62
1
100
AcDbLine
 10
1046.984892475400
 20
64.85261997862392
 30
0.000000000000000
 11
1046.984892475400
 21
86.55261997862101
 31
0.000000000000000
  0
LINE
  5
1CB
100
AcDbEntity
  8
A2
  6
CENTER
 62
1
100
AcDbLine
 10
1056.584892475399
 20
86.50261997861810
 30
0.000000000000000
 11
1056.584892475399
 21
64.90261997861955
 31
0.000000000000000
  0
LINE
  5
1CC
100
AcDbEntity
  8
A2
  6
CENTER
 62
1
100
AcDbLine
 10
1078.884892475405
 20
64.90261997863047
 30
0.000000000000000
 11
1078.884892475405
 21
86.50261997861810
 31
0.000000000000000
  0
LINE
  5
1CD
100
AcDbEntity
  8
A2
  6
CENTER
 62
1
100
AcDbLine
 10
1113.684892475401
 20
86.50261997861810
 30
0.000000000000000
 11
1113.684892475401
 21
64.90261997861955
 31
0.000000000000000
  0
LINE
  5
1CE
100
AcDbEntity
  8
A2
  6
CENTER
 62
1
100
AcDbLine
 10
1100.984892475400
 20
85.80261997862101
 30
0.000000000000000
 11
1100.984892475400
 21
65.60261997862028
 31
0.000000000000000
  0
LINE
  5
1CF
100
AcDbEntity
  8
A2
  6
CENTER
 62
1
100
AcDbLine
 10
1066.184892475401
 20
64.52566471645252
 30
0.000000000000000
 11
1066.184892475401
 21
86.87957524079241
 31
0.000000000000000
  0
LINE
  5
1D0
100
AcDbEntity
  8
A2
  6
CENTER
 62
1
100
AcDbLine
 10
1874.984892475401
 20
64.52566471644889
 30
0.000000000000000
 11
1874.984892475401
 21
86.87957524078877
 31
0.000000000000000
  0
LINE
  5
1D1
100
AcDbEntity
  8
A2
  6
CENTER
 62
1
100
AcDbLine
 10
1885.184892475401
 20
65.60261997861664
 30
0.000000000000000
 11
1885.184892475401
 21
85.80261997862101
 31
0.000000000000000
  0
LINE
  5
1D2
100
AcDbEntity
  8
A2
  6
CENTER
 62
1
100
AcDbLine
 10
1901.084892475423
 20
64.90261997861955
 30
0.000000000000000
 11
1901.084892475423
 21
86.50261997861810
 31
0.000000000000000
  0
LINE
  5
1D3
100
AcDbEntity
  8
A2
  6
CENTER
 62
1
100
AcDbLine
 10
1916.984892475401
 20
85.80261997862101
 30
0.000000000000000
 11
1916.984892475401
 21
65.60261997861664
 31
0.000000000000000
  0
LINE
  5
1D4
100
AcDbEntity
  8
A2
  6
CENTER
 62
1
100
AcDbLine
 10
1929.684892475399
 20
86.50261997861810
 30
0.000000000000000
 11
1929.684892475399
 21
64.90261997861955
 31
0.000000000000000
  0
LINE
  5
1D5
100
AcDbEntity
  8
A2
  6
CENTER
 62
1
100
AcDbLine
 10
1945.584892475401
 20
64.85261997862028
 30
0.000000000000000
 11
1945.584892475401
 21
86.55261997862101
 31
0.000000000000000
  0
LINE
  5
1D6
100
AcDbEntity
  8
A2
  6
CENTER
 62
1
100
AcDbLine
 10
1958.284892475400
 20
86.50261997861810
 30
0.000000000000000
 11
1958.284892475400
 21
64.90261997861955
 31
0.000000000000000
  0
LINE
  5
1D7
100
AcDbEntity
  8
A1
  6
CONTINUOUS
 62
7
100
AcDbLine
 10
1024.784892475408
 20
110.6026199786148
 30
0.000000000000000
 11
1024.784892475400
 21
102.1526199789742
 31
0.000000000000000
  0
LINE
  5
1D8
100
AcDbEntity
  8
A2
  6
CENTER
 62
1
100
AcDbLine
 10
61.28489247542166
 20
75.70261997861883
 30
0.000000000000000
 11
1999.084892475400
 21
75.70261997861883
 31
0.000000000000000
  0
LINE
  5
1D9
100
AcDbEntity
  8
A1
  6
CONTINUOUS
 62
7
100
AcDbLine
 10
1024.784892475408
 20
40.80261997857589
 30
0.000000000000000
 11
1024.784892475400
 21
49.25261997855843
 31
0.000000000000000
  0
CIRCLE
  5
1DA
100
AcDbEntity
  8
A1
  6
CONTINUOUS
 62
7
100
AcDbCircle
 10
1742.384892475398
 20
75.70261997861883
 30
0.000000000000000
 40
3.299999999999999
  0
CIRCLE
  5
1DB
100
AcDbEntity
  8
A1
  6
CONTINUOUS
 62
7
100
AcDbCircle
 10
1729.684892475399
 20
75.70261997861883
 30
0.000000000000000
 40
2.600000000000000
  0
LINE
  5
1DC
100
AcDbEntity
  8
A1
  6
CONTINUOUS
 62
7
100
AcDbLine
 10
1755.084892475390
 20
72.02566471644730
 30
0.000000000000000
 11
1751.407937213222
 21
75.70261997861519
 31
0.000000000000000
  0
LINE
  5
1DD
100
AcDbEntity
  8
A1
  6
CONTINUOUS
 62
7
100
AcDbLine
 10
1758.761847737564
 20
75.70261997862247
 30
0.000000000000000
 11
1755.084892475393
 21
79.37957524079297
 31
0.000000000000000
  0
LINE
  5
1DE
100
AcDbEntity
  8
A1
  6
CONTINUOUS
 62
7
100
AcDbLine
 10
1751.407937213224
 20
75.70261997861974
 30
0.000000000000000
 11
1755.084892475395
 21
79.37957524079036
 31
0.000000000000000
  0
LINE
  5
1DF
100
AcDbEntity
  8
A1
  6
CONTINUOUS
 62
7
100
AcDbLine
 10
1755.084892475397
 20
72.02566471645196
 30
0.000000000000000
 11
1758.761847737568
 21
75.70261997862212
 31
0.000000000000000
  0
LINE
  5
1E0
100
AcDbEntity
  8
A1
  6
CONTINUOUS
 62
7
100
AcDbLine
 10
1764.434892475397
 20
72.35261997861664
 30
0.000000000000000
 11
1764.434892475397
 21
79.05261997862101
 31
0.000000000000000
  0
LINE
  5
1E1
100
AcDbEntity
  8
A1
  6
CONTINUOUS
 62
7
100
AcDbLine
 10
1771.134892475398
 20
72.35261997862028
 30
0.000000000000000
 11
1771.134892475398
 21
79.05261997862101
 31
0.000000000000000
  0
LINE
  5
1E2
100
AcDbEntity
  8
A1
  6
CONTINUOUS
 62
7
100
AcDbLine
 10
1764.434892475396
 20
72.35261997861714
 30
0.000000000000000
 11
1771.134892475397
 21
72.35261997861805
 31
0.000000000000000
  0
LINE
  5
1E3
100
AcDbEntity
  8
A1
  6
CONTINUOUS
 62
7
100
AcDbLine
 10
1764.434892475397
 20
79.05261997862101
 30
0.000000000000000
 11
1771.134892475398
 21
79.05261997862101
 31
0.000000000000000
  0
LINE
  5
1E4
100
AcDbEntity
  8
A2
  6
CENTER
 62
1
100
AcDbLine
 10
1729.684892475399
 20
85.80261997862101
 30
0.000000000000000
 11
1729.684892475399
 21
65.60261997862028
 31
0.000000000000000
  0
LINE
  5
1E5
100
AcDbEntity
  8
A2
  6
CENTER
 62
1
100
AcDbLine
 10
1742.384892475398
 20
86.50261997861810
 30
0.000000000000000
 11
1742.384892475398
 21
64.90261997861955
 31
0.000000000000000
  0
LINE
  5
1E6
100
AcDbEntity
  8
A2
  6
CENTER
 62
1
100
AcDbLine
 10
1755.084892475397
 20
64.52566471644889
 30
0.000000000000000
 11
1755.084892475397
 21
86.87957524078877
 31
0.000000000000000
  0
LINE
  5
1E7
100
AcDbEntity
  8
A2
  6
CENTER
 62
1
100
AcDbLine
 10
1767.784892475398
 20
64.85261997862028
 30
0.000000000000000
 11
1767.784892475398
 21
86.55261997862101
 31
0.000000000000000
  0
LINE
  5
1E8
100
AcDbEntity
  8
A1
  6
CONTINUOUS
 62
7
100
AcDbLine
 10
1520.084892475269
 20
72.02566471644400
 30
0.000000000000000
 11
1516.407937213099
 21
75.70261997861451
 31
0.000000000000000
  0
LINE
  5
1E9
100
AcDbEntity
  8
A1
  6
CONTINUOUS
 62
7
100
AcDbLine
 10
1523.761847737439
 20
75.70261997861314
 30
0.000000000000000
 11
1520.084892475268
 21
79.37957524078388
 31
0.000000000000000
  0
LINE
  5
1EA
100
AcDbEntity
  8
A1
  6
CONTINUOUS
 62
7
100
AcDbLine
 10
1516.407937213099
 20
75.70261997861462
 30
0.000000000000000
 11
1520.084892475268
 21
79.37957524078388
 31
0.000000000000000
  0
LINE
  5
1EB
100
AcDbEntity
  8
A1
  6
CONTINUOUS
 62
7
100
AcDbLine
 10
1520.084892475269
 20
72.02566471644980
 30
0.000000000000000
 11
1523.761847737438
 21
75.70261997861735
 31
0.000000000000000
  0
LINE
  5
1EC
100
AcDbEntity
  8
A1
  6
CONTINUOUS
 62
7
100
AcDbLine
 10
1529.434892475268
 20
72.35261997862028
 30
0.000000000000000
 11
1529.434892475268
 21
79.05261997861737
 31
0.000000000000000
  0
LINE
  5
1ED
100
AcDbEntity
  8
A1
  6
CONTINUOUS
 62
7
100
AcDbLine
 10
1536.134892475269
 20
72.35261997862028
 30
0.000000000000000
 11
1536.134892475269
 21
79.05261997861737
 31
0.000000000000000
  0
LINE
  5
1EE
100
AcDbEntity
  8
A1
  6
CONTINUOUS
 62
7
100
AcDbLine
 10
1529.434892475268
 20
72.35261997861920
 30
0.000000000000000
 11
1536.134892475269
 21
72.35261997862011
 31
0.000000000000000
  0
LINE
  5
1EF
100
AcDbEntity
  8
A1
  6
CONTINUOUS
 62
7
100
AcDbLine
 10
1529.434892475268
 20
79.05261997861737
 30
0.000000000000000
 11
1536.134892475269
 21
79.05261997861737
 31
0.000000000000000
  0
LINE
  5
1F0
100
AcDbEntity
  8
A2
  6
CENTER
 62
1
100
AcDbLine
 10
1494.684892475272
 20
87.30261997861737
 30
0.000000000000000
 11
1494.684892475272
 21
64.10261997862028
 31
0.000000000000000
  0
LINE
  5
1F1
100
AcDbEntity
  8
A2
  6
CENTER
 62
1
100
AcDbLine
 10
1507.384892475269
 20
88.00261997861810
 30
0.000000000000000
 11
1507.384892475269
 21
63.40261997861592
 31
0.000000000000000
  0
LINE
  5
1F2
100
AcDbEntity
  8
A2
  6
CENTER
 62
1
100
AcDbLine
 10
1520.084892475270
 20
63.02566471644889
 30
0.000000000000000
 11
1520.084892475270
 21
88.37957524078877
 31
0.000000000000000
  0
LINE
  5
1F3
100
AcDbEntity
  8
A2
  6
CENTER
 62
1
100
AcDbLine
 10
1532.784892475271
 20
63.35261997862028
 30
0.000000000000000
 11
1532.784892475271
 21
88.05261997861737
 31
0.000000000000000
  0
CIRCLE
  5
1F4
100
AcDbEntity
  8
A3
  6
DASHED
 62
2
100
AcDbCircle
 10
1494.684892475272
 20
75.70261997861883
 30
0.000000000000000
 40
2.600000000000000
  0
ARC
  5
1F5
100
AcDbEntity
  8
A3
  6
DASHED
 62
2
100
AcDbCircle
 10
1507.384892475269
 20
75.70261997861883
 30
0.000000000000000
 40
3.299999999999999
100
AcDbArc
 50
95.21590856817387
 51
264.7840914318261
  0
ARC
  5
1F6
100
AcDbEntity
  8
A1
  6
CONTINUOUS
 62
7
100
AcDbCircle
 10
1507.384892475269
 20
75.70261997861883
 30
0.000000000000000
 40
3.299999999999999
100
AcDbArc
 50
264.7840914318261
 51
455.2159085681739
  0
LINE
  5
1F7
100
AcDbEntity
  8
A1
  6
CONTINUOUS
 62
7
100
AcDbLine
 10
1023.084892475413
 20
56.90261997862111
 30
0.000000000000000
 11
1023.084892475413
 21
94.50261997861966
 31
0.000000000000000
  0
LINE
  5
1F8
100
AcDbEntity
  8
A1
  6
CONTINUOUS
 62
7
100
AcDbLine
 10
550.3848924753637
 20
102.1526199786196
 30
0.000000000000000
 11
550.3848924753653
 21
94.50261997861999
 31
0.000000000000000
  0
LINE
  5
1F9
100
AcDbEntity
  8
A1
  6
CONTINUOUS
 62
7
100
AcDbLine
 10
550.3848924758403
 20
56.90261997861951
 30
0.000000000000000
 11
550.3848924759369
 21
49.25261997847640
 31
0.000000000000000
  0
SPLINE
  5
1FA
100
AcDbEntity
  8
A1
  6
CONTINUOUS
 62
7
100
AcDbSpline
210
0.000000000000000
220
0.000000000000000
230
1.000000000000000
 70
     8
 71
     3
 72
    12
 73
     8
 74
     0
 42
1.000000000000000e-07
 43
1.000000000000000e-07
 12
-0.8305197130976012
 22
0.5569892334387987
 32
0.000000000000000
 13
-0.9922250698145945
 23
0.1244564616799835
 33
0.000000000000000
 40
0.000000000000000
 40
0.000000000000000
 40
0.000000000000000
 40
0.000000000000000
 40
0.1476387386511086
 40
0.2822857224892344
 40
0.4255565306640163
 40
0.5380608954055829
 40
0.6041930190011695
 40
0.6041930190011695
 40
0.6041930190011695
 40
0.6041930190011695
 10
1988.070679475397
 20
175.1939619652249
 30
0.000000000000000
 10
1988.029807181108
 20
175.2213730278473
 30
0.000000000000000
 10
1987.951068172775
 20
175.2728496755222
 30
0.000000000000000
 10
1987.831437962882
 20
175.3493011244960
 30
0.000000000000000
 10
1987.718842190290
 20
175.4139678356351
 30
0.000000000000000
 10
1987.622624939343
 20
175.4636286962883
 30
0.000000000000000
 10
1987.563679168222
 20
175.4750668334915
 30
0.000000000000000
 10
1987.541806517905
 20
175.4778103568602
 30
0.000000000000000
  0
ARC
  5
1FB
100
AcDbEntity
  8
A1
  6
CONTINUOUS
 62
7
100
AcDbCircle
 10
1987.484892475398
 20
172.9778103568602
 30
0.000000000000000
 40
2.500000000000000
100
AcDbArc
 50
0.000000000000000
 51
36.86992168960015
  0
ARC
  5
1FC
100
AcDbEntity
  8
A1
  6
CONTINUOUS
 62
7
100
AcDbCircle
 10
1987.484892475397
 20
172.9778103568575
 30
0.000000000000000
 40
2.500000000002653
100
AcDbArc
 50
36.86992168963348
 51
88.73278272351938
  0
ARC
  5
1FD
100
AcDbEntity
  8
A1
  6
CONTINUOUS
 62
7
100
AcDbCircle
 10
1987.130193100097
 20
173.7778103568599
 30
0.000000000000000
 40
1.699999999999980
100
AcDbArc
 50
45.00000000003521
 51
56.41129919730332
  0
ARC
  5
1FE
100
AcDbEntity
  8
A1
  6
CONTINUOUS
 62
7
100
AcDbCircle
 10
1987.984888753240
 20
172.4988453710817
 30
0.000000000000000
 40
2.000003722157540
100
AcDbArc
 50
0.000000000000000
 51
44.99993810155558
  0
LINE
  5
1FF
100
AcDbEntity
  8
A1
  6
CONTINUOUS
 62
7
100
AcDbLine
 10
1987.484892475398
 20
154.9778103568601
 30
0.000000000000000
 11
1987.484892475398
 21
159.9778103568601
 31
0.000000000000000
  0
LINE
  5
200
100
AcDbEntity
  8
A1
  6
CONTINUOUS
 62
7
100
AcDbLine
 10
1989.984892475398
 20
159.9778103568601
 30
0.000000000000000
 11
1989.984892475398
 21
154.9778103568601
 31
0.000000000000000
  0
LINE
  5
201
100
AcDbEntity
  8
A1
  6
CONTINUOUS
 62
7
100
AcDbLine
 10
1989.984892475398
 20
154.9778103568601
 30
0.000000000000000
 11
1987.484892475398
 21
154.9778103568601
 31
0.000000000000000
  0
LINE
  5
202
100
AcDbEntity
  8
A1
  6
CONTINUOUS
 62
7
100
AcDbLine
 10
1987.484892475398
 20
159.9778103568601
 30
0.000000000000000
 11
1987.484892475398
 21
160.7778103568562
 31
0.000000000000000
  0
LINE
  5
203
100
AcDbEntity
  8
A1
  6
CONTINUOUS
 62
7
100
AcDbLine
 10
1989.984892475398
 20
172.4988463710856
 30
0.000000000000000
 11
1989.984892475398
 21
172.9778103568601
 31
0.000000000000000
  0
LINE
  5
204
100
AcDbEntity
  8
A1
  6
CONTINUOUS
 62
7
100
AcDbLine
 10
1989.984892475398
 20
159.9778103568601
 30
0.000000000000000
 11
1989.984892475398
 21
160.7778103568562
 31
0.000000000000000
  0
LINE
  5
205
100
AcDbEntity
  8
A1
  6
CONTINUOUS
 62
7
100
AcDbLine
 10
1987.484892475398
 20
159.9778103568601
 30
0.000000000000000
 11
1989.984892475398
 21
159.9778103568601
 31
0.000000000000000
  0
LINE
  5
206
100
AcDbEntity
  8
A1
  6
CONTINUOUS
 62
7
100
AcDbLine
 10
1989.484891845934
 20
173.8217231472017
 30
0.000000000000000
 11
1989.484891845934
 21
174.4778111961454
 31
0.000000000000000
  0
LINE
  5
207
100
AcDbEntity
  8
A1
  6
CONTINUOUS
 62
7
100
AcDbLine
 10
1024.784892475398
 20
174.9798918848774
 30
0.000000000000000
 11
1024.784892475398
 21
175.4778103568601
 31
0.000000000000000
  0
LINE
  5
208
100
AcDbEntity
  8
A1
  6
CONTINUOUS
 62
7
100
AcDbLine
 10
1987.541806517905
 20
175.4778103568601
 30
0.000000000000000
 11
1024.784892475398
 21
175.4778103568601
 31
0.000000000000000
  0
LINE
  5
209
100
AcDbEntity
  8
A1
  6
CONTINUOUS
 62
7
100
AcDbLine
 10
1024.784892475398
 20
170.6492556972271
 30
0.000000000000000
 11
1024.784892475398
 21
174.9798918848774
 31
0.000000000000000
  0
LINE
  5
20A
100
AcDbEntity
  8
A1
  6
CONTINUOUS
 62
7
100
AcDbLine
 10
1989.984892475398
 20
170.6492556972271
 30
0.000000000000000
 11
1989.984892475398
 21
172.4988453710816
 31
0.000000000000000
  0
LINE
  5
20B
100
AcDbEntity
  8
A1
  6
CONTINUOUS
 62
7
100
AcDbLine
 10
1989.399106475398
 20
173.9130600375927
 30
0.000000000000000
 11
1988.332274628114
 21
174.9798918848767
 31
0.000000000000000
  0
LINE
  5
20C
100
AcDbEntity
  8
A1
  6
CONTINUOUS
 62
7
100
AcDbLine
 10
1988.332274628113
 20
174.9798918848775
 30
0.000000000000000
 11
1024.784892475398
 21
174.9798918848775
 31
0.000000000000000
  0
LINE
  5
20D
100
AcDbEntity
  8
A1
  6
CONTINUOUS
 62
7
100
AcDbLine
 10
1024.784892475398
 20
160.7778103568562
 30
0.000000000000000
 11
1024.784892475398
 21
170.6492556972271
 31
0.000000000000000
  0
LINE
  5
20E
100
AcDbEntity
  8
A1
  6
CONTINUOUS
 62
7
100
AcDbLine
 10
1989.984892475398
 20
160.7778103568568
 30
0.000000000000000
 11
1024.784892475398
 21
160.7778103568568
 31
0.000000000000000
  0
LINE
  5
20F
100
AcDbEntity
  8
A1
  6
CONTINUOUS
 62
7
100
AcDbLine
 10
1989.984892475398
 20
160.7778103568562
 30
0.000000000000000
 11
1989.984892475398
 21
170.6492556972271
 31
0.000000000000000
  0
LINE
  5
210
100
AcDbEntity
  8
A1
  6
CONTINUOUS
 62
7
100
AcDbLine
 10
1989.984892475398
 20
170.6492556972277
 30
0.000000000000000
 11
1024.784892475398
 21
170.6492556972277
 31
0.000000000000000
  0
SPLINE
  5
211
100
AcDbEntity
  8
A1
  6
CONTINUOUS
 62
7
100
AcDbSpline
210
0.000000000000000
220
0.000000000000000
230
1.000000000000000
 70
     8
 71
     3
 72
    17
 73
    13
 74
     0
 42
1.000000000000000e-07
 43
1.000000000000000e-07
 12
-0.007049927387015487
 22
-0.9999751489515347
 32
0.000000000000000
 13
0.9999995238313204
 23
0.0009758660585248435
 33
0.000000000000000
 40
0.000000000000000
 40
0.000000000000000
 40
0.000000000000000
 40
0.000000000000000
 40
0.2816393116382642
 40
0.5634931201143014
 40
0.8349480651393026
 40
1.117917651600770
 40
1.392672024345166
 40
1.687069308203279
 40
1.989579451103306
 40
2.312133100972365
 40
2.570875769953646
 40
2.836914172936874
 40
2.836914172936874
 40
2.836914172936874
 40
2.836914172936874
 10
550.3848924754113
 20
157.8464363425620
 30
0.000000000000000
 10
550.3842306298459
 20
157.7525589050266
 30
0.000000000000000
 10
550.4007205675091
 20
157.5642090933898
 30
0.000000000000000
 10
550.4764341162074
 20
157.2945022607174
 30
0.000000000000000
 10
550.6075269572814
 20
157.0460939119872
 30
0.000000000000000
 10
550.7866807948351
 20
156.8329077280287
 30
0.000000000000000
 10
551.0095584784960
 20
156.6543939344511
 30
0.000000000000000
 10
551.2650558671069
 20
156.5133923634877
 30
0.000000000000000
 10
551.5530913631758
 20
156.4060135455339
 30
0.000000000000000
 10
551.8407240832469
 20
156.3389003847111
 30
0.000000000000000
 10
552.1211858397776
 20
156.3030313937907
 30
0.000000000000000
 10
552.2962130499766
 20
156.2955377066361
 30
0.000000000000000
 10
552.3848924754113
 20
156.2956242459187
 30
0.000000000000000
  0
LINE
  5
212
100
AcDbEntity
  8
A1
  6
CONTINUOUS
 62
7
100
AcDbLine
 10
550.3848924754114
 20
168.8767818018624
 30
0.000000000000000
 11
550.3848924754114
 21
171.1778103568536
 31
0.000000000000000
  0
LINE
  5
213
100
AcDbEntity
  8
A1
  6
CONTINUOUS
 62
7
100
AcDbLine
 10
1024.784892475398
 20
171.1778103568534
 30
0.000000000000000
 11
550.3848924754120
 21
171.1778103568534
 31
0.000000000000000
  0
LINE
  5
214
100
AcDbEntity
  8
A1
  6
CONTINUOUS
 62
7
100
AcDbLine
 10
550.3848924754114
 20
168.8767818018624
 30
0.000000000000000
 11
550.3848924754114
 21
162.9656262400563
 31
0.000000000000000
  0
LINE
  5
215
100
AcDbEntity
  8
A1
  6
CONTINUOUS
 62
7
100
AcDbLine
 10
1024.784892475398
 20
168.8767818018624
 30
0.000000000000000
 11
550.3848924754113
 21
168.8767818018624
 31
0.000000000000000
  0
LINE
  5
216
100
AcDbEntity
  8
A1
  6
CONTINUOUS
 62
7
100
AcDbLine
 10
550.3848924754114
 20
157.8464363425615
 30
0.000000000000000
 11
550.3848924754114
 21
162.9656262400563
 31
0.000000000000000
  0
LINE
  5
217
100
AcDbEntity
  8
A1
  6
CONTINUOUS
 62
7
100
AcDbLine
 10
1504.184892475411
 20
156.2956242459181
 30
0.000000000000000
 11
552.3848924754114
 21
156.2956242459182
 31
0.000000000000000
  0
LINE
  5
218
100
AcDbEntity
  8
A1
  6
CONTINUOUS
 62
7
100
AcDbLine
 10
1504.084892475398
 20
156.2956242459181
 30
0.000000000000000
 11
1504.084892475398
 21
160.7778103568576
 31
0.000000000000000
  0
LINE
  5
219
100
AcDbEntity
  8
A1
  6
CONTINUOUS
 62
7
100
AcDbLine
 10
1024.784892475398
 20
162.9656262400564
 30
0.000000000000000
 11
550.3848924754113
 21
162.9656262400564
 31
0.000000000000000
  0
LINE
  5
21A
100
AcDbEntity
  8
A1
  6
CONTINUOUS
 62
7
100
AcDbLine
 10
1507.084892475401
 20
159.4778103568601
 30
0.000000000000000
 11
1504.084892475399
 21
159.4778103568601
 31
0.000000000000000
  0
LINE
  5
21B
100
AcDbEntity
  8
A1
  6
CONTINUOUS
 62
7
100
AcDbLine
 10
1507.084892475401
 20
160.7778103568576
 30
0.000000000000000
 11
1507.084892475401
 21
159.4778103568601
 31
0.000000000000000
  0
LINE
  5
21C
100
AcDbEntity
  8
A1
  6
CONTINUOUS
 62
7
100
AcDbLine
 10
1022.984892475398
 20
155.6778103568600
 30
0.000000000000000
 11
1022.984892475398
 21
156.2956242459182
 31
0.000000000000000
  0
LINE
  5
21D
100
AcDbEntity
  8
A1
  6
CONTINUOUS
 62
7
100
AcDbLine
 10
65.78489247541198
 20
155.6778103568600
 30
0.000000000000000
 11
65.78489247541198
 21
158.6045348717908
 31
0.000000000000000
  0
LINE
  5
21E
100
AcDbEntity
  8
A1
  6
CONTINUOUS
 62
7
100
AcDbLine
 10
1023.084892475412
 20
155.6778103568605
 30
0.000000000000000
 11
65.78489247541181
 21
155.6778103568605
 31
0.000000000000000
  0
LINE
  5
21F
100
AcDbEntity
  8
A1
  6
CONTINUOUS
 62
7
100
AcDbLine
 10
65.78489247541198
 20
163.4585919890602
 30
0.000000000000000
 11
65.78489247541198
 21
165.0778103568601
 31
0.000000000000000
  0
LINE
  5
220
100
AcDbEntity
  8
A1
  6
CONTINUOUS
 62
7
100
AcDbLine
 10
550.3848924754120
 20
165.0778103568602
 30
0.000000000000000
 11
65.78489247541187
 21
165.0778103568601
 31
0.000000000000000
  0
LINE
  5
221
100
AcDbEntity
  8
A1
  6
CONTINUOUS
 62
7
100
AcDbLine
 10
65.78489247541198
 20
163.3433309439125
 30
0.000000000000000
 11
65.78489247541198
 21
163.4585919890602
 31
0.000000000000000
  0
LINE
  5
222
100
AcDbEntity
  8
A1
  6
CONTINUOUS
 62
7
100
AcDbLine
 10
550.3848924754114
 20
163.4585919890602
 30
0.000000000000000
 11
65.78489247541198
 21
163.4585919890602
 31
0.000000000000000
  0
LINE
  5
223
100
AcDbEntity
  8
A1
  6
CONTINUOUS
 62
7
100
AcDbLine
 10
65.78489247541198
 20
163.3433309439125
 30
0.000000000000000
 11
65.78489247541198
 21
158.6045348717908
 31
0.000000000000000
  0
LINE
  5
224
100
AcDbEntity
  8
A1
  6
CONTINUOUS
 62
7
100
AcDbLine
 10
550.3848924754114
 20
158.6045348717908
 30
0.000000000000000
 11
65.78489247541198
 21
158.6045348717908
 31
0.000000000000000
  0
LINE
  5
225
100
AcDbEntity
  8
A1
  6
CONTINUOUS
 62
7
100
AcDbLine
 10
550.3848924754114
 20
163.3433309439125
 30
0.000000000000000
 11
65.78489247541198
 21
163.3433309439125
 31
0.000000000000000
  0
ENDSEC
  0
SECTION
  2
OBJECTS
  0
DICTIONARY
  5
255
100
AcDbDictionary
  3
ACAD_GROUP
350
256
  3
ACAD_MLINESTYLE
350
257
  0
DICTIONARY
  5
256
102
{ACAD_REACTORS
330
255
102
}
100
AcDbDictionary
  0
DICTIONARY
  5
257
102
{ACAD_REACTORS
330
255
102
}
100
AcDbDictionary
  3
STANDARD
350
258
  0
MLINESTYLE
  5
258
102
{ACAD_REACTORS
330
257
102
}
100
AcDbMlineStyle
  2
STANDARD
 70
     0
  3

 62
   256
 51
90.00
 52
90.00
 71
     2
 49
0.50
 62
   256
  6
BYLAYER
 49
-0.50
 62
   256
  6
BYLAYER
  0
ENDSEC
  0
EOF
