  0
SECTION
  2
HEADER
  9
$ACADVER
  1
AC1015
  9
$DWGCODEPAGE
  3
ANSI_932
  9
$LTSCALE
 40
20.0
  9
$FILLMODE
 70
     1
  9
$CLAYER
  8
0
  9
$PDMODE
 70
     0
  9
$SPLFRAME
 70
     0
  9
$SPLINETYPE
 70
     6
  9
$SPLINESEGS
 70
     8
  9
$DIMASZ
 40
2.000000
  9
$DIMEXE
 40
1.500000
  9
$DIMEXO
 40
0.800000
  9
$DIMTAD
 70
     1
  9
$DIMTIH
 70
     0
  9
$DIMTOH
 70
     0
  9
$DIMTVP
 40
0.500000
  9
$DIMTXT
 40
3.100000
  9
$EXTMIN
 10
0.000000
 20
0.000000
 30
0.000000
  9
$EXTMAX
 10
420.000000
 20
594.000000
 30
0.000000
  9
$MEASUREMENT
 70
  1
  9
$LIMMIN
 10
0.000000
 20
0.000000
  9
$LIMMAX
 10
420.000000
 20
594.000000
  9
$HANDSEED
  5
189
  9
$LWDISPLAY
290
     0
  9
$DIMBLK
  1
_OPEN
  9
$DIMDEC
 70
     2
  9
$DIMADEC
 70
     2
  9
$DIMAUNIT
 70
     0
  9
$DIMZIN
 70
     8
  9
$DIMAZIN
 70
     2
  9
$DIMTOFL
 70
     1
  0
ENDSEC
  0
SECTION
  2
CLASSES
  0
ENDSEC
  0
SECTION
  2
TABLES
  0
TABLE
  2
VPORT
  5
153
100
AcDbSymbolTable
 70
     1
  0
VPORT
  5
154
100
AcDbSymbolTableRecord
100
AcDbViewportTableRecord
  2
*ACTIVE
 70
     0
 12
595.672058
 22
133.179673
 40
230.359345
 41
5.084856
  0
ENDTAB
  0
TABLE
  2
LTYPE
  5
155
100
AcDbSymbolTable
 70
     3
  0
LTYPE
  5
156
100
AcDbSymbolTableRecord
100
AcDbLinetypeTableRecord
  2
BYBLOCK
 70
     0
  3

 72
    65
 73
     0
 40
0.0
  0
LTYPE
  5
157
100
AcDbSymbolTableRecord
100
AcDbLinetypeTableRecord
  2
BYLAYER
 70
     0
  3

 72
    65
 73
     0
 40
0.0
  0
LTYPE
  5
158
100
AcDbSymbolTableRecord
100
AcDbLinetypeTableRecord
  2
CONTINUOUS
 70
     0
  3
Solid line (NEC CAE2D for Win R18.0 : 2025.05.16)
 72
    65
 73
     0
 40
0.0
  0
LTYPE
  5
159
100
AcDbSymbolTableRecord
100
AcDbLinetypeTableRecord
  2
DASHED
 70
     0
  3
__ __ __ __ __ __ __ __ __ __ __ __ __ _
 72
    65
 73
     2
 40
0.75
 49
0.5
 74
     0
 49
-0.25
 74
     0
  0
LTYPE
  5
15A
100
AcDbSymbolTableRecord
100
AcDbLinetypeTableRecord
  2
CENTER
 70
     0
  3
____ _ ____ _ ____ _ ____ _ ____ _ ____
 72
    65
 73
     4
 40
2.0
 49
1.25
 74
     0
 49
-0.25
 74
     0
 49
0.25
 74
     0
 49
-0.25
 74
     0
  0
ENDTAB
  0
TABLE
  2
LAYER
  5
15B
100
AcDbSymbolTable
 70
    15
  0
LAYER
  5
15C
100
AcDbSymbolTableRecord
100
AcDbLayerTableRecord
  2
0
 70
     0
 62
     7
  6
CONTINUOUS
370
    -3
390

  0
LAYER
  5
15D
100
AcDbSymbolTableRecord
100
AcDbLayerTableRecord
  2
A0
 70
     0
 62
     9
  6
CONTINUOUS
370
    -3
390

  0
LAYER
  5
15E
100
AcDbSymbolTableRecord
100
AcDbLayerTableRecord
  2
A1
 70
     0
 62
     1
  6
CONTINUOUS
370
    -3
390

  0
LAYER
  5
15F
100
AcDbSymbolTableRecord
100
AcDbLayerTableRecord
  2
A3
 70
     0
 62
    12
  6
CONTINUOUS
370
    -3
390

  0
LAYER
  5
160
100
AcDbSymbolTableRecord
100
AcDbLayerTableRecord
  2
A4
 70
     0
 62
     9
  6
CONTINUOUS
370
    -3
390

  0
LAYER
  5
161
100
AcDbSymbolTableRecord
100
AcDbLayerTableRecord
  2
A5
 70
     0
 62
     8
  6
CONTINUOUS
370
    -3
390

  0
LAYER
  5
162
100
AcDbSymbolTableRecord
100
AcDbLayerTableRecord
  2
A6
 70
     0
 62
    12
  6
CONTINUOUS
370
    -3
390

  0
LAYER
  5
163
100
AcDbSymbolTableRecord
100
AcDbLayerTableRecord
  2
A8
 70
     0
 62
    10
  6
CONTINUOUS
370
    -3
390

  0
LAYER
  5
164
100
AcDbSymbolTableRecord
100
AcDbLayerTableRecord
  2
A9
 70
     0
 62
     9
  6
CONTINUOUS
370
    -3
390

  0
LAYER
  5
165
100
AcDbSymbolTableRecord
100
AcDbLayerTableRecord
  2
A10
 70
     0
 62
     6
  6
CONTINUOUS
370
    -3
390

  0
LAYER
  5
166
100
AcDbSymbolTableRecord
100
AcDbLayerTableRecord
  2
A20
 70
     0
 62
     1
  6
CONTINUOUS
370
    -3
390

  0
LAYER
  5
167
100
AcDbSymbolTableRecord
100
AcDbLayerTableRecord
  2
A30
 70
     0
 62
     1
  6
CONTINUOUS
370
    -3
390

  0
LAYER
  5
168
100
AcDbSymbolTableRecord
100
AcDbLayerTableRecord
  2
A40
 70
     0
 62
     9
  6
CONTINUOUS
370
    -3
390

  0
LAYER
  5
169
100
AcDbSymbolTableRecord
100
AcDbLayerTableRecord
  2
A50
 70
     0
 62
    12
  6
CONTINUOUS
370
    -3
390

  0
LAYER
  5
16A
100
AcDbSymbolTableRecord
100
AcDbLayerTableRecord
  2
A1023
 70
     0
 62
    16
  6
CONTINUOUS
370
    -3
390

  0
ENDTAB
  0
TABLE
  2
STYLE
  5
16B
100
AcDbSymbolTable
 70
     4
  0
STYLE
  5
16C
100
AcDbSymbolTableRecord
100
AcDbTextStyleTableRecord
  2
STANDARD
 70
    64
 40
0.0
 41
1.0
 50
0.0
 71
     0
 42
3.000000000000000
  3
TXT
  4

  0
STYLE
  5
16D
100
AcDbSymbolTableRecord
100
AcDbTextStyleTableRecord
  2
ANKTATE
 70
    68
 40
0.0
 41
1.0
 50
0.0
 71
     0
 42
3.000000000000000
  3
TXT
  4

  0
STYLE
  5
16E
100
AcDbSymbolTableRecord
100
AcDbTextStyleTableRecord
  2
KNJYOKO
 70
    64
 40
0.0
 41
1.0
 50
0.0
 71
     0
 42
3.000000000000000
  3
TXT
  4
BIGFONT
  0
STYLE
  5
16F
100
AcDbSymbolTableRecord
100
AcDbTextStyleTableRecord
  2
KNJTATE
 70
    68
 40
0.0
 41
1.0
 50
0.0
 71
     0
 42
3.000000000000000
  3
TXT
  4
BIGFONT
  0
ENDTAB
  0
TABLE
  2
VIEW
  5
170
100
AcDbSymbolTable
 70
     0
  0
ENDTAB
  0
TABLE
  2
UCS
  5
171
100
AcDbSymbolTable
 70
     0
  0
ENDTAB
  0
TABLE
  2
APPID
  5
172
100
AcDbSymbolTable
 70
     1
  0
APPID
  5
173
100
AcDbSymbolTableRecord
100
AcDbRegAppTableRecord
  2
ACAD
 70
     0
  0
ENDTAB
  0
TABLE
  2
DIMSTYLE
  5
174
100
AcDbSymbolTable
 70
     2
100
AcDbDimStyleTable
  0
DIMSTYLE
105
175
100
AcDbSymbolTableRecord
100
AcDbDimStyleTableRecord
  2
STANDARD
 70
     0
 41
2.000000
 44
1.500000
 42
0.800000
145
0.661290
140
3.100000
144
1.000000
146
0.645161
340
16C
  0
DIMSTYLE
105
176
100
AcDbSymbolTableRecord
100
AcDbDimStyleTableRecord
  2
A001
 70
     0
 41
2.000000
 44
1.500000
 42
0.800000
145
0.661290
140
3.100000
144
1.000000
146
0.645161
 77
     1
 73
     0
 74
     0
271
     2
179
     2
275
     0
 78
     8
 79
     2
172
     1
340
16C
  0
ENDTAB
  0
TABLE
  2
BLOCK_RECORD
  5
177
100
AcDbSymbolTable
 70
    12
  0
BLOCK_RECORD
  5
178
100
AcDbSymbolTableRecord
100
AcDbBlockTableRecord
  2
*MODEL_SPACE
  0
BLOCK_RECORD
  5
179
100
AcDbSymbolTableRecord
100
AcDbBlockTableRecord
  2
*PAPER_SPACE
  0
BLOCK_RECORD
  5
17A
100
AcDbSymbolTableRecord
100
AcDbBlockTableRecord
  2
*PAPER_SPACE0
  0
BLOCK_RECORD
  5
1
100
AcDbSymbolTableRecord
100
AcDbBlockTableRecord
  2
_NONE
  0
BLOCK_RECORD
  5
4
100
AcDbSymbolTableRecord
100
AcDbBlockTableRecord
  2
_CLOSED
  0
BLOCK_RECORD
  5
B
100
AcDbSymbolTableRecord
100
AcDbBlockTableRecord
  2
_DOT
  0
BLOCK_RECORD
  5
13
100
AcDbSymbolTableRecord
100
AcDbBlockTableRecord
  2
_OPEN
  0
BLOCK_RECORD
  5
19
100
AcDbSymbolTableRecord
100
AcDbBlockTableRecord
  2
_ORIGIN
  0
BLOCK_RECORD
  5
1E
100
AcDbSymbolTableRecord
100
AcDbBlockTableRecord
  2
_OPEN30
  0
BLOCK_RECORD
  5
24
100
AcDbSymbolTableRecord
100
AcDbBlockTableRecord
  2
_BOXFILLED
  0
BLOCK_RECORD
  5
29
100
AcDbSymbolTableRecord
100
AcDbBlockTableRecord
  2
_BOXBLANK
  0
BLOCK_RECORD
  5
31
100
AcDbSymbolTableRecord
100
AcDbBlockTableRecord
  2
_OBLIQUE
  0
BLOCK_RECORD
  5
35
100
AcDbSymbolTableRecord
100
AcDbBlockTableRecord
  2
_OPEN90
  0
BLOCK_RECORD
  5
3B
100
AcDbSymbolTableRecord
100
AcDbBlockTableRecord
  2
_CLOSEDBLANK
  0
BLOCK_RECORD
  5
41
100
AcDbSymbolTableRecord
100
AcDbBlockTableRecord
  2
_DOTBLANK
  0
ENDTAB
  0
ENDSEC
  0
SECTION
  2
BLOCKS
  0
BLOCK
  5
17B
100
AcDbEntity
  8
0
100
AcDbBlockBegin
  2
*MODEL_SPACE
 70
     0
 10
0.0
 20
0.0
 30
0.0
  3
*MODEL_SPACE
  1

  0
ENDBLK
  5
17C
100
AcDbEntity
  8
0
100
AcDbBlockEnd
  0
BLOCK
  5
17D
100
AcDbEntity
  8
0
100
AcDbBlockBegin
  2
*PAPER_SPACE
 70
     0
 10
0.0
 20
0.0
 30
0.0
  3
*PAPER_SPACE
  1

  0
ENDBLK
  5
17E
100
AcDbEntity
  8
0
100
AcDbBlockEnd
  0
BLOCK
  5
17F
100
AcDbEntity
  8
0
100
AcDbBlockBegin
  2
*PAPER_SPACE0
 70
     0
 10
0.0
 20
0.0
 30
0.0
  3
*PAPER_SPACE0
  1

  0
ENDBLK
  5
180
100
AcDbEntity
  8
0
100
AcDbBlockEnd
  0
BLOCK
  5
2
330
1
100
AcDbEntity
  8
0
100
AcDbBlockBegin
  2
_NONE
 70
     0
 10
0.0
 20
0.0
 30
0.0
  3
_NONE
  1

  0
ENDBLK
  5
3
330
1
100
AcDbEntity
  8
0
100
AcDbBlockEnd
  0
BLOCK
  5
5
330
4
100
AcDbEntity
  8
0
100
AcDbBlockBegin
  2
_CLOSED
 70
     0
 10
0.0
 20
0.0
 30
0.0
  3
_CLOSED
  1

  0
LINE
  5
6
330
4
100
AcDbEntity
  8
0
  6
BYBLOCK
 62
     0
370
    -2
100
AcDbLine
 10
-1.0
 20
0.166667
 30
0.0
 11
0.0
 21
0.0
 31
0.0
  0
LINE
  5
7
330
4
100
AcDbEntity
  8
0
  6
BYBLOCK
 62
     0
370
    -2
100
AcDbLine
 10
0.0
 20
0.0
 30
0.0
 11
-1.0
 21
-0.166667
 31
0.0
  0
LINE
  5
8
330
4
100
AcDbEntity
  8
0
  6
BYBLOCK
 62
     0
370
    -2
100
AcDbLine
 10
-1.0
 20
0.166667
 30
0.0
 11
-1.0
 21
-0.166667
 31
0.0
  0
LINE
  5
9
330
4
100
AcDbEntity
  8
0
  6
BYBLOCK
 62
     0
370
    -2
100
AcDbLine
 10
0.0
 20
0.0
 30
0.0
 11
-1.0
 21
0.0
 31
0.0
  0
ENDBLK
  5
A
330
4
100
AcDbEntity
  8
0
100
AcDbBlockEnd
  0
BLOCK
  5
C
330
B
100
AcDbEntity
  8
0
100
AcDbBlockBegin
  2
_DOT
 70
     0
 10
0.0
 20
0.0
 30
0.0
  3
_DOT
  1

  0
POLYLINE
  5
D
330
B
100
AcDbEntity
  8
0
  6
BYBLOCK
 62
     0
370
    -2
100
AcDb2dPolyline
 66
     1
 10
0.0
 20
0.0
 30
0.0
 70
     1
 40
0.5
 41
0.5
  0
VERTEX
  5
E
330
B
100
AcDbEntity
  8
0
  6
BYBLOCK
 62
     0
370
    -2
100
AcDbVertex
100
AcDb2dVertex
 10
-0.25
 20
0.0
 30
0.0
 42
1.0
  0
VERTEX
  5
F
330
B
100
AcDbEntity
  8
0
  6
BYBLOCK
 62
     0
370
    -2
100
AcDbVertex
100
AcDb2dVertex
 10
0.25
 20
0.0
 30
0.0
 42
1.0
  0
SEQEND
  5
10
330
B
100
AcDbEntity
  8
0
  6
BYBLOCK
 62
     0
370
    -2
  0
LINE
  5
11
330
B
100
AcDbEntity
  8
0
  6
BYBLOCK
 62
     0
370
    -2
100
AcDbLine
 10
-0.5
 20
0.0
 30
0.0
 11
-1.0
 21
0.0
 31
0.0
  0
ENDBLK
  5
12
330
B
100
AcDbEntity
  8
0
100
AcDbBlockEnd
  0
BLOCK
  5
14
330
13
100
AcDbEntity
  8
0
100
AcDbBlockBegin
  2
_OPEN
 70
     0
 10
0.0
 20
0.0
 30
0.0
  3
_OPEN
  1

  0
LINE
  5
15
330
13
100
AcDbEntity
  8
0
  6
BYBLOCK
 62
     0
370
    -2
100
AcDbLine
 10
-1.0
 20
0.166667
 30
0.0
 11
0.0
 21
0.0
 31
0.0
  0
LINE
  5
16
330
13
100
AcDbEntity
  8
0
  6
BYBLOCK
 62
     0
370
    -2
100
AcDbLine
 10
0.0
 20
0.0
 30
0.0
 11
-1.0
 21
-0.166667
 31
0.0
  0
LINE
  5
17
330
13
100
AcDbEntity
  8
0
  6
BYBLOCK
 62
     0
370
    -2
100
AcDbLine
 10
0.0
 20
0.0
 30
0.0
 11
-1.0
 21
0.0
 31
0.0
  0
ENDBLK
  5
18
330
13
100
AcDbEntity
  8
0
100
AcDbBlockEnd
  0
BLOCK
  5
1A
330
19
100
AcDbEntity
  8
0
100
AcDbBlockBegin
  2
_ORIGIN
 70
     0
 10
0.0
 20
0.0
 30
0.0
  3
_ORIGIN
  1

  0
CIRCLE
  5
1B
330
19
100
AcDbEntity
  8
0
  6
BYBLOCK
 62
     0
370
    -2
100
AcDbCircle
 10
0.0
 20
0.0
 30
0.0
 40
0.5
  0
LINE
  5
1C
330
19
100
AcDbEntity
  8
0
  6
BYBLOCK
 62
     0
370
    -2
100
AcDbLine
 10
0.0
 20
0.0
 30
0.0
 11
-1.0
 21
0.0
 31
0.0
  0
ENDBLK
  5
1D
330
19
100
AcDbEntity
  8
0
100
AcDbBlockEnd
  0
BLOCK
  5
1F
330
1E
100
AcDbEntity
  8
0
100
AcDbBlockBegin
  2
_OPEN30
 70
     0
 10
0.0
 20
0.0
 30
0.0
  3
_OPEN30
  1

  0
LINE
  5
20
330
1E
100
AcDbEntity
  8
0
  6
BYBLOCK
 62
     0
370
    -2
100
AcDbLine
 10
-1.0
 20
0.267949
 30
0.0
 11
0.0
 21
0.0
 31
0.0
  0
LINE
  5
21
330
1E
100
AcDbEntity
  8
0
  6
BYBLOCK
 62
     0
370
    -2
100
AcDbLine
 10
0.0
 20
0.0
 30
0.0
 11
-1.0
 21
-0.267949
 31
0.0
  0
LINE
  5
22
330
1E
100
AcDbEntity
  8
0
  6
BYBLOCK
 62
     0
370
    -2
100
AcDbLine
 10
0.0
 20
0.0
 30
0.0
 11
-1.0
 21
0.0
 31
0.0
  0
ENDBLK
  5
23
330
1E
100
AcDbEntity
  8
0
100
AcDbBlockEnd
  0
BLOCK
  5
25
330
24
100
AcDbEntity
  8
0
100
AcDbBlockBegin
  2
_BOXFILLED
 70
     0
 10
0.0
 20
0.0
 30
0.0
  3
_BOXFILLED
  1

  0
SOLID
  5
26
330
24
100
AcDbEntity
  8
0
  6
BYBLOCK
 62
     0
370
    -2
100
AcDbTrace
 10
-0.5
 20
0.5
 30
0.0
 11
0.5
 21
0.5
 31
0.0
 12
-0.5
 22
-0.5
 32
0.0
 13
0.5
 23
-0.5
 33
0.0
  0
LINE
  5
27
330
24
100
AcDbEntity
  8
0
  6
BYBLOCK
 62
     0
370
    -2
100
AcDbLine
 10
-0.5
 20
0.0
 30
0.0
 11
-1.0
 21
0.0
 31
0.0
  0
ENDBLK
  5
28
330
24
100
AcDbEntity
  8
0
100
AcDbBlockEnd
  0
BLOCK
  5
2A
330
29
100
AcDbEntity
  8
0
100
AcDbBlockBegin
  2
_BOXBLANK
 70
     0
 10
0.0
 20
0.0
 30
0.0
  3
_BOXBLANK
  1

  0
LINE
  5
2B
330
29
100
AcDbEntity
  8
0
  6
BYBLOCK
 62
     0
370
    -2
100
AcDbLine
 10
-0.5
 20
-0.5
 30
0.0
 11
0.5
 21
-0.5
 31
0.0
  0
LINE
  5
2C
330
29
100
AcDbEntity
  8
0
  6
BYBLOCK
 62
     0
370
    -2
100
AcDbLine
 10
0.5
 20
-0.5
 30
0.0
 11
0.5
 21
0.5
 31
0.0
  0
LINE
  5
2D
330
29
100
AcDbEntity
  8
0
  6
BYBLOCK
 62
     0
370
    -2
100
AcDbLine
 10
0.5
 20
0.5
 30
0.0
 11
-0.5
 21
0.5
 31
0.0
  0
LINE
  5
2E
330
29
100
AcDbEntity
  8
0
  6
BYBLOCK
 62
     0
370
    -2
100
AcDbLine
 10
-0.5
 20
0.5
 30
0.0
 11
-0.5
 21
-0.5
 31
0.0
  0
LINE
  5
2F
330
29
100
AcDbEntity
  8
0
  6
BYBLOCK
 62
     0
370
    -2
100
AcDbLine
 10
-0.5
 20
0.0
 30
0.0
 11
-1.0
 21
0.0
 31
0.0
  0
ENDBLK
  5
30
330
29
100
AcDbEntity
  8
0
100
AcDbBlockEnd
  0
BLOCK
  5
32
330
31
100
AcDbEntity
  8
0
100
AcDbBlockBegin
  2
_OBLIQUE
 70
     0
 10
0.0
 20
0.0
 30
0.0
  3
_OBLIQUE
  1

  0
LINE
  5
33
330
31
100
AcDbEntity
  8
0
  6
BYBLOCK
 62
     0
370
    -2
100
AcDbLine
 10
-0.5
 20
-0.5
 30
0.0
 11
0.5
 21
0.5
 31
0.0
  0
ENDBLK
  5
34
330
31
100
AcDbEntity
  8
0
100
AcDbBlockEnd
  0
BLOCK
  5
36
330
35
100
AcDbEntity
  8
0
100
AcDbBlockBegin
  2
_OPEN90
 70
     0
 10
0.0
 20
0.0
 30
0.0
  3
_OPEN90
  1

  0
LINE
  5
37
330
35
100
AcDbEntity
  8
0
  6
BYBLOCK
 62
     0
370
    -2
100
AcDbLine
 10
-0.5
 20
0.5
 30
0.0
 11
0.0
 21
0.0
 31
0.0
  0
LINE
  5
38
330
35
100
AcDbEntity
  8
0
  6
BYBLOCK
 62
     0
370
    -2
100
AcDbLine
 10
0.0
 20
0.0
 30
0.0
 11
-0.5
 21
-0.5
 31
0.0
  0
LINE
  5
39
330
35
100
AcDbEntity
  8
0
  6
BYBLOCK
 62
     0
370
    -2
100
AcDbLine
 10
0.0
 20
0.0
 30
0.0
 11
-1.0
 21
0.0
 31
0.0
  0
ENDBLK
  5
3A
330
35
100
AcDbEntity
  8
0
100
AcDbBlockEnd
  0
BLOCK
  5
3C
330
3B
100
AcDbEntity
  8
0
100
AcDbBlockBegin
  2
_CLOSEDBLANK
 70
     0
 10
0.0
 20
0.0
 30
0.0
  3
_CLOSEDBLANK
  1

  0
LINE
  5
3D
330
3B
100
AcDbEntity
  8
0
  6
BYBLOCK
 62
     0
370
    -2
100
AcDbLine
 10
-1.0
 20
0.1666666666666666
 30
0.0
 11
0.0
 21
0.0
 31
0.0
  0
LINE
  5
3E
330
3B
100
AcDbEntity
  8
0
  6
BYBLOCK
 62
     0
370
    -2
100
AcDbLine
 10
0.0
 20
0.0
 30
0.0
 11
-1.0
 21
-0.1666666666666666
 31
0.0
  0
LINE
  5
3F
330
3B
100
AcDbEntity
  8
0
  6
BYBLOCK
 62
     0
370
    -2
100
AcDbLine
 10
-1.0
 20
0.1666666666666666
 30
0.0
 11
-1.0
 21
-0.1666666666666666
 31
0.0
  0
ENDBLK
  5
40
330
3B
100
AcDbEntity
  8
0
100
AcDbBlockEnd
  0
BLOCK
  5
42
330
41
100
AcDbEntity
  8
0
100
AcDbBlockBegin
  2
_DOTBLANK
 70
     0
 10
0.0
 20
0.0
 30
0.0
  3
_DOTBLANK
  1

  0
CIRCLE
  5
43
330
41
100
AcDbEntity
  8
0
  6
BYBLOCK
 62
     0
370
    -2
100
AcDbCircle
 10
0.0
 20
0.0
 30
0.0
 40
0.5
  0
LINE
  5
44
330
41
100
AcDbEntity
  8
0
  6
BYBLOCK
 62
     0
370
    -2
100
AcDbLine
 10
-0.5
 20
0.0
 30
0.0
 11
-1.0
 21
0.0
 31
0.0
  0
ENDBLK
  5
45
330
41
100
AcDbEntity
  8
0
100
AcDbBlockEnd
  0
ENDSEC
  0
SECTION
  2
ENTITIES
  0
MTEXT
  5
46
100
AcDbEntity
  8
A8
  6
CONTINUOUS
 62
3
100
AcDbMText
 10
9.999997526638502
 20
18.00000076076889
 30
0.000000000000000
 40
3.000000000000000
 41
0.000000000000000
 44
0.6739999771118164
 71
     7
 72
     1
  1
{\H0.94x;{TYPE No.TM-378E-22}}
 11
1.000000000000000
 21
0.000000000000000
 31
0.000000000000000
  7
STANDARD
  0
POINT
  5
47
100
AcDbEntity
  8
A0
  6
CONTINUOUS
 62
3
100
AcDbPoint
 10
9.999997526638502
 20
18.00000076076889
 30
0.000000000000000
  0
POINT
  5
48
100
AcDbEntity
  8
A10
  6
CONTINUOUS
 62
3
100
AcDbPoint
 10
50.00000000000000
 20
50.00000000000000
 30
0.000000000000000
  0
LINE
  5
49
100
AcDbEntity
  8
A10
  6
CONTINUOUS
 62
7
100
AcDbLine
 10
615.0752815174042
 20
141.4746157883328
 30
0.000000000000000
 11
1173.875281517404
 21
141.4746157883328
 31
0.000000000000000
  0
LINE
  5
4A
100
AcDbEntity
  8
A10
  6
CONTINUOUS
 62
7
100
AcDbLine
 10
615.0752815174038
 20
140.3506157883328
 30
0.000000000000000
 11
1173.875281517404
 21
140.3506157883330
 31
0.000000000000000
  0
LINE
  5
4B
100
AcDbEntity
  8
A10
  6
CONTINUOUS
 62
7
100
AcDbLine
 10
615.0752815174042
 20
110.9386157883328
 30
0.000000000000000
 11
1173.875281517404
 21
110.9386157883328
 31
0.000000000000000
  0
LINE
  5
4C
100
AcDbEntity
  8
A10
  6
CONTINUOUS
 62
7
100
AcDbLine
 10
615.0752815174043
 20
109.8146157883326
 30
0.000000000000000
 11
1173.875281517404
 21
109.8146157883329
 31
0.000000000000000
  0
LINE
  5
4D
100
AcDbEntity
  8
A10
  6
CONTINUOUS
 62
7
100
AcDbLine
 10
615.0752815174044
 20
107.9946157883330
 30
0.000000000000000
 11
1173.875281517404
 21
107.9946157883327
 31
0.000000000000000
  0
LINE
  5
4E
100
AcDbEntity
  8
A10
  6
CONTINUOUS
 62
7
100
AcDbLine
 10
1034.771213530371
 20
130.7946157883328
 30
0.000000000000000
 11
1028.371213530372
 21
130.7946157883328
 31
0.000000000000000
  0
LINE
  5
4F
100
AcDbEntity
  8
A10
  6
CONTINUOUS
 62
7
100
AcDbLine
 10
1028.371213530372
 20
130.7946157883328
 30
0.000000000000000
 11
1028.371213530372
 21
134.5946157883327
 31
0.000000000000000
  0
LINE
  5
50
100
AcDbEntity
  8
A10
  6
CONTINUOUS
 62
7
100
AcDbLine
 10
1028.371213530372
 20
134.5946157883327
 30
0.000000000000000
 11
1034.771213530371
 21
134.5946157883327
 31
0.000000000000000
  0
LINE
  5
51
100
AcDbEntity
  8
A10
  6
CONTINUOUS
 62
7
100
AcDbLine
 10
1029.271213530371
 20
130.7946157883328
 30
0.000000000000000
 11
1029.271213530371
 21
134.5946157883327
 31
0.000000000000000
  0
LINE
  5
52
100
AcDbEntity
  8
A10
  6
CONTINUOUS
 62
7
100
AcDbLine
 10
1034.771213530371
 20
120.4946157883328
 30
0.000000000000000
 11
1028.371213530372
 21
120.4946157883328
 31
0.000000000000000
  0
LINE
  5
53
100
AcDbEntity
  8
A10
  6
CONTINUOUS
 62
7
100
AcDbLine
 10
1028.371213530372
 20
120.4946157883328
 30
0.000000000000000
 11
1028.371213530372
 21
116.6946157883328
 31
0.000000000000000
  0
LINE
  5
54
100
AcDbEntity
  8
A10
  6
CONTINUOUS
 62
7
100
AcDbLine
 10
1028.371213530372
 20
116.6946157883328
 30
0.000000000000000
 11
1034.771213530371
 21
116.6946157883328
 31
0.000000000000000
  0
LINE
  5
55
100
AcDbEntity
  8
A10
  6
CONTINUOUS
 62
7
100
AcDbLine
 10
1029.271213530371
 20
120.4946157883328
 30
0.000000000000000
 11
1029.271213530371
 21
116.6946157883328
 31
0.000000000000000
  0
LINE
  5
56
100
AcDbEntity
  8
A10
  6
CONTINUOUS
 62
7
100
AcDbLine
 10
1173.875281517404
 20
143.2946157883330
 30
0.000000000000000
 11
615.0752815174042
 21
143.2946157883330
 31
0.000000000000000
  0
LINE
  5
57
100
AcDbEntity
  8
A10
  6
CONTINUOUS
 62
7
100
AcDbLine
 10
1173.875281517404
 20
107.9946157883328
 30
0.000000000000000
 11
1173.875281517404
 21
110.9386157883328
 31
0.000000000000000
  0
LINE
  5
58
100
AcDbEntity
  8
A10
  6
CONTINUOUS
 62
7
100
AcDbLine
 10
1172.275281517404
 20
114.1446157883329
 30
0.000000000000000
 11
1172.275281517404
 21
137.1446157883329
 31
0.000000000000000
  0
LINE
  5
59
100
AcDbEntity
  8
A10
  6
CONTINUOUS
 62
7
100
AcDbLine
 10
1172.275281517404
 20
137.1446157883327
 30
0.000000000000000
 11
1173.875281517404
 21
137.1446157883327
 31
0.000000000000000
  0
ARC
  5
5A
100
AcDbEntity
  8
A10
  6
CONTINUOUS
 62
7
100
AcDbCircle
 10
1173.375281517404
 20
138.4446157883326
 30
0.000000000000000
 40
1.300000000000000
100
AcDbArc
 50
122.0319716223131
 51
270.0000000000000
  0
LINE
  5
5B
100
AcDbEntity
  8
A10
  6
CONTINUOUS
 62
7
100
AcDbLine
 10
1173.875281517404
 20
140.3506157883324
 30
0.000000000000000
 11
1172.685771395988
 21
139.5466937313404
 31
0.000000000000000
  0
LINE
  5
5C
100
AcDbEntity
  8
A10
  6
CONTINUOUS
 62
7
100
AcDbLine
 10
1173.875281517404
 20
140.3506157883326
 30
0.000000000000000
 11
1173.875281517404
 21
143.2946157883330
 31
0.000000000000000
  0
LINE
  5
5D
100
AcDbEntity
  8
A10
  6
CONTINUOUS
 62
7
100
AcDbLine
 10
1172.275281517404
 20
114.1446157883329
 30
0.000000000000000
 11
1173.875281517404
 21
114.1446157883329
 31
0.000000000000000
  0
ARC
  5
5E
100
AcDbEntity
  8
A10
  6
CONTINUOUS
 62
7
100
AcDbCircle
 10
1173.375281517404
 20
112.8446157883328
 30
0.000000000000000
 40
1.300000000000000
100
AcDbArc
 50
90.00000000000000
 51
237.9680283776869
  0
LINE
  5
5F
100
AcDbEntity
  8
A10
  6
CONTINUOUS
 62
7
100
AcDbLine
 10
1173.875281517405
 20
110.9386157883329
 30
0.000000000000000
 11
1172.685771395988
 21
111.7425378453249
 31
0.000000000000000
  0
LINE
  5
60
100
AcDbEntity
  8
A10
  6
CONTINUOUS
 62
7
100
AcDbLine
 10
1173.875281517404
 20
114.1446157883329
 30
0.000000000000000
 11
1173.875281517404
 21
137.1446157883329
 31
0.000000000000000
  0
LINE
  5
61
100
AcDbEntity
  8
A10
  6
CONTINUOUS
 62
7
100
AcDbLine
 10
615.0752815174042
 20
143.2946157883330
 30
0.000000000000000
 11
615.0752815174042
 21
137.8446157883327
 31
0.000000000000000
  0
LINE
  5
62
100
AcDbEntity
  8
A10
  6
CONTINUOUS
 62
7
100
AcDbLine
 10
615.0752815174042
 20
113.4446157883328
 30
0.000000000000000
 11
615.0752815174042
 21
107.9946157883330
 31
0.000000000000000
  0
LINE
  5
63
100
AcDbEntity
  8
A10
  6
CENTER
 62
1
100
AcDbLine
 10
894.4796920397494
 20
131.9446157883328
 30
0.000000000000000
 11
894.4796920397494
 21
118.7446157883330
 31
0.000000000000000
  0
LINE
  5
64
100
AcDbEntity
  8
A10
  6
CONTINUOUS
 62
7
100
AcDbLine
 10
894.0796920397497
 20
123.3946157883329
 30
0.000000000000000
 11
894.8796920397494
 21
123.3946157883329
 31
0.000000000000000
  0
LINE
  5
65
100
AcDbEntity
  8
A10
  6
CONTINUOUS
 62
7
100
AcDbLine
 10
894.8796920397494
 20
127.8946157883329
 30
0.000000000000000
 11
894.0796920397497
 21
127.8946157883329
 31
0.000000000000000
  0
ARC
  5
66
100
AcDbEntity
  8
A10
  6
CONTINUOUS
 62
7
100
AcDbCircle
 10
894.8796920397494
 20
125.6446157883329
 30
0.000000000000000
 40
2.250000000000000
100
AcDbArc
 50
0.000000000000000
 51
90.00000000000000
  0
ARC
  5
67
100
AcDbEntity
  8
A10
  6
CONTINUOUS
 62
7
100
AcDbCircle
 10
894.0796920397497
 20
125.6446157883329
 30
0.000000000000000
 40
2.250000000000000
100
AcDbArc
 50
90.00000000000000
 51
180.0000000000000
  0
ARC
  5
68
100
AcDbEntity
  8
A10
  6
CONTINUOUS
 62
7
100
AcDbCircle
 10
894.0796920397497
 20
125.6446157883329
 30
0.000000000000000
 40
2.250000000000000
100
AcDbArc
 50
180.0000000000000
 51
270.0000000000000
  0
ARC
  5
69
100
AcDbEntity
  8
A10
  6
CONTINUOUS
 62
7
100
AcDbCircle
 10
894.8796920397494
 20
125.6446157883329
 30
0.000000000000000
 40
2.250000000000000
100
AcDbArc
 50
270.0000000000000
 51
360.0000000000000
  0
LINE
  5
6A
100
AcDbEntity
  8
A10
  6
CENTER
 62
1
100
AcDbLine
 10
1145.275281517404
 20
132.8946157883329
 30
0.000000000000000
 11
1145.275281517404
 21
118.3946157883329
 31
0.000000000000000
  0
LINE
  5
6B
100
AcDbEntity
  8
A10
  6
CONTINUOUS
 62
7
100
AcDbLine
 10
1147.525281517404
 20
125.2446157883328
 30
0.000000000000000
 11
1147.525281517404
 21
126.0446157883328
 31
0.000000000000000
  0
LINE
  5
6C
100
AcDbEntity
  8
A10
  6
CONTINUOUS
 62
7
100
AcDbLine
 10
1143.025281517404
 20
126.0446157883328
 30
0.000000000000000
 11
1143.025281517404
 21
125.2446157883328
 31
0.000000000000000
  0
ARC
  5
6D
100
AcDbEntity
  8
A10
  6
CONTINUOUS
 62
7
100
AcDbCircle
 10
1145.275281517404
 20
126.0446157883328
 30
0.000000000000000
 40
2.250000000000000
100
AcDbArc
 50
90.00000000000000
 51
180.0000000000000
  0
ARC
  5
6E
100
AcDbEntity
  8
A10
  6
CONTINUOUS
 62
7
100
AcDbCircle
 10
1145.275281517404
 20
125.2446157883328
 30
0.000000000000000
 40
2.250000000000000
100
AcDbArc
 50
180.0000000000000
 51
270.0000000000000
  0
ARC
  5
6F
100
AcDbEntity
  8
A10
  6
CONTINUOUS
 62
7
100
AcDbCircle
 10
1145.275281517404
 20
125.2446157883328
 30
0.000000000000000
 40
2.250000000000000
100
AcDbArc
 50
270.0000000000000
 51
360.0000000000000
  0
ARC
  5
70
100
AcDbEntity
  8
A10
  6
CONTINUOUS
 62
7
100
AcDbCircle
 10
1145.275281517404
 20
126.0446157883328
 30
0.000000000000000
 40
2.250000000000000
100
AcDbArc
 50
0.000000000000000
 51
90.00000000000000
  0
LINE
  5
71
100
AcDbEntity
  8
A10
  6
CENTER
 62
1
100
AcDbLine
 10
1034.179692039750
 20
131.9446157883328
 30
0.000000000000000
 11
1034.179692039750
 21
118.7446157883330
 31
0.000000000000000
  0
LINE
  5
72
100
AcDbEntity
  8
A10
  6
CONTINUOUS
 62
7
100
AcDbLine
 10
1033.779692039750
 20
123.3946157883329
 30
0.000000000000000
 11
1034.579692039749
 21
123.3946157883329
 31
0.000000000000000
  0
LINE
  5
73
100
AcDbEntity
  8
A10
  6
CONTINUOUS
 62
7
100
AcDbLine
 10
1034.579692039749
 20
127.8946157883329
 30
0.000000000000000
 11
1033.779692039750
 21
127.8946157883329
 31
0.000000000000000
  0
ARC
  5
74
100
AcDbEntity
  8
A10
  6
CONTINUOUS
 62
7
100
AcDbCircle
 10
1034.579692039749
 20
125.6446157883329
 30
0.000000000000000
 40
2.250000000000000
100
AcDbArc
 50
0.000000000000000
 51
90.00000000000000
  0
ARC
  5
75
100
AcDbEntity
  8
A10
  6
CONTINUOUS
 62
7
100
AcDbCircle
 10
1033.779692039750
 20
125.6446157883329
 30
0.000000000000000
 40
2.250000000000000
100
AcDbArc
 50
90.00000000000000
 51
180.0000000000000
  0
ARC
  5
76
100
AcDbEntity
  8
A10
  6
CONTINUOUS
 62
7
100
AcDbCircle
 10
1033.779692039750
 20
125.6446157883329
 30
0.000000000000000
 40
2.250000000000000
100
AcDbArc
 50
180.0000000000000
 51
270.0000000000000
  0
ARC
  5
77
100
AcDbEntity
  8
A10
  6
CONTINUOUS
 62
7
100
AcDbCircle
 10
1034.579692039749
 20
125.6446157883329
 30
0.000000000000000
 40
2.250000000000000
100
AcDbArc
 50
270.0000000000000
 51
360.0000000000000
  0
LINE
  5
78
100
AcDbEntity
  8
A10
  6
CENTER
 62
1
100
AcDbLine
 10
1157.975281517404
 20
132.8946157883329
 30
0.000000000000000
 11
1157.975281517404
 21
118.3946157883329
 31
0.000000000000000
  0
LINE
  5
79
100
AcDbEntity
  8
A10
  6
CONTINUOUS
 62
7
100
AcDbLine
 10
1160.225281517404
 20
125.2446157883328
 30
0.000000000000000
 11
1160.225281517404
 21
126.0446157883328
 31
0.000000000000000
  0
LINE
  5
7A
100
AcDbEntity
  8
A10
  6
CONTINUOUS
 62
7
100
AcDbLine
 10
1155.725281517404
 20
126.0446157883328
 30
0.000000000000000
 11
1155.725281517404
 21
125.2446157883328
 31
0.000000000000000
  0
ARC
  5
7B
100
AcDbEntity
  8
A10
  6
CONTINUOUS
 62
7
100
AcDbCircle
 10
1157.975281517404
 20
126.0446157883328
 30
0.000000000000000
 40
2.250000000000000
100
AcDbArc
 50
90.00000000000000
 51
180.0000000000000
  0
ARC
  5
7C
100
AcDbEntity
  8
A10
  6
CONTINUOUS
 62
7
100
AcDbCircle
 10
1157.975281517404
 20
125.2446157883328
 30
0.000000000000000
 40
2.250000000000000
100
AcDbArc
 50
180.0000000000000
 51
270.0000000000000
  0
ARC
  5
7D
100
AcDbEntity
  8
A10
  6
CONTINUOUS
 62
7
100
AcDbCircle
 10
1157.975281517404
 20
125.2446157883328
 30
0.000000000000000
 40
2.250000000000000
100
AcDbArc
 50
270.0000000000000
 51
360.0000000000000
  0
ARC
  5
7E
100
AcDbEntity
  8
A10
  6
CONTINUOUS
 62
7
100
AcDbCircle
 10
1157.975281517404
 20
126.0446157883328
 30
0.000000000000000
 40
2.250000000000000
100
AcDbArc
 50
0.000000000000000
 51
90.00000000000000
  0
LINE
  5
7F
100
AcDbEntity
  8
A10
  6
CENTER
 62
1
100
AcDbLine
 10
630.9752815174043
 20
132.8946157883329
 30
0.000000000000000
 11
630.9752815174043
 21
118.3946157883329
 31
0.000000000000000
  0
LINE
  5
80
100
AcDbEntity
  8
A10
  6
CONTINUOUS
 62
7
100
AcDbLine
 10
633.2252815174040
 20
125.2446157883328
 30
0.000000000000000
 11
633.2252815174040
 21
126.0446157883328
 31
0.000000000000000
  0
LINE
  5
81
100
AcDbEntity
  8
A10
  6
CONTINUOUS
 62
7
100
AcDbLine
 10
628.7252815174040
 20
126.0446157883328
 30
0.000000000000000
 11
628.7252815174040
 21
125.2446157883328
 31
0.000000000000000
  0
ARC
  5
82
100
AcDbEntity
  8
A10
  6
CONTINUOUS
 62
7
100
AcDbCircle
 10
630.9752815174040
 20
126.0446157883328
 30
0.000000000000000
 40
2.250000000000000
100
AcDbArc
 50
90.00000000000000
 51
180.0000000000000
  0
ARC
  5
83
100
AcDbEntity
  8
A10
  6
CONTINUOUS
 62
7
100
AcDbCircle
 10
630.9752815174040
 20
125.2446157883328
 30
0.000000000000000
 40
2.250000000000000
100
AcDbArc
 50
180.0000000000000
 51
270.0000000000000
  0
ARC
  5
84
100
AcDbEntity
  8
A10
  6
CONTINUOUS
 62
7
100
AcDbCircle
 10
630.9752815174040
 20
125.2446157883328
 30
0.000000000000000
 40
2.250000000000000
100
AcDbArc
 50
270.0000000000000
 51
360.0000000000000
  0
ARC
  5
85
100
AcDbEntity
  8
A10
  6
CONTINUOUS
 62
7
100
AcDbCircle
 10
630.9752815174040
 20
126.0446157883328
 30
0.000000000000000
 40
2.250000000000000
100
AcDbArc
 50
0.000000000000000
 51
90.00000000000000
  0
LINE
  5
86
100
AcDbEntity
  8
A10
  6
CONTINUOUS
 62
7
100
AcDbLine
 10
883.7252815174047
 20
137.8446157883327
 30
0.000000000000000
 11
593.8752815174046
 21
137.8446157883327
 31
0.000000000000000
  0
LINE
  5
87
100
AcDbEntity
  8
A10
  6
CONTINUOUS
 62
7
100
AcDbLine
 10
883.7252815174047
 20
113.4446157883326
 30
0.000000000000000
 11
593.8752815174046
 21
113.4446157883326
 31
0.000000000000000
  0
LINE
  5
88
100
AcDbEntity
  8
A10
  6
CONTINUOUS
 62
7
100
AcDbLine
 10
593.8752815174046
 20
135.4146157883329
 30
0.000000000000000
 11
883.7252815174047
 21
135.4146157883329
 31
0.000000000000000
  0
LINE
  5
89
100
AcDbEntity
  8
A10
  6
CONTINUOUS
 62
7
100
AcDbLine
 10
593.8752815174046
 20
115.8746157883329
 30
0.000000000000000
 11
883.7252815174047
 21
115.8746157883329
 31
0.000000000000000
  0
LINE
  5
8A
100
AcDbEntity
  8
A10
  6
CONTINUOUS
 62
7
100
AcDbLine
 10
880.7252815174047
 20
135.4146157883329
 30
0.000000000000000
 11
880.7252815174047
 21
115.8746157883329
 31
0.000000000000000
  0
LINE
  5
8B
100
AcDbEntity
  8
A10
  6
CONTINUOUS
 62
7
100
AcDbLine
 10
879.2252815174043
 20
135.4146157883329
 30
0.000000000000000
 11
879.2252815174043
 21
115.8746157883329
 31
0.000000000000000
  0
LINE
  5
8C
100
AcDbEntity
  8
A10
  6
CONTINUOUS
 62
7
100
AcDbLine
 10
880.7252815174046
 20
132.5946157883325
 30
0.000000000000000
 11
876.7252815174045
 21
131.3446157883324
 31
0.000000000000000
  0
LINE
  5
8D
100
AcDbEntity
  8
A10
  6
CONTINUOUS
 62
7
100
AcDbLine
 10
876.7252815174047
 20
131.3446157883327
 30
0.000000000000000
 11
880.7252815174047
 21
131.3446157883327
 31
0.000000000000000
  0
LINE
  5
8E
100
AcDbEntity
  8
A10
  6
CONTINUOUS
 62
7
100
AcDbLine
 10
880.7252815174044
 20
130.0946157883327
 30
0.000000000000000
 11
876.7252815174045
 21
131.3446157883327
 31
0.000000000000000
  0
LINE
  5
8F
100
AcDbEntity
  8
A10
  6
CONTINUOUS
 62
7
100
AcDbLine
 10
880.7252815174044
 20
118.6946157883326
 30
0.000000000000000
 11
876.7252815174044
 21
119.9446157883326
 31
0.000000000000000
  0
LINE
  5
90
100
AcDbEntity
  8
A10
  6
CONTINUOUS
 62
7
100
AcDbLine
 10
876.7252815174047
 20
119.9446157883326
 30
0.000000000000000
 11
880.7252815174047
 21
119.9446157883326
 31
0.000000000000000
  0
LINE
  5
91
100
AcDbEntity
  8
A10
  6
CONTINUOUS
 62
7
100
AcDbLine
 10
880.7252815174044
 20
121.1946157883324
 30
0.000000000000000
 11
876.7252815174046
 21
119.9446157883324
 31
0.000000000000000
  0
LINE
  5
92
100
AcDbEntity
  8
A10
  6
CONTINUOUS
 62
7
100
AcDbLine
 10
883.7252815174047
 20
113.4446157883326
 30
0.000000000000000
 11
883.7252815174047
 21
137.8446157883327
 31
0.000000000000000
  0
ARC
  5
93
100
AcDbEntity
  8
A10
  6
CONTINUOUS
 62
7
100
AcDbCircle
 10
631.3252815174044
 20
125.6446157883329
 30
0.000000000000000
 40
4.750000000000000
100
AcDbArc
 50
270.0000000000000
 51
450.0000000000000
  0
ARC
  5
94
100
AcDbEntity
  8
A10
  6
CONTINUOUS
 62
7
100
AcDbCircle
 10
628.1252815174043
 20
125.6446157883329
 30
0.000000000000000
 40
4.750000000000000
100
AcDbArc
 50
90.00000000000000
 51
270.0000000000000
  0
LINE
  5
95
100
AcDbEntity
  8
A10
  6
CONTINUOUS
 62
7
100
AcDbLine
 10
628.1252815174043
 20
130.3946157883329
 30
0.000000000000000
 11
631.3252815174044
 21
130.3946157883329
 31
0.000000000000000
  0
LINE
  5
96
100
AcDbEntity
  8
A10
  6
CONTINUOUS
 62
7
100
AcDbLine
 10
628.1252815174043
 20
120.8946157883329
 30
0.000000000000000
 11
631.3252815174044
 21
120.8946157883329
 31
0.000000000000000
  0
LINE
  5
97
100
AcDbEntity
  8
A10
  6
CONTINUOUS
 62
7
100
AcDbLine
 10
593.8752815174047
 20
143.2946157883325
 30
0.000000000000000
 11
35.07528151740453
 21
143.2946157883327
 31
0.000000000000000
  0
LINE
  5
98
100
AcDbEntity
  8
A10
  6
CONTINUOUS
 62
7
100
AcDbLine
 10
174.1793495044375
 20
120.4946157883328
 30
0.000000000000000
 11
180.5793495044373
 21
120.4946157883328
 31
0.000000000000000
  0
LINE
  5
99
100
AcDbEntity
  8
A10
  6
CONTINUOUS
 62
7
100
AcDbLine
 10
180.5793495044373
 20
120.4946157883328
 30
0.000000000000000
 11
180.5793495044373
 21
116.6946157883328
 31
0.000000000000000
  0
LINE
  5
9A
100
AcDbEntity
  8
A10
  6
CONTINUOUS
 62
7
100
AcDbLine
 10
180.5793495044373
 20
116.6946157883328
 30
0.000000000000000
 11
174.1793495044375
 21
116.6946157883328
 31
0.000000000000000
  0
LINE
  5
9B
100
AcDbEntity
  8
A10
  6
CONTINUOUS
 62
7
100
AcDbLine
 10
179.6793495044375
 20
120.4946157883328
 30
0.000000000000000
 11
179.6793495044375
 21
116.6946157883328
 31
0.000000000000000
  0
LINE
  5
9C
100
AcDbEntity
  8
A10
  6
CONTINUOUS
 62
7
100
AcDbLine
 10
174.1793495044375
 20
130.7946157883328
 30
0.000000000000000
 11
180.5793495044373
 21
130.7946157883328
 31
0.000000000000000
  0
LINE
  5
9D
100
AcDbEntity
  8
A10
  6
CONTINUOUS
 62
7
100
AcDbLine
 10
180.5793495044373
 20
130.7946157883328
 30
0.000000000000000
 11
180.5793495044373
 21
134.5946157883327
 31
0.000000000000000
  0
LINE
  5
9E
100
AcDbEntity
  8
A10
  6
CONTINUOUS
 62
7
100
AcDbLine
 10
180.5793495044373
 20
134.5946157883327
 30
0.000000000000000
 11
174.1793495044375
 21
134.5946157883327
 31
0.000000000000000
  0
LINE
  5
9F
100
AcDbEntity
  8
A10
  6
CONTINUOUS
 62
7
100
AcDbLine
 10
179.6793495044375
 20
130.7946157883328
 30
0.000000000000000
 11
179.6793495044375
 21
134.5946157883327
 31
0.000000000000000
  0
LINE
  5
A0
100
AcDbEntity
  8
A10
  6
CONTINUOUS
 62
7
100
AcDbLine
 10
35.07528151740473
 20
107.9946157883325
 30
0.000000000000000
 11
593.8752815174046
 21
107.9946157883325
 31
0.000000000000000
  0
LINE
  5
A1
100
AcDbEntity
  8
A10
  6
CONTINUOUS
 62
7
100
AcDbLine
 10
35.07528151740473
 20
143.2946157883325
 30
0.000000000000000
 11
35.07528151740473
 21
140.3506157883328
 31
0.000000000000000
  0
ARC
  5
A2
100
AcDbEntity
  8
A10
  6
CONTINUOUS
 62
7
100
AcDbCircle
 10
35.57528151740473
 20
112.8446157883328
 30
0.000000000000000
 40
1.300000000000000
100
AcDbArc
 50
302.0319716223131
 51
471.0375110254248
  0
LINE
  5
A3
100
AcDbEntity
  8
A10
  6
CONTINUOUS
 62
7
100
AcDbLine
 10
35.07528151740468
 20
110.9386157883328
 30
0.000000000000000
 11
36.26479163882116
 21
111.7425378453250
 31
0.000000000000000
  0
LINE
  5
A4
100
AcDbEntity
  8
A10
  6
CONTINUOUS
 62
7
100
AcDbLine
 10
35.07528151740473
 20
110.9386157883328
 30
0.000000000000000
 11
35.07528151740473
 21
107.9946157883328
 31
0.000000000000000
  0
ARC
  5
A5
100
AcDbEntity
  8
A10
  6
CONTINUOUS
 62
7
100
AcDbCircle
 10
35.57528151740473
 20
138.4446157883326
 30
0.000000000000000
 40
1.300000000000000
100
AcDbArc
 50
248.9624889745753
 51
417.9680283776869
  0
LINE
  5
A6
100
AcDbEntity
  8
A10
  6
CONTINUOUS
 62
7
100
AcDbLine
 10
35.07528151740473
 20
140.3506157883326
 30
0.000000000000000
 11
36.26479163882103
 21
139.5466937313406
 31
0.000000000000000
  0
LINE
  5
A7
100
AcDbEntity
  8
A10
  6
CONTINUOUS
 62
7
100
AcDbLine
 10
35.07528151740473
 20
137.1446157883329
 30
0.000000000000000
 11
35.07528151740473
 21
114.1446157883329
 31
0.000000000000000
  0
LINE
  5
A8
100
AcDbEntity
  8
A10
  6
CONTINUOUS
 62
7
100
AcDbLine
 10
593.8752815174046
 20
107.9946157883325
 30
0.000000000000000
 11
593.8752815174046
 21
118.1446157883335
 31
0.000000000000000
  0
LINE
  5
A9
100
AcDbEntity
  8
A10
  6
CONTINUOUS
 62
7
100
AcDbLine
 10
593.8752815174046
 20
133.1446157883320
 30
0.000000000000000
 11
593.8752815174046
 21
143.2946157883325
 31
0.000000000000000
  0
LINE
  5
AA
100
AcDbEntity
  8
A10
  6
CENTER
 62
1
100
AcDbLine
 10
565.2752815174044
 20
118.3946157883327
 30
0.000000000000000
 11
565.2752815174044
 21
132.8946157883327
 31
0.000000000000000
  0
LINE
  5
AB
100
AcDbEntity
  8
A10
  6
CENTER
 62
1
100
AcDbLine
 10
314.4708709950593
 20
119.3446157883327
 30
0.000000000000000
 11
314.4708709950593
 21
132.5446157883325
 31
0.000000000000000
  0
LINE
  5
AC
100
AcDbEntity
  8
A10
  6
CONTINUOUS
 62
7
100
AcDbLine
 10
314.8708709950591
 20
127.8946157883327
 30
0.000000000000000
 11
314.0708709950592
 21
127.8946157883327
 31
0.000000000000000
  0
LINE
  5
AD
100
AcDbEntity
  8
A10
  6
CONTINUOUS
 62
7
100
AcDbLine
 10
314.0708709950592
 20
123.3946157883327
 30
0.000000000000000
 11
314.8708709950591
 21
123.3946157883327
 31
0.000000000000000
  0
ARC
  5
AE
100
AcDbEntity
  8
A10
  6
CONTINUOUS
 62
7
100
AcDbCircle
 10
314.0708709950592
 20
125.6446157883327
 30
0.000000000000000
 40
2.250000000000000
100
AcDbArc
 50
180.0000000000000
 51
270.0000000000000
  0
ARC
  5
AF
100
AcDbEntity
  8
A10
  6
CONTINUOUS
 62
7
100
AcDbCircle
 10
314.8708709950591
 20
125.6446157883327
 30
0.000000000000000
 40
2.250000000000000
100
AcDbArc
 50
270.0000000000000
 51
360.0000000000000
  0
ARC
  5
B0
100
AcDbEntity
  8
A10
  6
CONTINUOUS
 62
7
100
AcDbCircle
 10
314.8708709950591
 20
125.6446157883327
 30
0.000000000000000
 40
2.250000000000000
100
AcDbArc
 50
0.000000000000000
 51
90.00000000000000
  0
ARC
  5
B1
100
AcDbEntity
  8
A10
  6
CONTINUOUS
 62
7
100
AcDbCircle
 10
314.0708709950592
 20
125.6446157883327
 30
0.000000000000000
 40
2.250000000000000
100
AcDbArc
 50
90.00000000000000
 51
180.0000000000000
  0
LINE
  5
B2
100
AcDbEntity
  8
A10
  6
CENTER
 62
1
100
AcDbLine
 10
552.5754990153673
 20
119.3446157883327
 30
0.000000000000000
 11
552.5754990153673
 21
132.5446157883328
 31
0.000000000000000
  0
LINE
  5
B3
100
AcDbEntity
  8
A10
  6
CONTINUOUS
 62
7
100
AcDbLine
 10
552.9754990153674
 20
127.8946157883327
 30
0.000000000000000
 11
552.1754990153674
 21
127.8946157883327
 31
0.000000000000000
  0
LINE
  5
B4
100
AcDbEntity
  8
A10
  6
CONTINUOUS
 62
7
100
AcDbLine
 10
552.1754990153674
 20
123.3946157883327
 30
0.000000000000000
 11
552.9754990153674
 21
123.3946157883327
 31
0.000000000000000
  0
ARC
  5
B5
100
AcDbEntity
  8
A10
  6
CONTINUOUS
 62
7
100
AcDbCircle
 10
552.1754990153674
 20
125.6446157883327
 30
0.000000000000000
 40
2.250000000000000
100
AcDbArc
 50
180.0000000000000
 51
270.0000000000000
  0
ARC
  5
B6
100
AcDbEntity
  8
A10
  6
CONTINUOUS
 62
7
100
AcDbCircle
 10
552.9754990153674
 20
125.6446157883327
 30
0.000000000000000
 40
2.250000000000000
100
AcDbArc
 50
270.0000000000000
 51
360.0000000000000
  0
ARC
  5
B7
100
AcDbEntity
  8
A10
  6
CONTINUOUS
 62
7
100
AcDbCircle
 10
552.9754990153674
 20
125.6446157883327
 30
0.000000000000000
 40
2.250000000000000
100
AcDbArc
 50
0.000000000000000
 51
90.00000000000000
  0
ARC
  5
B8
100
AcDbEntity
  8
A10
  6
CONTINUOUS
 62
7
100
AcDbCircle
 10
552.1754990153674
 20
125.6446157883327
 30
0.000000000000000
 40
2.250000000000000
100
AcDbArc
 50
90.00000000000000
 51
180.0000000000000
  0
LINE
  5
B9
100
AcDbEntity
  8
A10
  6
CENTER
 62
1
100
AcDbLine
 10
466.8754990153675
 20
119.3446157883327
 30
0.000000000000000
 11
466.8754990153675
 21
132.5446157883328
 31
0.000000000000000
  0
LINE
  5
BA
100
AcDbEntity
  8
A10
  6
CONTINUOUS
 62
7
100
AcDbLine
 10
467.2754990153674
 20
127.8946157883327
 30
0.000000000000000
 11
466.4754990153674
 21
127.8946157883327
 31
0.000000000000000
  0
LINE
  5
BB
100
AcDbEntity
  8
A10
  6
CONTINUOUS
 62
7
100
AcDbLine
 10
466.4754990153674
 20
123.3946157883327
 30
0.000000000000000
 11
467.2754990153674
 21
123.3946157883327
 31
0.000000000000000
  0
ARC
  5
BC
100
AcDbEntity
  8
A10
  6
CONTINUOUS
 62
7
100
AcDbCircle
 10
466.4754990153674
 20
125.6446157883327
 30
0.000000000000000
 40
2.250000000000000
100
AcDbArc
 50
180.0000000000000
 51
270.0000000000000
  0
ARC
  5
BD
100
AcDbEntity
  8
A10
  6
CONTINUOUS
 62
7
100
AcDbCircle
 10
467.2754990153674
 20
125.6446157883327
 30
0.000000000000000
 40
2.250000000000000
100
AcDbArc
 50
270.0000000000000
 51
360.0000000000000
  0
ARC
  5
BE
100
AcDbEntity
  8
A10
  6
CONTINUOUS
 62
7
100
AcDbCircle
 10
467.2754990153674
 20
125.6446157883327
 30
0.000000000000000
 40
2.250000000000000
100
AcDbArc
 50
0.000000000000000
 51
90.00000000000000
  0
ARC
  5
BF
100
AcDbEntity
  8
A10
  6
CONTINUOUS
 62
7
100
AcDbCircle
 10
466.4754990153674
 20
125.6446157883327
 30
0.000000000000000
 40
2.250000000000000
100
AcDbArc
 50
90.00000000000000
 51
180.0000000000000
  0
LINE
  5
C0
100
AcDbEntity
  8
A10
  6
CONTINUOUS
 62
7
100
AcDbLine
 10
563.0252815174044
 20
126.0446157883328
 30
0.000000000000000
 11
563.0252815174044
 21
125.2446157883328
 31
0.000000000000000
  0
LINE
  5
C1
100
AcDbEntity
  8
A10
  6
CONTINUOUS
 62
7
100
AcDbLine
 10
567.5252815174044
 20
125.2446157883328
 30
0.000000000000000
 11
567.5252815174044
 21
126.0446157883328
 31
0.000000000000000
  0
ARC
  5
C2
100
AcDbEntity
  8
A10
  6
CONTINUOUS
 62
7
100
AcDbCircle
 10
565.2752815174044
 20
125.2446157883328
 30
0.000000000000000
 40
2.250000000000000
100
AcDbArc
 50
270.0000000000000
 51
360.0000000000000
  0
ARC
  5
C3
100
AcDbEntity
  8
A10
  6
CONTINUOUS
 62
7
100
AcDbCircle
 10
565.2752815174044
 20
126.0446157883328
 30
0.000000000000000
 40
2.250000000000000
100
AcDbArc
 50
0.000000000000000
 51
90.00000000000000
  0
ARC
  5
C4
100
AcDbEntity
  8
A10
  6
CONTINUOUS
 62
7
100
AcDbCircle
 10
565.2752815174044
 20
126.0446157883328
 30
0.000000000000000
 40
2.250000000000000
100
AcDbArc
 50
90.00000000000000
 51
180.0000000000000
  0
ARC
  5
C5
100
AcDbEntity
  8
A10
  6
CONTINUOUS
 62
7
100
AcDbCircle
 10
565.2752815174044
 20
125.2446157883328
 30
0.000000000000000
 40
2.250000000000000
100
AcDbArc
 50
180.0000000000000
 51
270.0000000000000
  0
LINE
  5
C6
100
AcDbEntity
  8
A10
  6
CENTER
 62
1
100
AcDbLine
 10
63.67528151740464
 20
118.3946157883327
 30
0.000000000000000
 11
63.67528151740464
 21
132.8946157883327
 31
0.000000000000000
  0
LINE
  5
C7
100
AcDbEntity
  8
A10
  6
CONTINUOUS
 62
7
100
AcDbLine
 10
61.42528151740464
 20
126.0446157883328
 30
0.000000000000000
 11
61.42528151740464
 21
125.2446157883328
 31
0.000000000000000
  0
LINE
  5
C8
100
AcDbEntity
  8
A10
  6
CONTINUOUS
 62
7
100
AcDbLine
 10
65.92528151740464
 20
125.2446157883328
 30
0.000000000000000
 11
65.92528151740464
 21
126.0446157883328
 31
0.000000000000000
  0
ARC
  5
C9
100
AcDbEntity
  8
A10
  6
CONTINUOUS
 62
7
100
AcDbCircle
 10
63.67528151740464
 20
125.2446157883328
 30
0.000000000000000
 40
2.250000000000000
100
AcDbArc
 50
270.0000000000000
 51
360.0000000000000
  0
ARC
  5
CA
100
AcDbEntity
  8
A10
  6
CONTINUOUS
 62
7
100
AcDbCircle
 10
63.67528151740464
 20
126.0446157883328
 30
0.000000000000000
 40
2.250000000000000
100
AcDbArc
 50
0.000000000000000
 51
90.00000000000000
  0
ARC
  5
CB
100
AcDbEntity
  8
A10
  6
CONTINUOUS
 62
7
100
AcDbCircle
 10
63.67528151740464
 20
126.0446157883328
 30
0.000000000000000
 40
2.250000000000000
100
AcDbArc
 50
90.00000000000000
 51
180.0000000000000
  0
ARC
  5
CC
100
AcDbEntity
  8
A10
  6
CONTINUOUS
 62
7
100
AcDbCircle
 10
63.67528151740464
 20
125.2446157883328
 30
0.000000000000000
 40
2.250000000000000
100
AcDbArc
 50
180.0000000000000
 51
270.0000000000000
  0
LINE
  5
CD
100
AcDbEntity
  8
A10
  6
CENTER
 62
1
100
AcDbLine
 10
174.7708709950595
 20
119.3446157883327
 30
0.000000000000000
 11
174.7708709950595
 21
132.5446157883325
 31
0.000000000000000
  0
LINE
  5
CE
100
AcDbEntity
  8
A10
  6
CONTINUOUS
 62
7
100
AcDbLine
 10
175.1708709950595
 20
127.8946157883327
 30
0.000000000000000
 11
174.3708709950596
 21
127.8946157883327
 31
0.000000000000000
  0
LINE
  5
CF
100
AcDbEntity
  8
A10
  6
CONTINUOUS
 62
7
100
AcDbLine
 10
174.3708709950596
 20
123.3946157883327
 30
0.000000000000000
 11
175.1708709950595
 21
123.3946157883327
 31
0.000000000000000
  0
ARC
  5
D0
100
AcDbEntity
  8
A10
  6
CONTINUOUS
 62
7
100
AcDbCircle
 10
174.3708709950596
 20
125.6446157883327
 30
0.000000000000000
 40
2.250000000000000
100
AcDbArc
 50
180.0000000000000
 51
270.0000000000000
  0
ARC
  5
D1
100
AcDbEntity
  8
A10
  6
CONTINUOUS
 62
7
100
AcDbCircle
 10
175.1708709950595
 20
125.6446157883327
 30
0.000000000000000
 40
2.250000000000000
100
AcDbArc
 50
270.0000000000000
 51
360.0000000000000
  0
ARC
  5
D2
100
AcDbEntity
  8
A10
  6
CONTINUOUS
 62
7
100
AcDbCircle
 10
175.1708709950595
 20
125.6446157883327
 30
0.000000000000000
 40
2.250000000000000
100
AcDbArc
 50
0.000000000000000
 51
90.00000000000000
  0
ARC
  5
D3
100
AcDbEntity
  8
A10
  6
CONTINUOUS
 62
7
100
AcDbCircle
 10
174.3708709950596
 20
125.6446157883327
 30
0.000000000000000
 40
2.250000000000000
100
AcDbArc
 50
90.00000000000000
 51
180.0000000000000
  0
LINE
  5
D4
100
AcDbEntity
  8
A10
  6
CENTER
 62
1
100
AcDbLine
 10
50.97528151740437
 20
118.3946157883327
 30
0.000000000000000
 11
50.97528151740437
 21
132.8946157883327
 31
0.000000000000000
  0
LINE
  5
D5
100
AcDbEntity
  8
A10
  6
CONTINUOUS
 62
7
100
AcDbLine
 10
48.72528151740471
 20
126.0446157883328
 30
0.000000000000000
 11
48.72528151740471
 21
125.2446157883328
 31
0.000000000000000
  0
LINE
  5
D6
100
AcDbEntity
  8
A10
  6
CONTINUOUS
 62
7
100
AcDbLine
 10
53.22528151740471
 20
125.2446157883328
 30
0.000000000000000
 11
53.22528151740471
 21
126.0446157883328
 31
0.000000000000000
  0
ARC
  5
D7
100
AcDbEntity
  8
A10
  6
CONTINUOUS
 62
7
100
AcDbCircle
 10
50.97528151740471
 20
125.2446157883328
 30
0.000000000000000
 40
2.250000000000000
100
AcDbArc
 50
270.0000000000000
 51
360.0000000000000
  0
ARC
  5
D8
100
AcDbEntity
  8
A10
  6
CONTINUOUS
 62
7
100
AcDbCircle
 10
50.97528151740471
 20
126.0446157883328
 30
0.000000000000000
 40
2.250000000000000
100
AcDbArc
 50
0.000000000000000
 51
90.00000000000000
  0
ARC
  5
D9
100
AcDbEntity
  8
A10
  6
CONTINUOUS
 62
7
100
AcDbCircle
 10
50.97528151740471
 20
126.0446157883328
 30
0.000000000000000
 40
2.250000000000000
100
AcDbArc
 50
90.00000000000000
 51
180.0000000000000
  0
ARC
  5
DA
100
AcDbEntity
  8
A10
  6
CONTINUOUS
 62
7
100
AcDbCircle
 10
50.97528151740471
 20
125.2446157883328
 30
0.000000000000000
 40
2.250000000000000
100
AcDbArc
 50
180.0000000000000
 51
270.0000000000000
  0
LINE
  5
DB
100
AcDbEntity
  8
A10
  6
CENTER
 62
1
100
AcDbLine
 10
577.9752815174043
 20
118.3946157883327
 30
0.000000000000000
 11
577.9752815174043
 21
132.8946157883327
 31
0.000000000000000
  0
LINE
  5
DC
100
AcDbEntity
  8
A10
  6
CONTINUOUS
 62
7
100
AcDbLine
 10
575.7252815174045
 20
126.0446157883328
 30
0.000000000000000
 11
575.7252815174045
 21
125.2446157883328
 31
0.000000000000000
  0
LINE
  5
DD
100
AcDbEntity
  8
A10
  6
CONTINUOUS
 62
7
100
AcDbLine
 10
580.2252815174045
 20
125.2446157883328
 30
0.000000000000000
 11
580.2252815174045
 21
126.0446157883328
 31
0.000000000000000
  0
ARC
  5
DE
100
AcDbEntity
  8
A10
  6
CONTINUOUS
 62
7
100
AcDbCircle
 10
577.9752815174045
 20
125.2446157883328
 30
0.000000000000000
 40
2.250000000000000
100
AcDbArc
 50
270.0000000000000
 51
360.0000000000000
  0
ARC
  5
DF
100
AcDbEntity
  8
A10
  6
CONTINUOUS
 62
7
100
AcDbCircle
 10
577.9752815174045
 20
126.0446157883328
 30
0.000000000000000
 40
2.250000000000000
100
AcDbArc
 50
0.000000000000000
 51
90.00000000000000
  0
ARC
  5
E0
100
AcDbEntity
  8
A10
  6
CONTINUOUS
 62
7
100
AcDbCircle
 10
577.9752815174045
 20
126.0446157883328
 30
0.000000000000000
 40
2.250000000000000
100
AcDbArc
 50
90.00000000000000
 51
180.0000000000000
  0
ARC
  5
E1
100
AcDbEntity
  8
A10
  6
CONTINUOUS
 62
7
100
AcDbCircle
 10
577.9752815174045
 20
125.2446157883328
 30
0.000000000000000
 40
2.250000000000000
100
AcDbArc
 50
180.0000000000000
 51
270.0000000000000
  0
LINE
  5
E2
100
AcDbEntity
  8
A10
  6
CENTER
 62
1
100
AcDbLine
 10
643.6752815174043
 20
132.8946157883329
 30
0.000000000000000
 11
643.6752815174043
 21
118.3946157883329
 31
0.000000000000000
  0
LINE
  5
E3
100
AcDbEntity
  8
A10
  6
CENTER
 62
1
100
AcDbLine
 10
656.3752815174043
 20
132.8946157883329
 30
0.000000000000000
 11
656.3752815174043
 21
118.3946157883329
 31
0.000000000000000
  0
LINE
  5
E4
100
AcDbEntity
  8
A10
  6
DASHED
 62
2
100
AcDbLine
 10
641.4252815174045
 20
126.0446157883328
 30
0.000000000000000
 11
641.4252815174045
 21
125.2446157883328
 31
0.000000000000000
  0
LINE
  5
E5
100
AcDbEntity
  8
A10
  6
DASHED
 62
2
100
AcDbLine
 10
645.9252815174045
 20
125.2446157883328
 30
0.000000000000000
 11
645.9252815174045
 21
126.0446157883328
 31
0.000000000000000
  0
ARC
  5
E6
100
AcDbEntity
  8
A10
  6
DASHED
 62
2
100
AcDbCircle
 10
643.6752815174045
 20
125.2446157883328
 30
0.000000000000000
 40
2.250000000000000
100
AcDbArc
 50
270.0000000000000
 51
360.0000000000000
  0
ARC
  5
E7
100
AcDbEntity
  8
A10
  6
DASHED
 62
2
100
AcDbCircle
 10
643.6752815174045
 20
126.0446157883328
 30
0.000000000000000
 40
2.250000000000000
100
AcDbArc
 50
0.000000000000000
 51
90.00000000000000
  0
ARC
  5
E8
100
AcDbEntity
  8
A10
  6
DASHED
 62
2
100
AcDbCircle
 10
643.6752815174045
 20
126.0446157883328
 30
0.000000000000000
 40
2.250000000000000
100
AcDbArc
 50
90.00000000000000
 51
180.0000000000000
  0
ARC
  5
E9
100
AcDbEntity
  8
A10
  6
DASHED
 62
2
100
AcDbCircle
 10
643.6752815174045
 20
125.2446157883328
 30
0.000000000000000
 40
2.250000000000000
100
AcDbArc
 50
180.0000000000000
 51
270.0000000000000
  0
LINE
  5
EA
100
AcDbEntity
  8
A10
  6
DASHED
 62
2
100
AcDbLine
 10
656.7752815174044
 20
127.8946157883327
 30
0.000000000000000
 11
655.9752815174045
 21
127.8946157883327
 31
0.000000000000000
  0
LINE
  5
EB
100
AcDbEntity
  8
A10
  6
DASHED
 62
2
100
AcDbLine
 10
655.9752815174045
 20
123.3946157883327
 30
0.000000000000000
 11
656.7752815174044
 21
123.3946157883327
 31
0.000000000000000
  0
ARC
  5
EC
100
AcDbEntity
  8
A10
  6
DASHED
 62
2
100
AcDbCircle
 10
655.9752815174045
 20
125.6446157883327
 30
0.000000000000000
 40
2.250000000000000
100
AcDbArc
 50
180.0000000000000
 51
270.0000000000000
  0
ARC
  5
ED
100
AcDbEntity
  8
A10
  6
DASHED
 62
2
100
AcDbCircle
 10
656.7752815174044
 20
125.6446157883327
 30
0.000000000000000
 40
2.250000000000000
100
AcDbArc
 50
270.0000000000000
 51
360.0000000000000
  0
ARC
  5
EE
100
AcDbEntity
  8
A10
  6
DASHED
 62
2
100
AcDbCircle
 10
656.7752815174044
 20
125.6446157883327
 30
0.000000000000000
 40
2.250000000000000
100
AcDbArc
 50
0.000000000000000
 51
90.00000000000000
  0
ARC
  5
EF
100
AcDbEntity
  8
A10
  6
DASHED
 62
2
100
AcDbCircle
 10
655.9752815174045
 20
125.6446157883327
 30
0.000000000000000
 40
2.250000000000000
100
AcDbArc
 50
90.00000000000000
 51
180.0000000000000
  0
LINE
  5
F0
100
AcDbEntity
  8
A10
  6
CENTER
 62
1
100
AcDbLine
 10
742.0752815174044
 20
132.8946157883329
 30
0.000000000000000
 11
742.0752815174044
 21
118.3946157883329
 31
0.000000000000000
  0
LINE
  5
F1
100
AcDbEntity
  8
A10
  6
DASHED
 62
2
100
AcDbLine
 10
742.4752815174043
 20
127.8946157883327
 30
0.000000000000000
 11
741.6752815174043
 21
127.8946157883327
 31
0.000000000000000
  0
LINE
  5
F2
100
AcDbEntity
  8
A10
  6
DASHED
 62
2
100
AcDbLine
 10
741.6752815174043
 20
123.3946157883327
 30
0.000000000000000
 11
742.4752815174043
 21
123.3946157883327
 31
0.000000000000000
  0
ARC
  5
F3
100
AcDbEntity
  8
A10
  6
DASHED
 62
2
100
AcDbCircle
 10
741.6752815174043
 20
125.6446157883327
 30
0.000000000000000
 40
2.250000000000000
100
AcDbArc
 50
180.0000000000000
 51
270.0000000000000
  0
ARC
  5
F4
100
AcDbEntity
  8
A10
  6
DASHED
 62
2
100
AcDbCircle
 10
742.4752815174043
 20
125.6446157883327
 30
0.000000000000000
 40
2.250000000000000
100
AcDbArc
 50
270.0000000000000
 51
360.0000000000000
  0
ARC
  5
F5
100
AcDbEntity
  8
A10
  6
DASHED
 62
2
100
AcDbCircle
 10
742.4752815174043
 20
125.6446157883327
 30
0.000000000000000
 40
2.250000000000000
100
AcDbArc
 50
0.000000000000000
 51
90.00000000000000
  0
ARC
  5
F6
100
AcDbEntity
  8
A10
  6
DASHED
 62
2
100
AcDbCircle
 10
741.6752815174043
 20
125.6446157883327
 30
0.000000000000000
 40
2.250000000000000
100
AcDbArc
 50
90.00000000000000
 51
180.0000000000000
  0
ARC
  5
F7
100
AcDbEntity
  8
A10
  6
DASHED
 62
2
100
AcDbCircle
 10
580.8252815174042
 20
125.6446157883625
 30
0.000000000000000
 40
4.750000000000000
100
AcDbArc
 50
269.9999999999287
 51
449.9999999999286
  0
LINE
  5
F8
100
AcDbEntity
  8
A10
  6
DASHED
 62
2
100
AcDbLine
 10
580.8252815174101
 20
130.3946157883625
 30
0.000000000000000
 11
577.6252815174100
 21
130.3946157883665
 31
0.000000000000000
  0
ARC
  5
F9
100
AcDbEntity
  8
A10
  6
DASHED
 62
2
100
AcDbCircle
 10
577.6252815174041
 20
125.6446157883665
 30
0.000000000000000
 40
4.750000000000000
100
AcDbArc
 50
89.99999999992866
 51
269.9999999999287
  0
LINE
  5
FA
100
AcDbEntity
  8
A10
  6
DASHED
 62
2
100
AcDbLine
 10
580.8252815173983
 20
120.8946157883625
 30
0.000000000000000
 11
577.6252815173982
 21
120.8946157883665
 31
0.000000000000000
  0
LINE
  5
FB
100
AcDbEntity
  8
A10
  6
CONTINUOUS
 62
7
100
AcDbLine
 10
615.0752815173761
 20
243.1093460001596
 30
0.000000000000000
 11
1173.875281517377
 21
243.1093460001599
 31
0.000000000000000
  0
LINE
  5
FC
100
AcDbEntity
  8
A10
  6
CONTINUOUS
 62
7
100
AcDbLine
 10
615.0752815173762
 20
234.5219697747414
 30
0.000000000000000
 11
1173.875281517377
 21
234.5219697747414
 31
0.000000000000000
  0
LINE
  5
FD
100
AcDbEntity
  8
A10
  6
CONTINUOUS
 62
7
100
AcDbLine
 10
324.5095278147643
 20
240.1362280211456
 30
0.000000000000000
 11
614.2445012739979
 21
240.1362280211456
 31
0.000000000000000
  0
LINE
  5
FE
100
AcDbEntity
  8
A10
  6
CONTINUOUS
 62
7
100
AcDbLine
 10
324.5095278147643
 20
233.5237016987213
 30
0.000000000000000
 11
883.7252815173767
 21
233.5237016987213
 31
0.000000000000000
  0
LINE
  5
FF
100
AcDbEntity
  8
A10
  6
CONTINUOUS
 62
7
100
AcDbLine
 10
615.0752815173762
 20
243.1093460001594
 30
0.000000000000000
 11
615.0752815173762
 21
234.5219697747414
 31
0.000000000000000
  0
LINE
  5
100
100
AcDbEntity
  8
A10
  6
DASHED
 62
2
100
AcDbLine
 10
879.5141863133683
 20
240.1362280211456
 30
0.000000000000000
 11
879.5141863133683
 21
234.5219697747414
 31
0.000000000000000
  0
LINE
  5
101
100
AcDbEntity
  8
A10
  6
CONTINUOUS
 62
7
100
AcDbLine
 10
1173.875281517377
 20
243.1093460001598
 30
0.000000000000000
 11
1173.875281517377
 21
234.5219697747414
 31
0.000000000000000
  0
LINE
  5
102
100
AcDbEntity
  8
A10
  6
CONTINUOUS
 62
7
100
AcDbLine
 10
324.5095278147643
 20
240.1362280211456
 30
0.000000000000000
 11
324.5095278147643
 21
233.5237016987213
 31
0.000000000000000
  0
LINE
  5
103
100
AcDbEntity
  8
A10
  6
CONTINUOUS
 62
7
100
AcDbLine
 10
879.5141863133684
 20
234.5219697747411
 30
0.000000000000000
 11
879.5141863133679
 21
233.5237016987211
 31
0.000000000000000
  0
LINE
  5
104
100
AcDbEntity
  8
A10
  6
DASHED
 62
2
100
AcDbLine
 10
614.2445012739981
 20
240.1362280211467
 30
0.000000000000000
 11
879.5141863133683
 21
240.1362280211455
 31
0.000000000000000
  0
LINE
  5
105
100
AcDbEntity
  8
A10
  6
CONTINUOUS
 62
7
100
AcDbLine
 10
593.8752815174059
 20
223.9380573972832
 30
0.000000000000000
 11
35.07528151740568
 21
223.9380573972818
 31
0.000000000000000
  0
LINE
  5
106
100
AcDbEntity
  8
A10
  6
CONTINUOUS
 62
7
100
AcDbLine
 10
593.8752815174057
 20
232.5254336227012
 30
0.000000000000000
 11
35.07528151740554
 21
232.5254336227006
 31
0.000000000000000
  0
LINE
  5
107
100
AcDbEntity
  8
A10
  6
CONTINUOUS
 62
7
100
AcDbLine
 10
883.7252815173767
 20
226.9111753762971
 30
0.000000000000000
 11
592.7752815173742
 21
226.9111753762971
 31
0.000000000000000
  0
LINE
  5
108
100
AcDbEntity
  8
A10
  6
CONTINUOUS
 62
7
100
AcDbLine
 10
785.3088835771114
 20
233.5237016987216
 30
0.000000000000000
 11
509.2047318233544
 21
233.5237016987213
 31
0.000000000000000
  0
LINE
  5
109
100
AcDbEntity
  8
A10
  6
CONTINUOUS
 62
7
100
AcDbLine
 10
593.8752815174057
 20
223.9380573972833
 30
0.000000000000000
 11
593.8752815174057
 21
232.5254336227013
 31
0.000000000000000
  0
LINE
  5
10A
100
AcDbEntity
  8
A10
  6
CONTINUOUS
 62
7
100
AcDbLine
 10
35.07528151740507
 20
223.9380573972824
 30
0.000000000000000
 11
35.07528151740541
 21
232.5254336227010
 31
0.000000000000000
  0
LINE
  5
10B
100
AcDbEntity
  8
A10
  6
CONTINUOUS
 62
7
100
AcDbLine
 10
883.7252815173767
 20
226.9111753762971
 30
0.000000000000000
 11
883.7252815173767
 21
233.5237016987219
 31
0.000000000000000
  0
LINE
  5
10C
100
AcDbEntity
  8
A10
  6
DASHED
 62
2
100
AcDbLine
 10
592.7752815173742
 20
226.9111753762964
 30
0.000000000000000
 11
327.5052328970834
 21
226.9111753762975
 31
0.000000000000000
  0
LINE
  5
10D
100
AcDbEntity
  8
A10
  6
DASHED
 62
2
100
AcDbLine
 10
327.5052328970831
 20
232.5254336227007
 30
0.000000000000000
 11
327.5052328970831
 21
226.9111753762975
 31
0.000000000000000
  0
LINE
  5
10E
100
AcDbEntity
  8
A10
  6
CONTINUOUS
 62
7
100
AcDbLine
 10
327.5052328970838
 20
233.5237016987213
 30
0.000000000000000
 11
327.5052328970838
 21
232.5254336227007
 31
0.000000000000000
  0
LINE
  5
10F
100
AcDbEntity
  8
A10
  6
CONTINUOUS
 62
7
100
AcDbLine
 10
593.8752815174041
 20
134.8946148494101
 30
0.000000000000000
 11
594.1252815174041
 21
134.8946148494101
 31
0.000000000000000
  0
LINE
  5
110
100
AcDbEntity
  8
A10
  6
CONTINUOUS
 62
7
100
AcDbLine
 10
593.8752815174041
 20
116.3946148494124
 30
0.000000000000000
 11
594.1252815174041
 21
116.3946148494124
 31
0.000000000000000
  0
LINE
  5
111
100
AcDbEntity
  8
A10
  6
CONTINUOUS
 62
7
100
AcDbLine
 10
590.0752815174044
 20
114.6818731496129
 30
0.000000000000000
 11
590.0752815174044
 21
136.6073565492069
 31
0.000000000000000
  0
LINE
  5
112
100
AcDbEntity
  8
A10
  6
CONTINUOUS
 62
7
100
AcDbLine
 10
594.1252815174041
 20
116.3946148494124
 30
0.000000000000000
 11
594.1252815174041
 21
134.8946148494101
 31
0.000000000000000
  0
LINE
  5
113
100
AcDbEntity
  8
A10
  6
CONTINUOUS
 62
7
100
AcDbLine
 10
590.8252815174005
 20
133.1446157883328
 30
0.000000000000000
 11
590.8252815174005
 21
131.6446167271764
 31
0.000000000000000
  0
LINE
  5
114
100
AcDbEntity
  8
A10
  6
CONTINUOUS
 62
7
100
AcDbLine
 10
592.3252815174005
 20
133.6446157883328
 30
0.000000000000000
 11
591.3252815174005
 21
133.6446157883328
 31
0.000000000000000
  0
ARC
  5
115
100
AcDbEntity
  8
A10
  6
CONTINUOUS
 62
7
100
AcDbCircle
 10
591.3252815174005
 20
133.1446157883328
 30
0.000000000000000
 40
0.5000000000000000
100
AcDbArc
 50
90.00000000000000
 51
180.0000000000000
  0
ARC
  5
116
100
AcDbEntity
  8
A10
  6
CONTINUOUS
 62
7
100
AcDbCircle
 10
592.3252815174005
 20
133.1446157883328
 30
0.000000000000000
 40
0.5000000000000000
100
AcDbArc
 50
0.000000000000000
 51
90.00000000000000
  0
LINE
  5
117
100
AcDbEntity
  8
A10
  6
CONTINUOUS
 62
7
100
AcDbLine
 10
594.1252815174049
 20
133.1446157883318
 30
0.000000000000000
 11
592.8252815174006
 21
133.1446157883329
 31
0.000000000000000
  0
ARC
  5
118
100
AcDbEntity
  8
A10
  6
CONTINUOUS
 62
7
100
AcDbCircle
 10
589.8252815174005
 20
131.6446167271764
 30
0.000000000000000
 40
1.000000000000000
100
AcDbArc
 50
284.4775121861585
 51
360.0000000000000
  0
ARC
  5
119
100
AcDbEntity
  8
A10
  6
CONTINUOUS
 62
7
100
AcDbCircle
 10
589.8252815174005
 20
119.6446148494892
 30
0.000000000000000
 40
1.000000000000000
100
AcDbArc
 50
0.000000000000000
 51
75.52248781384148
  0
LINE
  5
11A
100
AcDbEntity
  8
A10
  6
CONTINUOUS
 62
7
100
AcDbLine
 10
590.8252815174005
 20
118.1446157883328
 30
0.000000000000000
 11
590.8252815174005
 21
119.6446148494892
 31
0.000000000000000
  0
LINE
  5
11B
100
AcDbEntity
  8
A10
  6
CONTINUOUS
 62
7
100
AcDbLine
 10
592.3252815174005
 20
117.6446157883328
 30
0.000000000000000
 11
591.3252815174005
 21
117.6446157883328
 31
0.000000000000000
  0
ARC
  5
11C
100
AcDbEntity
  8
A10
  6
CONTINUOUS
 62
7
100
AcDbCircle
 10
591.3252815174005
 20
118.1446157883328
 30
0.000000000000000
 40
0.5000000000000000
100
AcDbArc
 50
180.0000000000000
 51
270.0000000000000
  0
ARC
  5
11D
100
AcDbEntity
  8
A10
  6
CONTINUOUS
 62
7
100
AcDbCircle
 10
592.3252815174005
 20
118.1446157883328
 30
0.000000000000000
 40
0.5000000000000000
100
AcDbArc
 50
270.0000000000000
 51
360.0000000000000
  0
LINE
  5
11E
100
AcDbEntity
  8
A10
  6
CONTINUOUS
 62
7
100
AcDbLine
 10
594.1252815174041
 20
118.1446157883337
 30
0.000000000000000
 11
592.8252815174005
 21
118.1446157883328
 31
0.000000000000000
  0
LINE
  5
11F
100
AcDbEntity
  8
A10
  6
CONTINUOUS
 62
7
100
AcDbLine
 10
590.0752815174044
 20
117.7446148494877
 30
0.000000000000000
 11
591.0252827691979
 21
117.7446148494877
 31
0.000000000000000
  0
LINE
  5
120
100
AcDbEntity
  8
A10
  6
CONTINUOUS
 62
7
100
AcDbLine
 10
592.6252802656031
 20
117.7446148494877
 30
0.000000000000000
 11
593.8752815174043
 21
117.7446148494877
 31
0.000000000000000
  0
LINE
  5
121
100
AcDbEntity
  8
A10
  6
CONTINUOUS
 62
7
100
AcDbLine
 10
590.0752815174044
 20
133.5446148494878
 30
0.000000000000000
 11
591.0252802656114
 21
133.5446148494878
 31
0.000000000000000
  0
LINE
  5
122
100
AcDbEntity
  8
A10
  6
CONTINUOUS
 62
7
100
AcDbLine
 10
592.6252827691897
 20
133.5446148494878
 30
0.000000000000000
 11
593.8752815174043
 21
133.5446148494878
 31
0.000000000000000
  0
LINE
  5
123
100
AcDbEntity
  8
A10
  6
DASHED
 62
2
100
AcDbLine
 10
615.0752815174042
 20
113.4446157883328
 30
0.000000000000000
 11
615.0752815174042
 21
137.8446157883327
 31
0.000000000000000
  0
LINE
  5
124
100
AcDbEntity
  8
A10
  6
CONTINUOUS
 62
7
100
AcDbLine
 10
537.8205114528628
 20
130.6446148494103
 30
0.000000000000000
 11
539.8304865777172
 21
130.6446148494103
 31
0.000000000000000
  0
LINE
  5
125
100
AcDbEntity
  8
A10
  6
CONTINUOUS
 62
7
100
AcDbLine
 10
539.8304865768039
 20
120.6446148494103
 30
0.000000000000000
 11
537.8205114537761
 21
120.6446148494103
 31
0.000000000000000
  0
ARC
  5
126
100
AcDbEntity
  8
A10
  6
CONTINUOUS
 62
7
100
AcDbCircle
 10
541.0503585616561
 20
127.3446148495675
 30
0.000000000000000
 40
0.7000000000013981
100
AcDbArc
 50
217.3831984174706
 51
270.0000000000000
  0
ARC
  5
127
100
AcDbEntity
  8
A10
  6
CONTINUOUS
 62
7
100
AcDbCircle
 10
541.0503585616561
 20
123.9446148497189
 30
0.000000000000000
 40
0.7000000000014096
100
AcDbArc
 50
90.00000000000000
 51
142.6168015901014
  0
ARC
  5
128
100
AcDbEntity
  8
A10
  6
CONTINUOUS
 62
7
100
AcDbCircle
 10
536.6006394689236
 20
123.9446148497189
 30
0.000000000000000
 40
0.7000000000014542
100
AcDbArc
 50
37.38319840989658
 51
90.00000000000000
  0
ARC
  5
129
100
AcDbEntity
  8
A10
  6
CONTINUOUS
 62
7
100
AcDbCircle
 10
538.8254990152900
 20
125.6446148494104
 30
0.000000000000000
 40
2.100000000282682
100
AcDbArc
 50
37.38319841747030
 51
142.6168015825311
  0
ARC
  5
12A
100
AcDbEntity
  8
A10
  6
CONTINUOUS
 62
7
100
AcDbCircle
 10
536.6006394689236
 20
127.3446148495675
 30
0.000000000000000
 40
0.7000000000014097
100
AcDbArc
 50
270.0000000000000
 51
322.6168015825313
  0
ARC
  5
12B
100
AcDbEntity
  8
A10
  6
CONTINUOUS
 62
7
100
AcDbCircle
 10
538.8254990152900
 20
125.6446148494104
 30
0.000000000000000
 40
2.099999999999949
100
AcDbArc
 50
217.3831984098976
 51
322.6168015901009
  0
LINE
  5
12C
100
AcDbEntity
  8
A10
  6
CONTINUOUS
 62
7
100
AcDbLine
 10
534.8254990152900
 20
126.6446148495662
 30
0.000000000000000
 11
536.6006394689239
 21
126.6446148495662
 31
0.000000000000000
  0
LINE
  5
12D
100
AcDbEntity
  8
A10
  6
CONTINUOUS
 62
7
100
AcDbLine
 10
541.0503585616561
 20
126.6446148495661
 30
0.000000000000000
 11
542.8254990152900
 21
126.6446148495661
 31
0.000000000000000
  0
LINE
  5
12E
100
AcDbEntity
  8
A10
  6
CONTINUOUS
 62
7
100
AcDbLine
 10
542.8838237929342
 20
124.6446148497203
 30
0.000000000000000
 11
541.0503585616559
 21
124.6446148497204
 31
0.000000000000000
  0
LINE
  5
12F
100
AcDbEntity
  8
A10
  6
CONTINUOUS
 62
7
100
AcDbLine
 10
536.6006394689236
 20
124.6446148497203
 30
0.000000000000000
 11
534.7671742378068
 21
124.6446148497203
 31
0.000000000000000
  0
LINE
  5
130
100
AcDbEntity
  8
A10
  6
CONTINUOUS
 62
7
100
AcDbLine
 10
535.9387471272552
 20
120.6446157883329
 30
0.000000000000000
 11
541.7122509033283
 21
120.6446157883329
 31
0.000000000000000
  0
LINE
  5
131
100
AcDbEntity
  8
A10
  6
CONTINUOUS
 62
7
100
AcDbLine
 10
535.9387471272548
 20
130.6446157883329
 30
0.000000000000000
 11
541.7122509033286
 21
130.6446157883329
 31
0.000000000000000
  0
LINE
  5
132
100
AcDbEntity
  8
A10
  6
CONTINUOUS
 62
7
100
AcDbLine
 10
534.1254990152900
 20
127.5039779316814
 30
0.000000000000000
 11
534.1254990152900
 21
127.3446148495663
 31
0.000000000000000
  0
LINE
  5
133
100
AcDbEntity
  8
A10
  6
CONTINUOUS
 62
7
100
AcDbLine
 10
543.5254990152901
 20
127.5039779316874
 30
0.000000000000000
 11
543.5254990152901
 21
127.3446148495662
 31
0.000000000000000
  0
LINE
  5
134
100
AcDbEntity
  8
A10
  6
CONTINUOUS
 62
7
100
AcDbLine
 10
534.1254990152900
 20
127.5039779316814
 30
0.000000000000000
 11
535.9387471272548
 21
130.6446157883327
 31
0.000000000000000
  0
LINE
  5
135
100
AcDbEntity
  8
A10
  6
CONTINUOUS
 62
7
100
AcDbLine
 10
543.5254990152933
 20
127.5039779316815
 30
0.000000000000000
 11
541.7122509033286
 21
130.6446157883327
 31
0.000000000000000
  0
LINE
  5
136
100
AcDbEntity
  8
A10
  6
CONTINUOUS
 62
7
100
AcDbLine
 10
543.5254990152932
 20
123.7852536449843
 30
0.000000000000000
 11
541.7122509033284
 21
120.6446157883331
 31
0.000000000000000
  0
LINE
  5
137
100
AcDbEntity
  8
A10
  6
CONTINUOUS
 62
7
100
AcDbLine
 10
534.1254990152900
 20
123.7852536449844
 30
0.000000000000000
 11
535.9387471272547
 21
120.6446157883329
 31
0.000000000000000
  0
ARC
  5
138
100
AcDbEntity
  8
A10
  6
CONTINUOUS
 62
7
100
AcDbCircle
 10
542.8254990152900
 20
127.3446148495662
 30
0.000000000000000
 40
0.7000000000000000
100
AcDbArc
 50
270.0000000000000
 51
360.0000000000000
  0
ARC
  5
139
100
AcDbEntity
  8
A10
  6
CONTINUOUS
 62
7
100
AcDbCircle
 10
534.8254990152900
 20
127.3446148495663
 30
0.000000000000000
 40
0.7000000000000000
100
AcDbArc
 50
180.0000000000000
 51
270.0000000000000
  0
ARC
  5
13A
100
AcDbEntity
  8
A10
  6
CONTINUOUS
 62
7
100
AcDbCircle
 10
542.8254990152900
 20
123.9446167270997
 30
0.000000000000000
 40
0.7000000000000000
100
AcDbArc
 50
0.000000000000000
 51
90.00000000000000
  0
LINE
  5
13B
100
AcDbEntity
  8
A10
  6
CONTINUOUS
 62
7
100
AcDbLine
 10
543.5254990152901
 20
123.7852536449784
 30
0.000000000000000
 11
543.5254990152901
 21
123.9446167270997
 31
0.000000000000000
  0
ARC
  5
13C
100
AcDbEntity
  8
A10
  6
CONTINUOUS
 62
7
100
AcDbCircle
 10
534.8254990152900
 20
123.9446167270995
 30
0.000000000000000
 40
0.7000000000000000
100
AcDbArc
 50
90.00000000000000
 51
180.0000000000000
  0
LINE
  5
13D
100
AcDbEntity
  8
A10
  6
CONTINUOUS
 62
7
100
AcDbLine
 10
534.1254990152900
 20
123.7852536449845
 30
0.000000000000000
 11
534.1254990152900
 21
123.9446167270995
 31
0.000000000000000
  0
ARC
  5
13E
100
AcDbEntity
  8
A10
  6
CONTINUOUS
 62
7
100
AcDbCircle
 10
538.8254990152900
 20
125.6446157883329
 30
0.000000000000000
 40
4.500000000000000
100
AcDbArc
 50
165.8308474967130
 51
194.1691525032870
  0
ARC
  5
13F
100
AcDbEntity
  8
A10
  6
CONTINUOUS
 62
7
100
AcDbCircle
 10
538.8254990152900
 20
125.6446157883329
 30
0.000000000000000
 40
4.500000000000000
100
AcDbArc
 50
345.8308474967144
 51
374.1691525032856
  0
CIRCLE
  5
140
100
AcDbEntity
  8
A10
  6
CONTINUOUS
 62
7
100
AcDbCircle
 10
538.8254990152900
 20
125.6446157883329
 30
0.000000000000000
 40
1.200000000000000
  0
CIRCLE
  5
141
100
AcDbEntity
  8
A10
  6
CONTINUOUS
 62
7
100
AcDbCircle
 10
538.8254990152900
 20
125.6446157883329
 30
0.000000000000000
 40
1.150000000000000
  0
LINE
  5
142
100
AcDbEntity
  8
A10
  6
CENTER
 62
1
100
AcDbLine
 10
23.48044866898274
 20
125.6446157883326
 30
0.000000000000000
 11
1181.344119388173
 21
125.6446157883329
 31
0.000000000000000
  0
LINE
  5
143
100
AcDbEntity
  8
A10
  6
CENTER
 62
1
100
AcDbLine
 10
1157.975281517529
 20
237.8593460001842
 30
0.000000000000000
 11
1157.975281517529
 21
247.3916502152527
 31
0.000000000000000
  0
LINE
  5
144
100
AcDbEntity
  8
A10
  6
CENTER
 62
1
100
AcDbLine
 10
1145.275281517529
 20
237.8593460001842
 30
0.000000000000000
 11
1145.275281517529
 21
247.3916502152527
 31
0.000000000000000
  0
LINE
  5
145
100
AcDbEntity
  8
A10
  6
CENTER
 62
1
100
AcDbLine
 10
1034.175281517297
 20
248.3593460004164
 30
0.000000000000000
 11
1034.175281517297
 21
237.8593460001064
 31
0.000000000000000
  0
LINE
  5
146
100
AcDbEntity
  8
A10
  6
CENTER
 62
1
100
AcDbLine
 10
894.4752815172975
 20
248.3593460004164
 30
0.000000000000000
 11
894.4752815172975
 21
237.8593460001064
 31
0.000000000000000
  0
LINE
  5
147
100
AcDbEntity
  8
A10
  6
CENTER
 62
1
100
AcDbLine
 10
742.0752815172974
 20
248.3593460004164
 30
0.000000000000000
 11
742.0752815172974
 21
237.8593460001064
 31
0.000000000000000
  0
LINE
  5
148
100
AcDbEntity
  8
A10
  6
CENTER
 62
1
100
AcDbLine
 10
656.3752815172970
 20
248.3593460004164
 30
0.000000000000000
 11
656.3752815172970
 21
237.8593460001064
 31
0.000000000000000
  0
LINE
  5
149
100
AcDbEntity
  8
A10
  6
CENTER
 62
1
100
AcDbLine
 10
643.6752815173751
 20
247.6182552547176
 30
0.000000000000000
 11
643.6752815173751
 21
237.8593460002608
 31
0.000000000000000
  0
LINE
  5
14A
100
AcDbEntity
  8
A10
  6
CENTER
 62
1
100
AcDbLine
 10
630.9752815173746
 20
247.6182552547176
 30
0.000000000000000
 11
630.9752815173746
 21
237.8593460002613
 31
0.000000000000000
  0
LINE
  5
14B
100
AcDbEntity
  8
A10
  6
CENTER
 62
1
100
AcDbLine
 10
50.97528151728915
 20
218.6880573971285
 30
0.000000000000000
 11
50.97528151728915
 21
228.2203616121971
 31
0.000000000000000
  0
LINE
  5
14C
100
AcDbEntity
  8
A10
  6
CENTER
 62
1
100
AcDbLine
 10
63.67528151728897
 20
218.6880573971285
 30
0.000000000000000
 11
63.67528151728897
 21
228.2203616121971
 31
0.000000000000000
  0
LINE
  5
14D
100
AcDbEntity
  8
A10
  6
CENTER
 62
1
100
AcDbLine
 10
174.7752815175213
 20
229.1880573973607
 30
0.000000000000000
 11
174.7752815175213
 21
218.6880573970508
 31
0.000000000000000
  0
LINE
  5
14E
100
AcDbEntity
  8
A10
  6
CENTER
 62
1
100
AcDbLine
 10
314.4752815175211
 20
229.1880573973607
 30
0.000000000000000
 11
314.4752815175211
 21
218.6880573970508
 31
0.000000000000000
  0
LINE
  5
14F
100
AcDbEntity
  8
A10
  6
CENTER
 62
1
100
AcDbLine
 10
466.8752815175212
 20
229.1880573973607
 30
0.000000000000000
 11
466.8752815175212
 21
218.6880573970508
 31
0.000000000000000
  0
LINE
  5
150
100
AcDbEntity
  8
A10
  6
CENTER
 62
1
100
AcDbLine
 10
552.5752815175216
 20
229.1880573973607
 30
0.000000000000000
 11
552.5752815175216
 21
218.6880573970508
 31
0.000000000000000
  0
LINE
  5
151
100
AcDbEntity
  8
A10
  6
CENTER
 62
1
100
AcDbLine
 10
565.2752815174435
 20
228.4469666516619
 30
0.000000000000000
 11
565.2752815174435
 21
218.6880573972052
 31
0.000000000000000
  0
LINE
  5
152
100
AcDbEntity
  8
A10
  6
CENTER
 62
1
100
AcDbLine
 10
577.9752815174440
 20
228.4469666516619
 30
0.000000000000000
 11
577.9752815174440
 21
218.6880573972057
 31
0.000000000000000
  0
ENDSEC
  0
SECTION
  2
OBJECTS
  0
DICTIONARY
  5
181
100
AcDbDictionary
  3
ACAD_GROUP
350
182
  3
ACAD_LAYOUT
350
183
  3
ACAD_MLINESTYLE
350
184
  0
DICTIONARY
  5
182
102
{ACAD_REACTORS
330
181
102
}
330
181
100
AcDbDictionary
  0
DICTIONARY
  5
183
102
{ACAD_REACTORS
330
181
102
}
330
181
100
AcDbDictionary
  3
Model
350
185
  3
ﾚｲｱｳﾄ1
350
186
  3
ﾚｲｱｳﾄ2
350
187
  0
DICTIONARY
  5
184
102
{ACAD_REACTORS
330
181
102
}
330
181
100
AcDbDictionary
  3
STANDARD
350
188
  0
LAYOUT
  5
185
102
{ACAD_REACTORS
330
183
102
}
330
183
100
AcDbPlotSettings
 70
11952
  4
A2
 44
420.000000
 45
594.000000
 73
  1
 72
  1
100
AcDbLayout
  1
Model
 71
0
330
178
  0
LAYOUT
  5
186
102
{ACAD_REACTORS
330
183
102
}
330
183
100
AcDbPlotSettings
100
AcDbLayout
  1
ﾚｲｱｳﾄ1
 71
1
330
179
  0
LAYOUT
  5
187
102
{ACAD_REACTORS
330
183
102
}
330
183
100
AcDbPlotSettings
100
AcDbLayout
  1
ﾚｲｱｳﾄ2
 71
2
330
17A
  0
MLINESTYLE
  5
188
102
{ACAD_REACTORS
330
184
102
}
330
184
100
AcDbMlineStyle
  2
STANDARD
 70
     0
  3

 62
   256
 51
90.00
 52
90.00
 71
     2
 49
0.50
 62
   256
  6
BYLAYER
 49
-0.50
 62
   256
  6
BYLAYER
  0
ENDSEC
  0
EOF
