  0
SECTION
  2
HEADER
  9
$ACADVER
  1
AC1014
  9
$DWGCODEPAGE
  3
ANSI_932
  9
$LTSCALE
 40
20.0
  9
$FILLMODE
 70
     1
  9
$CLAYER
  8
0
  9
$PDMODE
 70
     0
  9
$SPLFRAME
 70
     0
  9
$SPLINETYPE
 70
     6
  9
$SPLINESEGS
 70
     8
  9
$DIMASZ
 40
2.000000
  9
$DIMEXE
 40
1.500000
  9
$DIMEXO
 40
0.800000
  9
$DIMTAD
 70
     1
  9
$DIMTIH
 70
     0
  9
$DIMTOH
 70
     0
  9
$DIMTVP
 40
0.500000
  9
$DIMTXT
 40
3.100000
  9
$EXTMIN
 10
0.000000
 20
0.000000
 30
0.000000
  9
$EXTMAX
 10
297.000000
 20
420.000000
 30
0.000000
  9
$MEASUREMENT
 70
  1
  9
$LIMMIN
 10
0.000000
 20
0.000000
  9
$LIMMAX
 10
297.000000
 20
420.000000
  9
$HANDLING
 70
     1
  9
$HANDSEED
  5
B8
  9
$DIMBLK
  1
_OPEN
  9
$DIMDEC
 70
     2
  9
$DIMAUNIT
 70
     0
  9
$DIMZIN
 70
     8
  9
$DIMTOFL
 70
     1
  0
ENDSEC
  0
SECTION
  2
CLASSES
  0
ENDSEC
  0
SECTION
  2
TABLES
  0
TABLE
  2
VPORT
  5
88
100
AcDbSymbolTable
 70
     1
  0
VPORT
  5
89
100
AcDbSymbolTableRecord
100
AcDbViewportTableRecord
  2
*ACTIVE
 70
     0
 12
104.226255
 22
81.631675
 40
127.263349
 41
1.480807
  0
ENDTAB
  0
TABLE
  2
LTYPE
  5
8A
100
AcDbSymbolTable
 70
     2
  0
LTYPE
  5
8B
100
AcDbSymbolTableRecord
100
AcDbLinetypeTableRecord
  2
BYBLOCK
 70
     0
  3

 72
    65
 73
     0
 40
0.0
  0
LTYPE
  5
8C
100
AcDbSymbolTableRecord
100
AcDbLinetypeTableRecord
  2
BYLAYER
 70
     0
  3

 72
    65
 73
     0
 40
0.0
  0
LTYPE
  5
8D
100
AcDbSymbolTableRecord
100
AcDbLinetypeTableRecord
  2
CONTINUOUS
 70
     0
  3
Solid line (NEC CAE2D for Win R18.0 : 2025.08.25)
 72
    65
 73
     0
 40
0.0
  0
LTYPE
  5
8E
100
AcDbSymbolTableRecord
100
AcDbLinetypeTableRecord
  2
CENTER
 70
     0
  3
____ _ ____ _ ____ _ ____ _ ____ _ ____
 72
    65
 73
     4
 40
2.0
 49
1.25
 74
     0
 49
-0.25
 74
     0
 49
0.25
 74
     0
 49
-0.25
 74
     0
  0
ENDTAB
  0
TABLE
  2
LAYER
  5
8F
100
AcDbSymbolTable
 70
    17
  0
LAYER
  5
90
100
AcDbSymbolTableRecord
100
AcDbLayerTableRecord
  2
0
 70
     0
 62
     7
  6
CONTINUOUS
  0
LAYER
  5
91
100
AcDbSymbolTableRecord
100
AcDbLayerTableRecord
  2
DXF0
 70
     0
 62
     7
  6
CONTINUOUS
  0
LAYER
  5
92
100
AcDbSymbolTableRecord
100
AcDbLayerTableRecord
  2
A0
 70
     0
 62
     9
  6
CONTINUOUS
  0
LAYER
  5
93
100
AcDbSymbolTableRecord
100
AcDbLayerTableRecord
  2
A1
 70
     0
 62
    12
  6
CONTINUOUS
  0
LAYER
  5
94
100
AcDbSymbolTableRecord
100
AcDbLayerTableRecord
  2
A4
 70
     0
 62
     9
  6
CONTINUOUS
  0
LAYER
  5
95
100
AcDbSymbolTableRecord
100
AcDbLayerTableRecord
  2
A5
 70
     0
 62
     8
  6
CONTINUOUS
  0
LAYER
  5
96
100
AcDbSymbolTableRecord
100
AcDbLayerTableRecord
  2
A6
 70
     0
 62
    12
  6
CONTINUOUS
  0
LAYER
  5
97
100
AcDbSymbolTableRecord
100
AcDbLayerTableRecord
  2
A7
 70
     0
 62
    12
  6
CONTINUOUS
  0
LAYER
  5
98
100
AcDbSymbolTableRecord
100
AcDbLayerTableRecord
  2
A8
 70
     0
 62
    10
  6
CONTINUOUS
  0
LAYER
  5
99
100
AcDbSymbolTableRecord
100
AcDbLayerTableRecord
  2
A9
 70
     0
 62
     9
  6
CONTINUOUS
  0
LAYER
  5
9A
100
AcDbSymbolTableRecord
100
AcDbLayerTableRecord
  2
A10
 70
     0
 62
     6
  6
CONTINUOUS
  0
LAYER
  5
9B
100
AcDbSymbolTableRecord
100
AcDbLayerTableRecord
  2
A20
 70
     0
 62
     1
  6
CONTINUOUS
  0
LAYER
  5
9C
100
AcDbSymbolTableRecord
100
AcDbLayerTableRecord
  2
A30
 70
     0
 62
     1
  6
CONTINUOUS
  0
LAYER
  5
9D
100
AcDbSymbolTableRecord
100
AcDbLayerTableRecord
  2
A40
 70
     0
 62
     9
  6
CONTINUOUS
  0
LAYER
  5
9E
100
AcDbSymbolTableRecord
100
AcDbLayerTableRecord
  2
A50
 70
     0
 62
    12
  6
CONTINUOUS
  0
LAYER
  5
9F
100
AcDbSymbolTableRecord
100
AcDbLayerTableRecord
  2
A1023
 70
     0
 62
     8
  6
CONTINUOUS
  0
LAYER
  5
A0
100
AcDbSymbolTableRecord
100
AcDbLayerTableRecord
  2
DXF1023
 70
     0
 62
    16
  6
CONTINUOUS
  0
ENDTAB
  0
TABLE
  2
STYLE
  5
A1
100
AcDbSymbolTable
 70
     4
  0
STYLE
  5
A2
100
AcDbSymbolTableRecord
100
AcDbTextStyleTableRecord
  2
STANDARD
 70
    64
 40
0.0
 41
1.0
 50
0.0
 71
     0
 42
8.000000000000000
  3
TXT
  4

  0
STYLE
  5
A3
100
AcDbSymbolTableRecord
100
AcDbTextStyleTableRecord
  2
ANKTATE
 70
    68
 40
0.0
 41
1.0
 50
0.0
 71
     0
 42
8.000000000000000
  3
TXT
  4

  0
STYLE
  5
A4
100
AcDbSymbolTableRecord
100
AcDbTextStyleTableRecord
  2
KNJYOKO
 70
    64
 40
0.0
 41
1.0
 50
0.0
 71
     0
 42
8.000000000000000
  3
TXT
  4
BIGFONT
  0
STYLE
  5
A5
100
AcDbSymbolTableRecord
100
AcDbTextStyleTableRecord
  2
KNJTATE
 70
    68
 40
0.0
 41
1.0
 50
0.0
 71
     0
 42
8.000000000000000
  3
TXT
  4
BIGFONT
  0
ENDTAB
  0
TABLE
  2
VIEW
  5
A6
100
AcDbSymbolTable
 70
     0
  0
ENDTAB
  0
TABLE
  2
UCS
  5
A7
100
AcDbSymbolTable
 70
     0
  0
ENDTAB
  0
TABLE
  2
APPID
  5
A8
100
AcDbSymbolTable
 70
     1
  0
APPID
  5
A9
100
AcDbSymbolTableRecord
100
AcDbRegAppTableRecord
  2
ACAD
 70
     0
  0
ENDTAB
  0
TABLE
  2
DIMSTYLE
  5
AA
100
AcDbSymbolTable
 70
     2
  0
DIMSTYLE
105
AB
100
AcDbSymbolTableRecord
100
AcDbDimStyleTableRecord
  2
STANDARD
 70
     0
 41
2.000000
 44
1.500000
 42
0.800000
145
0.661290
140
3.100000
144
1.000000
146
0.645161
340
A2
  0
DIMSTYLE
105
AC
100
AcDbSymbolTableRecord
100
AcDbDimStyleTableRecord
  2
DXF001
 70
     0
 41
2.000000
 44
1.500000
 42
0.800000
145
0.661290
140
3.100000
144
1.000000
146
0.645161
 77
     1
 73
     0
 74
     0
271
     2
275
     0
 78
     8
172
     1
340
A2
  0
ENDTAB
  0
TABLE
  2
BLOCK_RECORD
  5
AD
100
AcDbSymbolTable
 70
    12
  0
BLOCK_RECORD
  5
AE
100
AcDbSymbolTableRecord
100
AcDbBlockTableRecord
  2
*MODEL_SPACE
  0
BLOCK_RECORD
  5
AF
100
AcDbSymbolTableRecord
100
AcDbBlockTableRecord
  2
*PAPER_SPACE
  0
BLOCK_RECORD
  5
1
100
AcDbSymbolTableRecord
100
AcDbBlockTableRecord
  2
_NONE
  0
BLOCK_RECORD
  5
4
100
AcDbSymbolTableRecord
100
AcDbBlockTableRecord
  2
_CLOSED
  0
BLOCK_RECORD
  5
B
100
AcDbSymbolTableRecord
100
AcDbBlockTableRecord
  2
_DOT
  0
BLOCK_RECORD
  5
13
100
AcDbSymbolTableRecord
100
AcDbBlockTableRecord
  2
_OPEN
  0
BLOCK_RECORD
  5
19
100
AcDbSymbolTableRecord
100
AcDbBlockTableRecord
  2
_ORIGIN
  0
BLOCK_RECORD
  5
1E
100
AcDbSymbolTableRecord
100
AcDbBlockTableRecord
  2
_OPEN30
  0
BLOCK_RECORD
  5
24
100
AcDbSymbolTableRecord
100
AcDbBlockTableRecord
  2
_BOXFILLED
  0
BLOCK_RECORD
  5
29
100
AcDbSymbolTableRecord
100
AcDbBlockTableRecord
  2
_BOXBLANK
  0
BLOCK_RECORD
  5
31
100
AcDbSymbolTableRecord
100
AcDbBlockTableRecord
  2
_OBLIQUE
  0
BLOCK_RECORD
  5
35
100
AcDbSymbolTableRecord
100
AcDbBlockTableRecord
  2
_OPEN90
  0
BLOCK_RECORD
  5
3B
100
AcDbSymbolTableRecord
100
AcDbBlockTableRecord
  2
_CLOSEDBLANK
  0
BLOCK_RECORD
  5
41
100
AcDbSymbolTableRecord
100
AcDbBlockTableRecord
  2
_DOTBLANK
  0
ENDTAB
  0
ENDSEC
  0
SECTION
  2
BLOCKS
  0
BLOCK
  5
B0
100
AcDbEntity
  8
0
100
AcDbBlockBegin
  2
*MODEL_SPACE
 70
     0
 10
0.0
 20
0.0
 30
0.0
  3
*MODEL_SPACE
  1

  0
ENDBLK
  5
B1
100
AcDbEntity
  8
0
100
AcDbBlockEnd
  0
BLOCK
  5
B2
100
AcDbEntity
  8
0
100
AcDbBlockBegin
  2
*PAPER_SPACE
 70
     0
 10
0.0
 20
0.0
 30
0.0
  3
*PAPER_SPACE
  1

  0
ENDBLK
  5
B3
100
AcDbEntity
  8
0
100
AcDbBlockEnd
  0
BLOCK
  5
2
100
AcDbEntity
  8
0
100
AcDbBlockBegin
  2
_NONE
 70
     0
 10
0.0
 20
0.0
 30
0.0
  3
_NONE
  1

  0
ENDBLK
  5
3
100
AcDbEntity
  8
0
100
AcDbBlockEnd
  0
BLOCK
  5
5
100
AcDbEntity
  8
0
100
AcDbBlockBegin
  2
_CLOSED
 70
     0
 10
0.0
 20
0.0
 30
0.0
  3
_CLOSED
  1

  0
LINE
  5
6
100
AcDbEntity
  8
0
  6
BYBLOCK
 62
     0
100
AcDbLine
 10
-1.0
 20
0.166667
 30
0.0
 11
0.0
 21
0.0
 31
0.0
  0
LINE
  5
7
100
AcDbEntity
  8
0
  6
BYBLOCK
 62
     0
100
AcDbLine
 10
0.0
 20
0.0
 30
0.0
 11
-1.0
 21
-0.166667
 31
0.0
  0
LINE
  5
8
100
AcDbEntity
  8
0
  6
BYBLOCK
 62
     0
100
AcDbLine
 10
-1.0
 20
0.166667
 30
0.0
 11
-1.0
 21
-0.166667
 31
0.0
  0
LINE
  5
9
100
AcDbEntity
  8
0
  6
BYBLOCK
 62
     0
100
AcDbLine
 10
0.0
 20
0.0
 30
0.0
 11
-1.0
 21
0.0
 31
0.0
  0
ENDBLK
  5
A
100
AcDbEntity
  8
0
100
AcDbBlockEnd
  0
BLOCK
  5
C
100
AcDbEntity
  8
0
100
AcDbBlockBegin
  2
_DOT
 70
     0
 10
0.0
 20
0.0
 30
0.0
  3
_DOT
  1

  0
POLYLINE
  5
D
100
AcDbEntity
  8
0
  6
BYBLOCK
 62
     0
100
AcDb2dPolyline
 66
     1
 10
0.0
 20
0.0
 30
0.0
 70
     1
 40
0.5
 41
0.5
  0
VERTEX
  5
E
100
AcDbEntity
  8
0
  6
BYBLOCK
 62
     0
100
AcDbVertex
100
AcDb2dVertex
 10
-0.25
 20
0.0
 30
0.0
 42
1.0
  0
VERTEX
  5
F
100
AcDbEntity
  8
0
  6
BYBLOCK
 62
     0
100
AcDbVertex
100
AcDb2dVertex
 10
0.25
 20
0.0
 30
0.0
 42
1.0
  0
SEQEND
  5
10
100
AcDbEntity
  8
0
  6
BYBLOCK
 62
     0
  0
LINE
  5
11
100
AcDbEntity
  8
0
  6
BYBLOCK
 62
     0
100
AcDbLine
 10
-0.5
 20
0.0
 30
0.0
 11
-1.0
 21
0.0
 31
0.0
  0
ENDBLK
  5
12
100
AcDbEntity
  8
0
100
AcDbBlockEnd
  0
BLOCK
  5
14
100
AcDbEntity
  8
0
100
AcDbBlockBegin
  2
_OPEN
 70
     0
 10
0.0
 20
0.0
 30
0.0
  3
_OPEN
  1

  0
LINE
  5
15
100
AcDbEntity
  8
0
  6
BYBLOCK
 62
     0
100
AcDbLine
 10
-1.0
 20
0.166667
 30
0.0
 11
0.0
 21
0.0
 31
0.0
  0
LINE
  5
16
100
AcDbEntity
  8
0
  6
BYBLOCK
 62
     0
100
AcDbLine
 10
0.0
 20
0.0
 30
0.0
 11
-1.0
 21
-0.166667
 31
0.0
  0
LINE
  5
17
100
AcDbEntity
  8
0
  6
BYBLOCK
 62
     0
100
AcDbLine
 10
0.0
 20
0.0
 30
0.0
 11
-1.0
 21
0.0
 31
0.0
  0
ENDBLK
  5
18
100
AcDbEntity
  8
0
100
AcDbBlockEnd
  0
BLOCK
  5
1A
100
AcDbEntity
  8
0
100
AcDbBlockBegin
  2
_ORIGIN
 70
     0
 10
0.0
 20
0.0
 30
0.0
  3
_ORIGIN
  1

  0
CIRCLE
  5
1B
100
AcDbEntity
  8
0
  6
BYBLOCK
 62
     0
100
AcDbCircle
 10
0.0
 20
0.0
 30
0.0
 40
0.5
  0
LINE
  5
1C
100
AcDbEntity
  8
0
  6
BYBLOCK
 62
     0
100
AcDbLine
 10
0.0
 20
0.0
 30
0.0
 11
-1.0
 21
0.0
 31
0.0
  0
ENDBLK
  5
1D
100
AcDbEntity
  8
0
100
AcDbBlockEnd
  0
BLOCK
  5
1F
100
AcDbEntity
  8
0
100
AcDbBlockBegin
  2
_OPEN30
 70
     0
 10
0.0
 20
0.0
 30
0.0
  3
_OPEN30
  1

  0
LINE
  5
20
100
AcDbEntity
  8
0
  6
BYBLOCK
 62
     0
100
AcDbLine
 10
-1.0
 20
0.267949
 30
0.0
 11
0.0
 21
0.0
 31
0.0
  0
LINE
  5
21
100
AcDbEntity
  8
0
  6
BYBLOCK
 62
     0
100
AcDbLine
 10
0.0
 20
0.0
 30
0.0
 11
-1.0
 21
-0.267949
 31
0.0
  0
LINE
  5
22
100
AcDbEntity
  8
0
  6
BYBLOCK
 62
     0
100
AcDbLine
 10
0.0
 20
0.0
 30
0.0
 11
-1.0
 21
0.0
 31
0.0
  0
ENDBLK
  5
23
100
AcDbEntity
  8
0
100
AcDbBlockEnd
  0
BLOCK
  5
25
100
AcDbEntity
  8
0
100
AcDbBlockBegin
  2
_BOXFILLED
 70
     0
 10
0.0
 20
0.0
 30
0.0
  3
_BOXFILLED
  1

  0
SOLID
  5
26
100
AcDbEntity
  8
0
  6
BYBLOCK
 62
     0
100
AcDbTrace
 10
-0.5
 20
0.5
 30
0.0
 11
0.5
 21
0.5
 31
0.0
 12
-0.5
 22
-0.5
 32
0.0
 13
0.5
 23
-0.5
 33
0.0
  0
LINE
  5
27
100
AcDbEntity
  8
0
  6
BYBLOCK
 62
     0
100
AcDbLine
 10
-0.5
 20
0.0
 30
0.0
 11
-1.0
 21
0.0
 31
0.0
  0
ENDBLK
  5
28
100
AcDbEntity
  8
0
100
AcDbBlockEnd
  0
BLOCK
  5
2A
100
AcDbEntity
  8
0
100
AcDbBlockBegin
  2
_BOXBLANK
 70
     0
 10
0.0
 20
0.0
 30
0.0
  3
_BOXBLANK
  1

  0
LINE
  5
2B
100
AcDbEntity
  8
0
  6
BYBLOCK
 62
     0
100
AcDbLine
 10
-0.5
 20
-0.5
 30
0.0
 11
0.5
 21
-0.5
 31
0.0
  0
LINE
  5
2C
100
AcDbEntity
  8
0
  6
BYBLOCK
 62
     0
100
AcDbLine
 10
0.5
 20
-0.5
 30
0.0
 11
0.5
 21
0.5
 31
0.0
  0
LINE
  5
2D
100
AcDbEntity
  8
0
  6
BYBLOCK
 62
     0
100
AcDbLine
 10
0.5
 20
0.5
 30
0.0
 11
-0.5
 21
0.5
 31
0.0
  0
LINE
  5
2E
100
AcDbEntity
  8
0
  6
BYBLOCK
 62
     0
100
AcDbLine
 10
-0.5
 20
0.5
 30
0.0
 11
-0.5
 21
-0.5
 31
0.0
  0
LINE
  5
2F
100
AcDbEntity
  8
0
  6
BYBLOCK
 62
     0
100
AcDbLine
 10
-0.5
 20
0.0
 30
0.0
 11
-1.0
 21
0.0
 31
0.0
  0
ENDBLK
  5
30
100
AcDbEntity
  8
0
100
AcDbBlockEnd
  0
BLOCK
  5
32
100
AcDbEntity
  8
0
100
AcDbBlockBegin
  2
_OBLIQUE
 70
     0
 10
0.0
 20
0.0
 30
0.0
  3
_OBLIQUE
  1

  0
LINE
  5
33
100
AcDbEntity
  8
0
  6
BYBLOCK
 62
     0
100
AcDbLine
 10
-0.5
 20
-0.5
 30
0.0
 11
0.5
 21
0.5
 31
0.0
  0
ENDBLK
  5
34
100
AcDbEntity
  8
0
100
AcDbBlockEnd
  0
BLOCK
  5
36
100
AcDbEntity
  8
0
100
AcDbBlockBegin
  2
_OPEN90
 70
     0
 10
0.0
 20
0.0
 30
0.0
  3
_OPEN90
  1

  0
LINE
  5
37
100
AcDbEntity
  8
0
  6
BYBLOCK
 62
     0
100
AcDbLine
 10
-0.5
 20
0.5
 30
0.0
 11
0.0
 21
0.0
 31
0.0
  0
LINE
  5
38
100
AcDbEntity
  8
0
  6
BYBLOCK
 62
     0
100
AcDbLine
 10
0.0
 20
0.0
 30
0.0
 11
-0.5
 21
-0.5
 31
0.0
  0
LINE
  5
39
100
AcDbEntity
  8
0
  6
BYBLOCK
 62
     0
100
AcDbLine
 10
0.0
 20
0.0
 30
0.0
 11
-1.0
 21
0.0
 31
0.0
  0
ENDBLK
  5
3A
100
AcDbEntity
  8
0
100
AcDbBlockEnd
  0
BLOCK
  5
3C
100
AcDbEntity
  8
0
100
AcDbBlockBegin
  2
_CLOSEDBLANK
 70
     0
 10
0.0
 20
0.0
 30
0.0
  3
_CLOSEDBLANK
  1

  0
LINE
  5
3D
100
AcDbEntity
  8
0
  6
BYBLOCK
 62
     0
100
AcDbLine
 10
-1.0
 20
0.1666666666666666
 30
0.0
 11
0.0
 21
0.0
 31
0.0
  0
LINE
  5
3E
100
AcDbEntity
  8
0
  6
BYBLOCK
 62
     0
100
AcDbLine
 10
0.0
 20
0.0
 30
0.0
 11
-1.0
 21
-0.1666666666666666
 31
0.0
  0
LINE
  5
3F
100
AcDbEntity
  8
0
  6
BYBLOCK
 62
     0
100
AcDbLine
 10
-1.0
 20
0.1666666666666666
 30
0.0
 11
-1.0
 21
-0.1666666666666666
 31
0.0
  0
ENDBLK
  5
40
100
AcDbEntity
  8
0
100
AcDbBlockEnd
  0
BLOCK
  5
42
100
AcDbEntity
  8
0
100
AcDbBlockBegin
  2
_DOTBLANK
 70
     0
 10
0.0
 20
0.0
 30
0.0
  3
_DOTBLANK
  1

  0
CIRCLE
  5
43
100
AcDbEntity
  8
0
  6
BYBLOCK
 62
     0
100
AcDbCircle
 10
0.0
 20
0.0
 30
0.0
 40
0.5
  0
LINE
  5
44
100
AcDbEntity
  8
0
  6
BYBLOCK
 62
     0
100
AcDbLine
 10
-0.5
 20
0.0
 30
0.0
 11
-1.0
 21
0.0
 31
0.0
  0
ENDBLK
  5
45
100
AcDbEntity
  8
0
100
AcDbBlockEnd
  0
ENDSEC
  0
SECTION
  2
ENTITIES
  0
MTEXT
  5
46
100
AcDbEntity
  8
A7
  6
CONTINUOUS
 62
3
100
AcDbMText
 10
9.999997526638502
 20
18.00000076076889
 30
0.000000000000000
 40
3.000000000000000
 41
0.000000000000000
 71
     7
 72
     1
  1
{\H0.94x;{TYPE No.TM-384-2329}}
 11
1.000000000000000
 21
0.000000000000000
 31
0.000000000000000
  7
STANDARD
  0
POINT
  5
47
100
AcDbEntity
  8
A0
  6
CONTINUOUS
 62
3
100
AcDbPoint
 10
9.999997526638502
 20
18.00000076076889
 30
0.000000000000000
  0
ARC
  5
48
100
AcDbEntity
  8
0
  6
CONTINUOUS
 62
7
100
AcDbCircle
 10
62.87453110258321
 20
115.0598072432982
 30
0.000000000000000
 40
30.50000000000000
100
AcDbArc
 50
228.6039333690480
 51
284.9999999999996
  0
ARC
  5
49
100
AcDbEntity
  8
0
  6
CONTINUOUS
 62
7
100
AcDbCircle
 10
43.69798041724427
 20
93.30526969793458
 30
0.000000000000000
 40
1.500000000000000
100
AcDbArc
 50
105.0000008261325
 51
228.6039333690485
  0
LINE
  5
4A
100
AcDbEntity
  8
0
  6
CONTINUOUS
 62
7
100
AcDbLine
 10
43.30975182869933
 20
94.75415843177049
 30
0.000000000000000
 11
63.92969673676980
 21
100.2792563365218
 31
0.000000000000000
  0
ARC
  5
4B
100
AcDbEntity
  8
0
  6
CONTINUOUS
 62
7
100
AcDbCircle
 10
63.15323955968000
 20
103.1770338041934
 30
0.000000000000000
 40
3.000000000000000
100
AcDbArc
 50
285.0000008261325
 51
348.6258723052320
  0
ARC
  5
4C
100
AcDbEntity
  8
0
  6
CONTINUOUS
 62
7
100
AcDbCircle
 10
37.66387102605385
 20
108.3046152766801
 30
0.000000000000000
 40
29.00000000000000
100
AcDbArc
 50
348.6258723052320
 51
401.3741404142960
  0
ARC
  5
4D
100
AcDbEntity
  8
0
  6
CONTINUOUS
 62
7
100
AcDbCircle
 10
57.17451715125780
 20
125.4899196899590
 30
0.000000000000000
 40
3.000000000000000
100
AcDbArc
 50
41.37414041429601
 51
105.0000007103574
  0
LINE
  5
4E
100
AcDbEntity
  8
0
  6
CONTINUOUS
 62
7
100
AcDbLine
 10
35.77810906951926
 20
122.8625976907583
 30
0.000000000000000
 11
56.39805998002340
 21
128.3876971591997
 31
0.000000000000000
  0
ARC
  5
4F
100
AcDbEntity
  8
0
  6
CONTINUOUS
 62
7
100
AcDbCircle
 10
35.38988048390205
 20
124.3114864253786
 30
0.000000000000000
 40
1.500000000000000
100
AcDbArc
 50
161.3960983573371
 51
285.0000007103566
  0
ARC
  5
50
100
AcDbEntity
  8
0
  6
CONTINUOUS
 62
7
100
AcDbCircle
 10
62.87453442998950
 20
115.0597948252538
 30
0.000000000000000
 40
30.50000000000000
100
AcDbArc
 50
105.0000000000089
 51
161.3960983573371
  0
ARC
  5
51
100
AcDbEntity
  8
0
  6
CONTINUOUS
 62
7
100
AcDbCircle
 10
174.6973746977463
 20
116.4056544200693
 30
0.000000000000000
 40
25.00000000000000
100
AcDbArc
 50
284.9999999999996
 51
341.2672976721026
  0
ARC
  5
52
100
AcDbEntity
  8
0
  6
CONTINUOUS
 62
7
100
AcDbCircle
 10
196.9525122372923
 20
108.8585454970519
 30
0.000000000000000
 40
1.500000000000000
100
AcDbArc
 50
341.2672976721026
 51
464.9999930354814
  0
LINE
  5
53
100
AcDbEntity
  8
0
  6
CONTINUOUS
 62
7
100
AcDbLine
 10
179.6158088456518
 20
105.7661063025226
 30
0.000000000000000
 11
196.5642838457564
 21
110.3074342836762
 31
0.000000000000000
  0
ARC
  5
54
100
AcDbEntity
  8
0
  6
CONTINUOUS
 62
7
100
AcDbCircle
 10
179.0981709902706
 20
107.6979580180215
 30
0.000000000000000
 40
2.000000000000000
100
AcDbArc
 50
222.0496112387320
 51
284.9999930354814
  0
ARC
  5
55
100
AcDbEntity
  8
0
  6
CONTINUOUS
 62
7
100
AcDbCircle
 10
194.6920393610870
 20
121.7632084329147
 30
0.000000000000000
 40
23.00000000000000
100
AcDbArc
 50
167.9503784570446
 51
222.0496112387320
  0
ARC
  5
56
100
AcDbEntity
  8
0
  6
CONTINUOUS
 62
7
100
AcDbCircle
 10
174.1547287896605
 20
126.1471421108775
 30
0.000000000000000
 40
2.000000000000000
100
AcDbArc
 50
104.9999931363237
 51
167.9503784570446
  0
LINE
  5
57
100
AcDbEntity
  8
0
  6
CONTINUOUS
 62
7
100
AcDbLine
 10
173.6370909308791
 20
128.0789938254653
 30
0.000000000000000
 11
190.5855643048378
 21
132.6203214028662
 31
0.000000000000000
  0
ARC
  5
58
100
AcDbEntity
  8
0
  6
CONTINUOUS
 62
7
100
AcDbCircle
 10
190.1973359107520
 20
134.0692101888073
 30
0.000000000000000
 40
1.500000000000000
100
AcDbArc
 50
284.9999931363229
 51
408.7326984336370
  0
ARC
  5
59
100
AcDbEntity
  8
0
  6
CONTINUOUS
 62
7
100
AcDbCircle
 10
174.6973746977463
 20
116.4056544200693
 30
0.000000000000000
 40
25.00000000000000
100
AcDbArc
 50
48.73269843363646
 51
104.9999958739017
  0
ARC
  5
5A
100
AcDbEntity
  8
0
  6
CONTINUOUS
 62
7
100
AcDbCircle
 10
96.76040351342890
 20
159.1664830295921
 30
0.000000000000000
 40
29.00000000000000
100
AcDbArc
 50
224.6534928473862
 51
267.8550937171493
  0
ARC
  5
5B
100
AcDbEntity
  8
0
  6
CONTINUOUS
 62
7
100
AcDbCircle
 10
95.59259069221240
 20
86.92068602022498
 30
0.000000000000000
 40
14.50000000000000
100
AcDbArc
 50
92.14490628285068
 51
147.0655264386262
  0
ARC
  5
5C
100
AcDbEntity
  8
0
  6
CONTINUOUS
 62
7
100
AcDbCircle
 10
148.2777109341783
 20
139.7247266531696
 30
0.000000000000000
 40
11.50000000000000
100
AcDbArc
 50
267.8550937171493
 51
325.6357522212603
  0
ARC
  5
5D
100
AcDbEntity
  8
0
  6
CONTINUOUS
 62
7
100
AcDbCircle
 10
147.7355345529228
 20
80.36764523427389
 30
0.000000000000000
 40
23.00000000000000
100
AcDbArc
 50
45.61652749299859
 51
92.14490628285068
  0
ARC
  5
5E
100
AcDbEntity
  8
0
  6
CONTINUOUS
 62
7
100
AcDbCircle
 10
172.7115007934944
 20
123.0169466357412
 30
0.000000000000000
 40
18.10000000000000
100
AcDbArc
 50
104.9999999999996
 51
145.6357522212603
  0
ARC
  5
5F
100
AcDbEntity
  8
0
  6
CONTINUOUS
 62
7
100
AcDbCircle
 10
65.12625853397989
 20
106.6562530205481
 30
0.000000000000000
 40
21.79999999999995
100
AcDbArc
 50
284.9999999999996
 51
327.0655264386255
  0
ARC
  5
60
100
AcDbEntity
  8
0
  6
CONTINUOUS
 62
7
100
AcDbCircle
 10
60.62280714919599
 20
123.4633623979778
 30
0.000000000000000
 40
21.79998714389416
100
AcDbArc
 50
44.65349284738561
 51
105.0000000000089
  0
ARC
  5
61
100
AcDbEntity
  8
0
  6
CONTINUOUS
 62
7
100
AcDbCircle
 10
176.4832260980983
 20
109.7407661243573
 30
0.000000000000000
 40
18.10000000000003
100
AcDbArc
 50
225.6165274929986
 51
284.9999999999996
  0
LINE
  5
62
100
AcDbEntity
  8
A0
  6
CONTINUOUS
 62
4
100
AcDbLine
 10
117.1350070601228
 20
112.9494057002325
 30
0.000000000000000
 11
109.1354965964042
 21
117.0757269108737
 31
0.000000000000000
  0
LINE
  5
63
100
AcDbEntity
  8
A0
  6
CONTINUOUS
 62
4
100
AcDbLine
 10
117.1350070601228
 20
112.9494057002325
 30
0.000000000000000
 11
115.8133859805432
 21
110.5433968566210
 31
0.000000000000000
  0
LINE
  5
64
100
AcDbEntity
  8
A0
  6
CONTINUOUS
 62
4
100
AcDbLine
 10
108.0398958299340
 20
115.0811876485055
 30
0.000000000000000
 11
115.8133859805432
 21
110.5433968566210
 31
0.000000000000000
  0
LINE
  5
65
100
AcDbEntity
  8
A0
  6
CONTINUOUS
 62
4
100
AcDbLine
 10
104.1298760398107
 20
119.6577346935713
 30
0.000000000000000
 11
103.1022130474198
 21
120.1878255812733
 31
0.000000000000000
  0
LINE
  5
66
100
AcDbEntity
  8
A0
  6
CONTINUOUS
 62
4
100
AcDbLine
 10
102.1770782917141
 20
118.5036193907453
 30
0.000000000000000
 11
103.1757054184273
 21
117.9206687608058
 31
0.000000000000000
  0
LINE
  5
67
100
AcDbEntity
  8
A0
  6
CONTINUOUS
 62
4
100
AcDbLine
 10
103.1022130474198
 20
120.1878255812733
 30
0.000000000000000
 11
102.1770782917141
 21
118.5036193907453
 31
0.000000000000000
  0
ARC
  5
68
100
AcDbEntity
  8
A0
  6
CONTINUOUS
 62
4
100
AcDbCircle
 10
108.0447090581939
 20
120.9180847438555
 30
0.000000000000000
 40
3.294117120000000
100
AcDbArc
 50
39.89631373650042
 51
61.21999999999971
  0
ARC
  5
69
100
AcDbEntity
  8
A0
  6
CONTINUOUS
 62
4
100
AcDbCircle
 10
109.2030401336016
 20
121.8864732360871
 30
0.000000000000000
 40
1.784313440000000
100
AcDbArc
 50
286.3645903992214
 51
399.8963137365004
  0
ARC
  5
6A
100
AcDbEntity
  8
A0
  6
CONTINUOUS
 62
4
100
AcDbCircle
 10
108.2406365961569
 20
122.4151216679190
 30
0.000000000000000
 40
1.784313440000000
100
AcDbArc
 50
82.54368626349984
 51
196.0754096007781
  0
ARC
  5
6B
100
AcDbEntity
  8
A0
  6
CONTINUOUS
 62
4
100
AcDbCircle
 10
108.0447090581939
 20
120.9180847438555
 30
0.000000000000000
 40
3.294117120000000
100
AcDbArc
 50
61.21999999999971
 51
82.54368626349984
  0
LINE
  5
6C
100
AcDbEntity
  8
A0
  6
CONTINUOUS
 62
4
100
AcDbLine
 10
106.0004625014834
 20
113.1148594630371
 30
0.000000000000000
 11
106.1554493931718
 21
111.7769349225387
 31
0.000000000000000
  0
LINE
  5
6D
100
AcDbEntity
  8
A0
  6
CONTINUOUS
 62
4
100
AcDbLine
 10
102.5557154613009
 20
115.0070596160884
 30
0.000000000000000
 11
101.3434317059489
 21
114.4201770816977
 31
0.000000000000000
  0
ARC
  5
6E
100
AcDbEntity
  8
A0
  6
CONTINUOUS
 62
4
100
AcDbCircle
 10
111.0606766222072
 20
114.7200487074808
 30
0.000000000000000
 40
8.509802559999999
100
AcDbArc
 50
122.1992957896548
 51
178.0672133260042
  0
ARC
  5
6F
100
AcDbEntity
  8
A0
  6
CONTINUOUS
 62
4
100
AcDbCircle
 10
101.1960403634001
 20
120.1386951337570
 30
0.000000000000000
 40
8.509802559999999
100
AcDbArc
 50
304.3727866739949
 51
360.1585277401801
  0
LINE
  5
70
100
AcDbEntity
  8
A0
  6
CONTINUOUS
 62
4
100
AcDbLine
 10
104.6948934805422
 20
110.5434344440861
 30
0.000000000000000
 11
106.1554493931719
 21
111.7769349225387
 31
0.000000000000000
  0
LINE
  5
71
100
AcDbEntity
  8
A0
  6
CONTINUOUS
 62
4
100
AcDbLine
 10
101.2434317059489
 20
114.4201770816977
 30
0.000000000000000
 11
100.9858802151251
 21
112.5258660634553
 31
0.000000000000000
  0
LINE
  5
72
100
AcDbEntity
  8
A0
  6
CONTINUOUS
 62
4
100
AcDbLine
 10
101.0858802151251
 20
112.5258660634554
 30
0.000000000000000
 11
104.6948934805423
 21
110.5434344440861
 31
0.000000000000000
  0
LINE
  5
73
100
AcDbEntity
  8
0
  6
CONTINUOUS
 62
7
100
AcDbLine
 10
33.88988048390202
 20
46.21875765837180
 30
0.000000000000000
 11
198.4521904554061
 21
46.21875765837174
 31
0.000000000000000
  0
MTEXT
  5
74
100
AcDbEntity
  8
A0
  6
CONTINUOUS
 62
4
100
AcDbMText
 10
156.4757470628506
 20
122.2865528935566
 30
0.000000000000000
 40
8.000000000000000
 41
0.000000000000000
 71
     7
 72
     1
  1
{\H0.88x;{23}}
 11
5.235983717104588e-08
 21
-0.9999999999999987
 31
0.000000000000000
  7
STANDARD
  0
MTEXT
  5
75
100
AcDbEntity
  8
A0
  6
CONTINUOUS
 62
4
100
AcDbMText
 10
83.67571932622771
 20
109.5246562363016
 30
0.000000000000000
 40
8.000000000000000
 41
0.000000000000000
 71
     7
 72
     1
  1
{\H0.88x;{29}}
 11
6.123233995736766e-17
 21
1.000000000000000
 31
0.000000000000000
  7
STANDARD
  0
LINE
  5
76
100
AcDbEntity
  8
0
  6
CONTINUOUS
 62
7
100
AcDbLine
 10
95.67502244244039
 20
130.1868013900237
 30
0.000000000000000
 11
147.8473011991311
 21
128.2327839340305
 31
0.000000000000000
  0
LINE
  5
77
100
AcDbEntity
  8
0
  6
CONTINUOUS
 62
7
100
AcDbLine
 10
95.04990015671821
 20
101.4105268400093
 30
0.000000000000000
 11
146.8747150828285
 21
103.3515306725523
 31
0.000000000000000
  0
LINE
  5
78
100
AcDbEntity
  8
0
  6
CONTINUOUS
 62
7
100
AcDbLine
 10
33.88988048390202
 20
44.21875765837181
 30
0.000000000000000
 11
33.88988048390202
 21
46.21875765837181
 31
0.000000000000000
  0
LINE
  5
79
100
AcDbEntity
  8
0
  6
CONTINUOUS
 62
7
100
AcDbLine
 10
42.19798041724424
 20
44.21875765837181
 30
0.000000000000000
 11
42.19798041724424
 21
46.21875765837181
 31
0.000000000000000
  0
LINE
  5
7A
100
AcDbEntity
  8
0
  6
CONTINUOUS
 62
7
100
AcDbLine
 10
198.4521904554060
 20
44.21875765837176
 30
0.000000000000000
 11
198.4521904554061
 21
46.21875765837176
 31
0.000000000000000
  0
LINE
  5
7B
100
AcDbEntity
  8
0
  6
CONTINUOUS
 62
7
100
AcDbLine
 10
33.88988048390202
 20
44.21875765837180
 30
0.000000000000000
 11
198.4521904554060
 21
44.21875765837174
 31
0.000000000000000
  0
LINE
  5
7C
100
AcDbEntity
  8
A4
  6
CENTER
 62
1
100
AcDbLine
 10
91.87269770828540
 20
115.8103705220159
 30
0.000000000000000
 11
98.87879286456690
 21
115.8103705220159
 31
0.000000000000000
  0
CIRCLE
  5
7D
100
AcDbEntity
  8
0
  6
CONTINUOUS
 62
7
100
AcDbCircle
 10
95.37574528642621
 20
115.8103705220159
 30
0.000000000000000
 40
2.150000000000000
  0
LINE
  5
7E
100
AcDbEntity
  8
A4
  6
CENTER
 62
1
100
AcDbLine
 10
95.37574528642621
 20
119.3134181001567
 30
0.000000000000000
 11
95.37574528642621
 21
112.3073229438751
 31
0.000000000000000
  0
LINE
  5
7F
100
AcDbEntity
  8
A4
  6
CENTER
 62
1
100
AcDbLine
 10
122.3757210652323
 20
119.3134181001566
 30
0.000000000000000
 11
122.3757210652323
 21
112.3073229438751
 31
0.000000000000000
  0
CIRCLE
  5
80
100
AcDbEntity
  8
0
  6
CONTINUOUS
 62
7
100
AcDbCircle
 10
122.3757210652323
 20
115.8103705220158
 30
0.000000000000000
 40
2.150000000000000
  0
CIRCLE
  5
81
100
AcDbEntity
  8
0
  6
CONTINUOUS
 62
7
100
AcDbCircle
 10
149.3757452864262
 20
115.8103705220159
 30
0.000000000000000
 40
2.150000000000000
  0
LINE
  5
82
100
AcDbEntity
  8
A4
  6
CENTER
 62
1
100
AcDbLine
 10
149.3757452864262
 20
119.3134181001567
 30
0.000000000000000
 11
149.3757452864262
 21
112.3073229438751
 31
0.000000000000000
  0
LINE
  5
83
100
AcDbEntity
  8
A4
  6
CENTER
 62
1
100
AcDbLine
 10
95.49482280159161
 20
48.55125122768150
 30
0.000000000000000
 11
95.49482280159161
 21
41.88626408906212
 31
0.000000000000000
  0
LINE
  5
84
100
AcDbEntity
  8
A4
  6
CENTER
 62
1
100
AcDbLine
 10
122.3947985803977
 20
48.55125122768150
 30
0.000000000000000
 11
122.3947985803978
 21
41.88626408906212
 31
0.000000000000000
  0
LINE
  5
85
100
AcDbEntity
  8
A4
  6
CENTER
 62
1
100
AcDbLine
 10
149.4948228015916
 20
48.55125122768150
 30
0.000000000000000
 11
149.4948228015916
 21
41.88626408906212
 31
0.000000000000000
  0
LINE
  5
86
100
AcDbEntity
  8
A4
  6
CENTER
 62
1
100
AcDbLine
 10
118.8726734870915
 20
115.8103705220159
 30
0.000000000000000
 11
125.8787686433731
 21
115.8103705220159
 31
0.000000000000000
  0
LINE
  5
87
100
AcDbEntity
  8
A4
  6
CENTER
 62
1
100
AcDbLine
 10
145.8726977082854
 20
115.8103705220159
 30
0.000000000000000
 11
152.8787928645669
 21
115.8103705220159
 31
0.000000000000000
  0
ENDSEC
  0
SECTION
  2
OBJECTS
  0
DICTIONARY
  5
B4
100
AcDbDictionary
  3
ACAD_GROUP
350
B5
  3
ACAD_MLINESTYLE
350
B6
  0
DICTIONARY
  5
B5
102
{ACAD_REACTORS
330
B4
102
}
100
AcDbDictionary
  0
DICTIONARY
  5
B6
102
{ACAD_REACTORS
330
B4
102
}
100
AcDbDictionary
  3
STANDARD
350
B7
  0
MLINESTYLE
  5
B7
102
{ACAD_REACTORS
330
B6
102
}
100
AcDbMlineStyle
  2
STANDARD
 70
     0
  3

 62
   256
 51
90.00
 52
90.00
 71
     2
 49
0.50
 62
   256
  6
BYLAYER
 49
-0.50
 62
   256
  6
BYLAYER
  0
ENDSEC
  0
EOF
