  0
SECTION
  2
HEADER
  9
$ACADVER
  1
AC1015
  9
$ACADMAINTVER
 70
    20
  9
$DWGCODEPAGE
  3
ANSI_932
  9
$INSBASE
 10
0.0
 20
0.0
 30
0.0
  9
$EXTMIN
 10
9.99995
 20
9.999999999999998
 30
0.0
  9
$EXTMAX
 10
524.5323289999999
 20
458.217133
 30
0.0
  9
$LIMMIN
 10
0.000002
 20
0.0
  9
$LIMMAX
 10
792.0000019999997
 20
546.0
  9
$ORTHOMODE
 70
     1
  9
$REGENMODE
 70
     1
  9
$FILLMODE
 70
     1
  9
$QTEXTMODE
 70
     0
  9
$MIRRTEXT
 70
     1
  9
$LTSCALE
 40
1.0
  9
$ATTMODE
 70
     1
  9
$TEXTSIZE
 40
2.5
  9
$TRACEWID
 40
1.0
  9
$TEXTSTYLE
  7
STANDARD
  9
$CLAYER
  8
0
  9
$CELTYPE
  6
BYLAYER
  9
$CECOLOR
 62
   256
  9
$CELTSCALE
 40
1.0
  9
$DISPSILH
 70
     0
  9
$DIMSCALE
 40
1.0
  9
$DIMASZ
 40
3.0
  9
$DIMEXO
 40
1.0
  9
$DIMDLI
 40
10.0
  9
$DIMRND
 40
0.0
  9
$DIMDLE
 40
0.0
  9
$DIMEXE
 40
1.0
  9
$DIMTP
 40
0.0
  9
$DIMTM
 40
0.0
  9
$DIMTXT
 40
3.2
  9
$DIMCEN
 40
0.0
  9
$DIMTSZ
 40
0.0
  9
$DIMTOL
 70
     0
  9
$DIMLIM
 70
     0
  9
$DIMTIH
 70
     0
  9
$DIMTOH
 70
     0
  9
$DIMSE1
 70
     0
  9
$DIMSE2
 70
     0
  9
$DIMTAD
 70
     3
  9
$DIMZIN
 70
     8
  9
$DIMBLK
  1

  9
$DIMASO
 70
     1
  9
$DIMSHO
 70
     1
  9
$DIMPOST
  1

  9
$DIMAPOST
  1

  9
$DIMALT
 70
     0
  9
$DIMALTD
 70
     2
  9
$DIMALTF
 40
25.4
  9
$DIMLFAC
 40
1.0
  9
$DIMTOFL
 70
     1
  9
$DIMTVP
 40
0.0
  9
$DIMTIX
 70
     0
  9
$DIMSOXD
 70
     0
  9
$DIMSAH
 70
     1
  9
$DIMBLK1
  1
OPEN
  9
$DIMBLK2
  1
OPEN
  9
$DIMSTYLE
  2
STANDARD
  9
$DIMCLRD
 70
     0
  9
$DIMCLRE
 70
     0
  9
$DIMCLRT
 70
     0
  9
$DIMTFAC
 40
1.0
  9
$DIMGAP
 40
1.0
  9
$DIMJUST
 70
     0
  9
$DIMSD1
 70
     0
  9
$DIMSD2
 70
     0
  9
$DIMTOLJ
 70
     1
  9
$DIMTZIN
 70
     0
  9
$DIMALTZ
 70
     0
  9
$DIMALTTZ
 70
     0
  9
$DIMUPT
 70
     0
  9
$DIMDEC
 70
     4
  9
$DIMTDEC
 70
     4
  9
$DIMALTU
 70
     2
  9
$DIMALTTD
 70
     2
  9
$DIMTXSTY
  7
STANDARD
  9
$DIMAUNIT
 70
     0
  9
$DIMADEC
 70
     0
  9
$DIMALTRND
 40
0.0
  9
$DIMAZIN
 70
     0
  9
$DIMDSEP
 70
    46
  9
$DIMATFIT
 70
     3
  9
$DIMFRAC
 70
     0
  9
$DIMLDRBLK
  1
OPEN
  9
$DIMLUNIT
 70
     2
  9
$DIMLWD
 70
    -2
  9
$DIMLWE
 70
    -2
  9
$DIMTMOVE
 70
     0
  9
$LUNITS
 70
     2
  9
$LUPREC
 70
     4
  9
$SKETCHINC
 40
1.0
  9
$FILLETRAD
 40
1.0
  9
$AUNITS
 70
     0
  9
$AUPREC
 70
     0
  9
$MENU
  1
.
  9
$ELEVATION
 40
0.0
  9
$PELEVATION
 40
0.0
  9
$THICKNESS
 40
0.0
  9
$LIMCHECK
 70
     0
  9
$CHAMFERA
 40
10.0
  9
$CHAMFERB
 40
10.0
  9
$CHAMFERC
 40
0.0
  9
$CHAMFERD
 40
0.0
  9
$SKPOLY
 70
     0
  9
$TDCREATE
 40
2451640.670942003
  9
$TDUCREATE
 40
2451640.295942003
  9
$TDUPDATE
 40
2457192.622543692
  9
$TDUUPDATE
 40
2457192.247543692
  9
$TDINDWG
 40
0.0732783796
  9
$TDUSRTIMER
 40
0.0732778935
  9
$USRTIMER
 70
     1
  9
$ANGBASE
 50
0.0
  9
$ANGDIR
 70
     0
  9
$PDMODE
 70
     0
  9
$PDSIZE
 40
0.0
  9
$PLINEWID
 40
0.0
  9
$SPLFRAME
 70
     0
  9
$SPLINETYPE
 70
     6
  9
$SPLINESEGS
 70
     8
  9
$HANDSEED
  5
123D
  9
$SURFTAB1
 70
     6
  9
$SURFTAB2
 70
     6
  9
$SURFTYPE
 70
     6
  9
$SURFU
 70
     6
  9
$SURFV
 70
     6
  9
$UCSBASE
  2

  9
$UCSNAME
  2

  9
$UCSORG
 10
0.0
 20
0.0
 30
0.0
  9
$UCSXDIR
 10
1.0
 20
0.0
 30
0.0
  9
$UCSYDIR
 10
0.0
 20
1.0
 30
0.0
  9
$UCSORTHOREF
  2

  9
$UCSORTHOVIEW
 70
     0
  9
$UCSORGTOP
 10
0.0
 20
0.0
 30
0.0
  9
$UCSORGBOTTOM
 10
0.0
 20
0.0
 30
0.0
  9
$UCSORGLEFT
 10
0.0
 20
0.0
 30
0.0
  9
$UCSORGRIGHT
 10
0.0
 20
0.0
 30
0.0
  9
$UCSORGFRONT
 10
0.0
 20
0.0
 30
0.0
  9
$UCSORGBACK
 10
0.0
 20
0.0
 30
0.0
  9
$PUCSBASE
  2

  9
$PUCSNAME
  2

  9
$PUCSORG
 10
0.0
 20
0.0
 30
0.0
  9
$PUCSXDIR
 10
1.0
 20
0.0
 30
0.0
  9
$PUCSYDIR
 10
0.0
 20
1.0
 30
0.0
  9
$PUCSORTHOREF
  2

  9
$PUCSORTHOVIEW
 70
     0
  9
$PUCSORGTOP
 10
0.0
 20
0.0
 30
0.0
  9
$PUCSORGBOTTOM
 10
0.0
 20
0.0
 30
0.0
  9
$PUCSORGLEFT
 10
0.0
 20
0.0
 30
0.0
  9
$PUCSORGRIGHT
 10
0.0
 20
0.0
 30
0.0
  9
$PUCSORGFRONT
 10
0.0
 20
0.0
 30
0.0
  9
$PUCSORGBACK
 10
0.0
 20
0.0
 30
0.0
  9
$USERI1
 70
     0
  9
$USERI2
 70
     0
  9
$USERI3
 70
     0
  9
$USERI4
 70
     0
  9
$USERI5
 70
     0
  9
$USERR1
 40
0.0
  9
$USERR2
 40
0.0
  9
$USERR3
 40
0.0
  9
$USERR4
 40
0.0
  9
$USERR5
 40
0.0
  9
$WORLDVIEW
 70
     1
  9
$SHADEDGE
 70
     3
  9
$SHADEDIF
 70
    70
  9
$TILEMODE
 70
     1
  9
$MAXACTVP
 70
    48
  9
$PINSBASE
 10
0.0
 20
0.0
 30
0.0
  9
$PLIMCHECK
 70
     0
  9
$PEXTMIN
 10
1.000000000000000E+20
 20
1.000000000000000E+20
 30
1.000000000000000E+20
  9
$PEXTMAX
 10
-1.000000000000000E+20
 20
-1.000000000000000E+20
 30
-1.000000000000000E+20
  9
$PLIMMIN
 10
0.0
 20
0.0
  9
$PLIMMAX
 10
420.0
 20
297.0
  9
$UNITMODE
 70
     0
  9
$VISRETAIN
 70
     1
  9
$PLINEGEN
 70
     0
  9
$PSLTSCALE
 70
     1
  9
$TREEDEPTH
 70
  3020
  9
$CMLSTYLE
  2
STANDARD
  9
$CMLJUST
 70
     0
  9
$CMLSCALE
 40
1.0
  9
$PROXYGRAPHICS
 70
     1
  9
$MEASUREMENT
 70
     0
  9
$CELWEIGHT
370
    -1
  9
$ENDCAPS
280
     0
  9
$JOINSTYLE
280
     0
  9
$LWDISPLAY
290
     0
  9
$INSUNITS
 70
     0
  9
$HYPERLINKBASE
  1

  9
$STYLESHEET
  1

  9
$XEDIT
290
     1
  9
$CEPSNTYPE
380
     0
  9
$PSTYLEMODE
290
     1
  9
$FINGERPRINTGUID
  2
{56A8B8FD-08A1-404F-B15D-F4CAD731C5DC}
  9
$VERSIONGUID
  2
{51201460-2D5A-4C72-9770-682F30A756F6}
  9
$EXTNAMES
290
     1
  9
$PSVPSCALE
 40
0.0
  9
$OLESTARTUP
290
     0
  0
ENDSEC
  0
SECTION
  2
CLASSES
  0
CLASS
  1
ACDBDICTIONARYWDFLT
  2
AcDbDictionaryWithDefault
  3
ObjectDBX Classes
 90
        0
280
     0
281
     0
  0
CLASS
  1
ACDBPLACEHOLDER
  2
AcDbPlaceHolder
  3
ObjectDBX Classes
 90
        0
280
     0
281
     0
  0
CLASS
  1
LAYOUT
  2
AcDbLayout
  3
ObjectDBX Classes
 90
        0
280
     0
281
     0
  0
CLASS
  1
DICTIONARYVAR
  2
AcDbDictionaryVar
  3
ObjectDBX Classes
 90
        0
280
     0
281
     0
  0
CLASS
  1
MATERIAL
  2
AcDbMaterial
  3
ObjectDBX Classes
 90
     1153
280
     0
281
     0
  0
CLASS
  1
VISUALSTYLE
  2
AcDbVisualStyle
  3
ObjectDBX Classes
 90
     4095
280
     0
281
     0
  0
CLASS
  1
TABLESTYLE
  2
AcDbTableStyle
  3
ObjectDBX Classes
 90
     4095
280
     0
281
     0
  0
CLASS
  1
SCALE
  2
AcDbScale
  3
ObjectDBX Classes
 90
     1153
280
     0
281
     0
  0
CLASS
  1
MLEADERSTYLE
  2
AcDbMLeaderStyle
  3
ACDB_MLEADERSTYLE_CLASS
 90
     4095
280
     0
281
     0
  0
CLASS
  1
ACDBSECTIONVIEWSTYLE
  2
AcDbSectionViewStyle
  3
ObjectDBX Classes
 90
     1025
280
     0
281
     0
  0
CLASS
  1
ACDBDETAILVIEWSTYLE
  2
AcDbDetailViewStyle
  3
ObjectDBX Classes
 90
     1025
280
     0
281
     0
  0
CLASS
  1
CELLSTYLEMAP
  2
AcDbCellStyleMap
  3
ObjectDBX Classes
 90
     1152
280
     0
281
     0
  0
ENDSEC
  0
SECTION
  2
TABLES
  0
TABLE
  2
VPORT
  5
83B
330
0
100
AcDbSymbolTable
 70
     1
  0
VPORT
  5
1188
330
83B
100
AcDbSymbolTableRecord
100
AcDbViewportTableRecord
  2
*ACTIVE
 70
     0
 10
0.0
 20
0.0
 11
1.0
 21
1.0
 12
451.7590883762403
 22
234.1136639457121
 13
0.0
 23
0.0
 14
10.0
 24
10.0
 15
10.0
 25
10.0
 16
0.0
 26
0.0
 36
1.0
 17
0.0
 27
0.0
 37
0.0
 40
451.7519419262872
 41
1.899603698811096
 42
50.0
 43
0.0
 44
0.0
 50
0.0
 51
0.0
 71
     0
 72
   100
 73
     1
 74
     0
 75
     0
 76
     0
 77
     0
 78
     0
281
     0
 65
     1
110
0.0
120
0.0
130
0.0
111
1.0
121
0.0
131
0.0
112
0.0
122
1.0
132
0.0
 79
     0
146
0.0
1001
ACAD_NAV_VCDISPLAY
1070
     3
  0
ENDTAB
  0
TABLE
  2
LTYPE
  5
838
330
0
100
AcDbSymbolTable
 70
     4
  0
LTYPE
  5
846
330
838
100
AcDbSymbolTableRecord
100
AcDbLinetypeTableRecord
  2
BYBLOCK
 70
     0
  3

 72
    65
 73
     0
 40
0.0
  0
LTYPE
  5
847
330
838
100
AcDbSymbolTableRecord
100
AcDbLinetypeTableRecord
  2
BYLAYER
 70
     0
  3

 72
    65
 73
     0
 40
0.0
  0
LTYPE
  5
848
330
838
100
AcDbSymbolTableRecord
100
AcDbLinetypeTableRecord
  2
CONTINUOUS
 70
     0
  3
Solid line
 72
    65
 73
     0
 40
0.0
  0
LTYPE
  5
856
330
838
100
AcDbSymbolTableRecord
100
AcDbLinetypeTableRecord
  2
DASHED
 70
     0
  3
Dashed __ __ __ __ __ __ __ __ __ __ __ __ __ _
 72
    65
 73
     2
 40
19.05
 49
12.7
 74
     0
 49
-6.349999999999997
 74
     0
  0
LTYPE
  5
857
330
838
100
AcDbSymbolTableRecord
100
AcDbLinetypeTableRecord
  2
CENTER
 70
     0
  3
Center ____ _ ____ _ ____ _ ____ _ ____ _ ____
 72
    65
 73
     4
 40
50.8
 49
31.75
 74
     0
 49
-6.349999999999997
 74
     0
 49
6.349999999999997
 74
     0
 49
-6.349999999999997
 74
     0
  0
LTYPE
  5
858
330
838
100
AcDbSymbolTableRecord
100
AcDbLinetypeTableRecord
  2
PHANTOM
 70
     0
  3
Phantom ______  __  __  ______  __  __  ______
 72
    65
 73
     6
 40
63.5
 49
31.75
 74
     0
 49
-6.349999999999997
 74
     0
 49
6.349999999999997
 74
     0
 49
-6.349999999999997
 74
     0
 49
6.349999999999997
 74
     0
 49
-6.349999999999997
 74
     0
  0
ENDTAB
  0
TABLE
  2
LAYER
  5
835
330
0
100
AcDbSymbolTable
 70
     8
  0
LAYER
  5
843
102
{ACAD_XDICTIONARY
360
11E1
102
}
330
835
100
AcDbSymbolTableRecord
100
AcDbLayerTableRecord
  2
0
 70
     0
 62
     7
  6
CONTINUOUS
370
    -3
390
118F
  0
LAYER
  5
859
102
{ACAD_XDICTIONARY
360
11E3
102
}
330
835
100
AcDbSymbolTableRecord
100
AcDbLayerTableRecord
  2
4
 70
     0
 62
     1
  6
CENTER
370
    -3
390
118F
  0
LAYER
  5
85A
102
{ACAD_XDICTIONARY
360
11E5
102
}
330
835
100
AcDbSymbolTableRecord
100
AcDbLayerTableRecord
  2
5
 70
     0
 62
     6
  6
PHANTOM
370
    -3
390
118F
  0
LAYER
  5
85B
102
{ACAD_XDICTIONARY
360
11E7
102
}
330
835
100
AcDbSymbolTableRecord
100
AcDbLayerTableRecord
  2
1
 70
     0
 62
     7
  6
CONTINUOUS
370
    -3
390
118F
  0
LAYER
  5
85C
102
{ACAD_XDICTIONARY
360
11E9
102
}
330
835
100
AcDbSymbolTableRecord
100
AcDbLayerTableRecord
  2
2
 70
     0
 62
     4
  6
CONTINUOUS
370
    -3
390
118F
  0
LAYER
  5
85D
102
{ACAD_XDICTIONARY
360
11EB
102
}
330
835
100
AcDbSymbolTableRecord
100
AcDbLayerTableRecord
  2
3
 70
     0
 62
     2
  6
DASHED
370
    -3
390
118F
  0
LAYER
  5
85E
102
{ACAD_XDICTIONARY
360
11ED
102
}
330
835
100
AcDbSymbolTableRecord
100
AcDbLayerTableRecord
  2
6
 70
     0
 62
     5
  6
CONTINUOUS
370
    -3
390
118F
  0
LAYER
  5
85F
102
{ACAD_XDICTIONARY
360
11EF
102
}
330
835
100
AcDbSymbolTableRecord
100
AcDbLayerTableRecord
  2
7
 70
     0
 62
     3
  6
CONTINUOUS
370
    -3
390
118F
  0
ENDTAB
  0
TABLE
  2
STYLE
  5
836
330
0
100
AcDbSymbolTable
 70
     1
  0
STYLE
  5
844
330
836
100
AcDbSymbolTableRecord
100
AcDbTextStyleTableRecord
  2
STANDARD
 70
     0
 40
0.0
 41
1.0
 50
0.0
 71
     0
 42
2.5
  3
txt
  4

  0
ENDTAB
  0
TABLE
  2
VIEW
  5
839
330
0
100
AcDbSymbolTable
 70
     0
  0
ENDTAB
  0
TABLE
  2
UCS
  5
83A
330
0
100
AcDbSymbolTable
 70
     0
  0
ENDTAB
  0
TABLE
  2
APPID
  5
83C
330
0
100
AcDbSymbolTable
 70
     7
  0
APPID
  5
845
330
83C
100
AcDbSymbolTableRecord
100
AcDbRegAppTableRecord
  2
ACAD
 70
     0
  0
APPID
  5
860
330
83C
100
AcDbSymbolTableRecord
100
AcDbRegAppTableRecord
  2
CONTENTTABDATA
 70
     0
  0
APPID
  5
861
330
83C
100
AcDbSymbolTableRecord
100
AcDbRegAppTableRecord
  2
CONTENTCURRENTTAB
 70
     0
  0
APPID
  5
862
330
83C
100
AcDbSymbolTableRecord
100
AcDbRegAppTableRecord
  2
CONTENTBLOCKDESCRIPTION
 70
     0
  0
APPID
  5
863
330
83C
100
AcDbSymbolTableRecord
100
AcDbRegAppTableRecord
  2
CONTENTBLOCKICON
 70
     0
  0
APPID
  5
11FB
330
83C
100
AcDbSymbolTableRecord
100
AcDbRegAppTableRecord
  2
ACAD_NAV_VCDISPLAY
 70
     0
  0
APPID
  5
1234
330
83C
100
AcDbSymbolTableRecord
100
AcDbRegAppTableRecord
  2
ACAD_MLEADERVER
 70
     0
  0
ENDTAB
  0
TABLE
  2
DIMSTYLE
  5
83D
330
0
100
AcDbSymbolTable
 70
     1
100
AcDbDimStyleTable
 71
     0
  0
DIMSTYLE
105
864
330
83D
100
AcDbSymbolTableRecord
100
AcDbDimStyleTableRecord
  2
STANDARD
 70
     0
 41
3.0
 42
1.0
 43
10.0
 44
1.0
 73
     0
 74
     0
 77
     3
 78
     8
140
3.2
141
0.0
147
1.0
172
     1
173
     1
284
     8
285
     8
286
     8
340
844
  0
ENDTAB
  0
TABLE
  2
BLOCK_RECORD
  5
834
330
0
100
AcDbSymbolTable
 70
     1
  0
BLOCK_RECORD
  5
851
102
{ACAD_XDICTIONARY
360
A52
102
}
330
834
100
AcDbSymbolTableRecord
100
AcDbBlockTableRecord
  2
*MODEL_SPACE
340
11DD
  0
BLOCK_RECORD
  5
84D
102
{ACAD_XDICTIONARY
360
A50
102
}
330
834
100
AcDbSymbolTableRecord
100
AcDbBlockTableRecord
  2
*PAPER_SPACE
340
11DE
  0
BLOCK_RECORD
  5
86C
330
834
100
AcDbSymbolTableRecord
100
AcDbBlockTableRecord
  2
_OPEN
340
0
  0
ENDTAB
  0
ENDSEC
  0
SECTION
  2
BLOCKS
  0
BLOCK
  5
852
330
851
100
AcDbEntity
  8
0
100
AcDbBlockBegin
  2
*MODEL_SPACE
 70
     0
 10
0.0
 20
0.0
 30
0.0
  3
*MODEL_SPACE
  1

  0
ENDBLK
  5
853
330
851
100
AcDbEntity
  8
0
100
AcDbBlockEnd
  0
BLOCK
  5
84E
330
84D
100
AcDbEntity
 67
     1
  8
0
100
AcDbBlockBegin
  2
*PAPER_SPACE
 70
     0
 10
0.0
 20
0.0
 30
0.0
  3
*PAPER_SPACE
  1

  0
ENDBLK
  5
84F
330
84D
100
AcDbEntity
 67
     1
  8
0
100
AcDbBlockEnd
  0
BLOCK
  5
86D
330
86C
100
AcDbEntity
  8
0
100
AcDbBlockBegin
  2
_OPEN
 70
     0
 10
0.0
 20
0.0
 30
0.0
  3
_OPEN
  1

  0
LINE
  5
86E
330
86C
100
AcDbEntity
  8
0
  6
ByBlock
 62
     0
100
AcDbLine
 10
-1.0
 20
0.166667
 30
0.0
 11
0.0
 21
0.0
 31
0.0
  0
LINE
  5
86F
330
86C
100
AcDbEntity
  8
0
  6
ByBlock
 62
     0
100
AcDbLine
 10
0.0
 20
0.0
 30
0.0
 11
-1.0
 21
-0.166667
 31
0.0
  0
LINE
  5
870
330
86C
100
AcDbEntity
  8
0
  6
ByBlock
 62
     0
100
AcDbLine
 10
0.0
 20
0.0
 30
0.0
 11
-1.0
 21
0.0
 31
0.0
  0
ENDBLK
  5
871
330
86C
100
AcDbEntity
  8
0
100
AcDbBlockEnd
  0
ENDSEC
  0
SECTION
  2
ENTITIES
  0
LINE
  5
872
330
851
100
AcDbEntity
  8
5
  6
PHANTOM
 48
0.1
100
AcDbLine
 10
38.599998
 20
334.554993
 30
0.0
 11
38.599998
 21
325.6549989999998
 31
0.0
  0
LINE
  5
873
330
851
100
AcDbEntity
  8
4
  6
CENTER
 48
0.2
100
AcDbLine
 10
50.59999799999999
 20
318.054993
 30
0.0
 11
36.599998
 21
318.054993
 31
0.0
  0
LINE
  5
874
330
851
100
AcDbEntity
  8
5
  6
PHANTOM
 48
0.1
100
AcDbLine
 10
48.599998
 20
334.554993
 30
0.0
 11
48.599998
 21
325.6549989999998
 31
0.0
  0
LINE
  5
875
330
851
100
AcDbEntity
  8
1
  6
Continuous
100
AcDbLine
 10
178.3904419999998
 20
323.054993
 30
0.0
 11
181.3904419999999
 21
323.054993
 31
0.0
  0
LINE
  5
876
330
851
100
AcDbEntity
  8
1
  6
Continuous
100
AcDbLine
 10
176.7904509999999
 20
168.0550079999999
 30
0.0
 11
181.3904419999999
 21
168.0550079999999
 31
0.0
  0
LINE
  5
877
330
851
100
AcDbEntity
  8
1
  6
Continuous
100
AcDbLine
 10
178.3904419999998
 20
323.054993
 30
0.0
 11
178.3904419999998
 21
217.855002
 31
0.0
  0
LINE
  5
878
330
851
100
AcDbEntity
  8
1
  6
Continuous
100
AcDbLine
 10
181.3904419999999
 20
323.054993
 30
0.0
 11
181.3904419999999
 21
217.855002
 31
0.0
  0
LINE
  5
879
330
851
100
AcDbEntity
  8
1
  6
Continuous
100
AcDbLine
 10
516.2095339999998
 20
323.054993
 30
0.0
 11
516.2095339999998
 21
217.4550079999999
 31
0.0
  0
LINE
  5
87A
330
851
100
AcDbEntity
  8
1
  6
Continuous
100
AcDbLine
 10
519.2095339999998
 20
323.054993
 30
0.0
 11
519.2095339999998
 21
217.4550079999999
 31
0.0
  0
LINE
  5
87B
330
851
100
AcDbEntity
  8
1
  6
Continuous
100
AcDbLine
 10
520.80957
 20
168.0550079999999
 30
0.0
 11
516.2095339999998
 21
168.0550079999999
 31
0.0
  0
LINE
  5
87D
330
851
100
AcDbEntity
  8
4
  6
CENTER
 48
0.1
100
AcDbLine
 10
176.3904419999998
 20
318.054993
 30
0.0
 11
186.4904479999999
 21
318.054993
 31
0.0
  0
LINE
  5
87E
330
851
100
AcDbEntity
  8
4
  6
CENTER
 48
0.2
100
AcDbLine
 10
522.209534
 20
318.054993
 30
0.0
 11
511.1095579999997
 21
318.054993
 31
0.0
  0
LINE
  5
87F
330
851
100
AcDbEntity
  8
1
  6
Continuous
100
AcDbLine
 10
333.3808899999999
 20
174.4550079999999
 30
0.0
 11
333.3808899999999
 21
168.0550079999999
 31
0.0
  0
LINE
  5
880
330
851
100
AcDbEntity
  8
1
  6
Continuous
100
AcDbLine
 10
343.3808899999998
 20
325.6549989999998
 30
0.0
 11
343.3808899999998
 21
217.3915
 31
0.0
  0
LINE
  5
881
330
851
100
AcDbEntity
  8
4
  6
CENTER
 48
0.1
100
AcDbLine
 10
334.3808899999999
 20
318.054993
 30
0.0
 11
342.3808899999999
 21
318.054993
 31
0.0
  0
LINE
  5
882
330
851
100
AcDbEntity
  8
1
  6
Continuous
100
AcDbLine
 10
343.180878
 20
168.0550079999999
 30
0.0
 11
324.5809019999998
 21
168.0550079999999
 31
0.0
  0
LINE
  5
883
330
851
100
AcDbEntity
  8
1
  6
Continuous
100
AcDbLine
 10
333.3808899999999
 20
325.6549989999998
 30
0.0
 11
333.3808899999999
 21
216.0550079999999
 31
0.0
  0
LINE
  5
884
330
851
100
AcDbEntity
  8
1
  6
Continuous
100
AcDbLine
 10
181.8904419999999
 20
434.617157
 30
0.0
 11
183.4904479999999
 21
434.617157
 31
0.0
  0
LINE
  5
885
330
851
100
AcDbEntity
  8
4
  6
CENTER
 48
0.2
100
AcDbLine
 10
171.2904509999999
 20
439.6171569999999
 30
0.0
 11
186.4904479999999
 21
439.6171569999999
 31
0.0
  0
LINE
  5
886
330
851
100
AcDbEntity
  8
1
  6
Continuous
100
AcDbLine
 10
177.3904419999998
 20
315.054993
 30
0.0
 11
177.3904419999998
 21
321.054993
 31
0.0
  0
LINE
  5
887
330
851
100
AcDbEntity
  8
1
  6
Continuous
100
AcDbLine
 10
177.3904419999998
 20
315.054993
 30
0.0
 11
178.3904419999998
 21
315.054993
 31
0.0
  0
LINE
  5
888
330
851
100
AcDbEntity
  8
1
  6
Continuous
100
AcDbLine
 10
177.3904419999998
 20
321.054993
 30
0.0
 11
178.3904419999998
 21
321.054993
 31
0.0
  0
LINE
  5
889
330
851
100
AcDbEntity
  8
1
  6
Continuous
100
AcDbLine
 10
181.3904419999999
 20
314.054993
 30
0.0
 11
181.8904419999999
 21
314.054993
 31
0.0
  0
LINE
  5
88A
330
851
100
AcDbEntity
  8
1
  6
Continuous
100
AcDbLine
 10
181.3904419999999
 20
322.054993
 30
0.0
 11
181.8904419999999
 21
322.054993
 31
0.0
  0
LINE
  5
88B
330
851
100
AcDbEntity
  8
1
  6
Continuous
100
AcDbLine
 10
352.3808899999999
 20
324.054993
 30
0.0
 11
352.3808899999999
 21
325.6549989999998
 31
0.0
  0
LINE
  5
88C
330
851
100
AcDbEntity
  8
1
  6
Continuous
100
AcDbLine
 10
324.3808899999998
 20
324.054993
 30
0.0
 11
324.3808899999998
 21
325.6549989999998
 31
0.0
  0
LINE
  5
88D
330
851
100
AcDbEntity
  8
1
  6
Continuous
100
AcDbLine
 10
324.3808899999998
 20
325.6549989999998
 30
0.0
 11
352.3808899999999
 21
325.6549989999998
 31
0.0
  0
LINE
  5
88E
330
851
100
AcDbEntity
  8
1
  6
Continuous
100
AcDbLine
 10
324.3808899999998
 20
324.054993
 30
0.0
 11
333.3808899999999
 21
324.054993
 31
0.0
  0
LINE
  5
88F
330
851
100
AcDbEntity
  8
4
  6
CENTER
 48
0.5
100
AcDbLine
 10
338.3808899999999
 20
162.955002
 30
0.0
 11
338.3808899999999
 21
327.6549989999998
 31
0.0
  0
LINE
  5
890
330
851
100
AcDbEntity
  8
4
  6
CENTER
 48
0.5
100
AcDbLine
 10
78.0
 20
201.0550079999999
 30
0.0
 11
23.0
 21
201.0550079999999
 31
0.0
  0
LINE
  5
891
330
851
100
AcDbEntity
  8
1
  6
Continuous
100
AcDbLine
 10
67.0
 20
210.055008
 30
0.0
 11
65.69999799999997
 21
210.055008
 31
0.0
  0
LINE
  5
892
330
851
100
AcDbEntity
  8
1
  6
Continuous
100
AcDbLine
 10
67.0
 20
192.0550079999999
 30
0.0
 11
65.69999799999997
 21
192.0550079999999
 31
0.0
  0
LINE
  5
8A2
330
851
100
AcDbEntity
  8
1
  6
Continuous
100
AcDbLine
 10
184.590439
 20
210.055008
 30
0.0
 11
184.590439
 21
192.0550079999999
 31
0.0
  0
LINE
  5
8A3
330
851
100
AcDbEntity
  8
1
  6
Continuous
100
AcDbLine
 10
184.590439
 20
210.055008
 30
0.0
 11
188.0904389999997
 21
210.055008
 31
0.0
  0
LINE
  5
8A4
330
851
100
AcDbEntity
  8
1
  6
Continuous
100
AcDbLine
 10
184.590439
 20
192.0550079999999
 30
0.0
 11
188.0904389999997
 21
192.0550079999999
 31
0.0
  0
LINE
  5
8A5
330
851
100
AcDbEntity
  8
1
  6
Continuous
100
AcDbLine
 10
188.0904389999997
 20
210.055008
 30
0.0
 11
188.0904389999997
 21
192.0550079999999
 31
0.0
  0
LINE
  5
8A6
330
851
100
AcDbEntity
  8
1
  6
Continuous
100
AcDbLine
 10
187.0904419999997
 20
210.055008
 30
0.0
 11
187.0904419999997
 21
192.0550079999999
 31
0.0
  0
LINE
  5
8A7
330
851
100
AcDbEntity
  8
1
  6
Continuous
100
AcDbLine
 10
314.8808959999998
 20
192.0550079999999
 30
0.0
 11
347.9808959999999
 21
192.0550079999999
 31
0.0
  0
LINE
  5
8A8
330
851
100
AcDbEntity
  8
4
  6
CENTER
 48
0.5
100
AcDbLine
 10
303.9808959999998
 20
201.0550079999999
 30
0.0
 11
358.9808959999999
 21
201.0550079999999
 31
0.0
  0
LINE
  5
8A9
330
851
100
AcDbEntity
  8
1
  6
Continuous
100
AcDbLine
 10
320.9808959999998
 20
210.055008
 30
0.0
 11
320.9808959999998
 21
192.0550079999999
 31
0.0
  0
LINE
  5
8AA
330
851
100
AcDbEntity
  8
1
  6
Continuous
100
AcDbLine
 10
334.9808959999998
 20
210.055008
 30
0.0
 11
334.9808959999998
 21
192.0550079999999
 31
0.0
  0
LINE
  5
8AB
330
851
100
AcDbEntity
  8
1
  6
Continuous
100
AcDbLine
 10
314.8808959999998
 20
210.055008
 30
0.0
 11
347.9808959999999
 21
210.055008
 31
0.0
  0
LINE
  5
8AC
330
851
100
AcDbEntity
  8
1
  6
Continuous
100
AcDbLine
 10
513.009583
 20
210.055008
 30
0.0
 11
509.5095519999999
 21
210.055008
 31
0.0
  0
LINE
  5
8AD
330
851
100
AcDbEntity
  8
1
  6
Continuous
100
AcDbLine
 10
509.5095519999999
 20
210.055008
 30
0.0
 11
509.5095519999999
 21
192.0550079999999
 31
0.0
  0
LINE
  5
8AE
330
851
100
AcDbEntity
  8
1
  6
Continuous
100
AcDbLine
 10
510.5095639999998
 20
210.055008
 30
0.0
 11
510.5095639999998
 21
192.0550079999999
 31
0.0
  0
LINE
  5
8AF
330
851
100
AcDbEntity
  8
1
  6
Continuous
100
AcDbLine
 10
513.009583
 20
192.0550079999999
 30
0.0
 11
509.5095519999999
 21
192.0550079999999
 31
0.0
  0
LINE
  5
8B0
330
851
100
AcDbEntity
  8
1
  6
Continuous
100
AcDbLine
 10
513.009583
 20
210.055008
 30
0.0
 11
513.009583
 21
192.0550079999999
 31
0.0
  0
LINE
  5
8B1
330
851
100
AcDbEntity
  8
1
  6
Continuous
100
AcDbLine
 10
344.8808899999999
 20
174.4550079999999
 30
0.0
 11
344.8808899999999
 21
192.0550079999999
 31
0.0
  0
LINE
  5
8B2
330
851
100
AcDbEntity
  8
1
  6
Continuous
100
AcDbLine
 10
344.8808899999999
 20
174.4550079999999
 30
0.0
 11
316.3808959999999
 21
174.4550079999999
 31
0.0
  0
LINE
  5
8B3
330
851
100
AcDbEntity
  8
1
  6
Continuous
100
AcDbLine
 10
344.8808899999999
 20
217.4550079999999
 30
0.0
 11
343.8808899999998
 21
217.4550079999999
 31
0.0
  0
LINE
  5
8B4
330
851
100
AcDbEntity
  8
1
  6
Continuous
100
AcDbLine
 10
316.3808959999999
 20
174.4550079999999
 30
0.0
 11
316.3808959999999
 21
192.0550079999999
 31
0.0
  0
LINE
  5
8B5
330
851
100
AcDbEntity
  8
1
  6
Continuous
100
AcDbLine
 10
341.8808899999999
 20
176.455008
 30
0.0
 11
341.8808899999999
 21
192.0550079999999
 31
0.0
  0
LINE
  5
8B6
330
851
100
AcDbEntity
  8
1
  6
Continuous
100
AcDbLine
 10
344.4808959999999
 20
217.855002
 30
0.0
 11
343.3808899999998
 21
217.855002
 31
0.0
  0
LINE
  5
8B7
330
851
100
AcDbEntity
  8
1
  6
Continuous
100
AcDbLine
 10
344.4808959999999
 20
217.4550079999999
 30
0.0
 11
344.4808959999999
 21
217.855002
 31
0.0
  0
LINE
  5
8B8
330
851
100
AcDbEntity
  8
1
  6
Continuous
100
AcDbLine
 10
316.7808899999998
 20
210.055008
 30
0.0
 11
316.7808899999998
 21
217.855002
 31
0.0
  0
LINE
  5
8B9
330
851
100
AcDbEntity
  8
1
  6
Continuous
100
AcDbLine
 10
330.9808959999998
 20
213.855002
 30
0.0
 11
318.7808899999998
 21
213.855002
 31
0.0
  0
LINE
  5
8BA
330
851
100
AcDbEntity
  8
1
  6
Continuous
100
AcDbLine
 10
332.9808959999998
 20
215.855002
 30
0.0
 11
332.9808959999998
 21
217.855002
 31
0.0
  0
LINE
  5
8BB
330
851
100
AcDbEntity
  8
1
  6
Continuous
100
AcDbLine
 10
319.3808959999998
 20
176.455008
 30
0.0
 11
319.3808959999998
 21
192.0550079999999
 31
0.0
  0
LINE
  5
8BC
330
851
100
AcDbEntity
  8
1
  6
Continuous
100
AcDbLine
 10
316.7808899999998
 20
217.4550079999999
 30
0.0
 11
316.3808959999999
 21
217.4550079999999
 31
0.0
  0
LINE
  5
8BD
330
851
100
AcDbEntity
  8
1
  6
Continuous
100
AcDbLine
 10
183.9904479999999
 20
417.6171329999998
 30
0.0
 11
176.3904419999998
 21
417.6171329999998
 31
0.0
  0
LINE
  5
8BE
330
851
100
AcDbEntity
  8
1
  6
Continuous
100
AcDbLine
 10
175.9904479999999
 20
430.0202639999998
 30
0.0
 11
175.9904479999999
 21
429.21402
 31
0.0
  0
LINE
  5
8BF
330
851
100
AcDbEntity
  8
1
  6
Continuous
100
AcDbLine
 10
183.9904479999999
 20
445.717133
 30
0.0
 11
183.9904479999999
 21
443.117157
 31
0.0
  0
LINE
  5
8C0
330
851
100
AcDbEntity
  8
1
  6
Continuous
100
AcDbLine
 10
183.5904389999998
 20
446.117157
 30
0.0
 11
181.8904419999999
 21
446.117157
 31
0.0
  0
LINE
  5
8C1
330
851
100
AcDbEntity
  8
1
  6
Continuous
100
AcDbLine
 10
183.5904389999998
 20
445.717133
 30
0.0
 11
181.8904419999999
 21
445.717133
 31
0.0
  0
LINE
  5
8C2
330
851
100
AcDbEntity
  8
1
  6
Continuous
100
AcDbLine
 10
183.9904479999999
 20
443.117157
 30
0.0
 11
183.5904389999998
 21
443.117157
 31
0.0
  0
LINE
  5
8C3
330
851
100
AcDbEntity
  8
1
  6
Continuous
100
AcDbLine
 10
183.9904479999999
 20
434.217133
 30
0.0
 11
181.8904419999999
 21
434.217133
 31
0.0
  0
LINE
  5
8C4
330
851
100
AcDbEntity
  8
1
  6
Continuous
100
AcDbLine
 10
183.9904479999999
 20
434.217133
 30
0.0
 11
183.9904479999999
 21
417.6171329999998
 31
0.0
  0
LINE
  5
8C5
330
851
100
AcDbEntity
  8
1
  6
Continuous
100
AcDbLine
 10
183.9904479999999
 20
418.0171569999997
 30
0.0
 11
175.9904479999999
 21
418.0171569999997
 31
0.0
  0
LINE
  5
8C6
330
851
100
AcDbEntity
  8
1
  6
Continuous
100
AcDbLine
 10
65.59999999999999
 20
174.4550079999999
 30
0.0
 11
65.59999999999999
 21
217.4550079999999
 31
0.0
  0
LINE
  5
8C7
330
851
100
AcDbEntity
  8
1
  6
Continuous
100
AcDbLine
 10
37.099998
 20
174.4550079999999
 30
0.0
 11
65.59999999999999
 21
174.4550079999999
 31
0.0
  0
LINE
  5
8C8
330
851
100
AcDbEntity
  8
1
  6
Continuous
100
AcDbLine
 10
37.099998
 20
174.4550079999999
 30
0.0
 11
37.099998
 21
217.4550079999999
 31
0.0
  0
LINE
  5
8C9
330
851
100
AcDbEntity
  8
1
  6
Continuous
100
AcDbLine
 10
37.5
 20
217.855002
 30
0.0
 11
65.19999799999999
 21
217.855002
 31
0.0
  0
LINE
  5
8CA
330
851
100
AcDbEntity
  8
1
  6
Continuous
100
AcDbLine
 10
37.5
 20
217.4550079999999
 30
0.0
 11
37.5
 21
217.855002
 31
0.0
  0
LINE
  5
8CB
330
851
100
AcDbEntity
  8
1
  6
Continuous
100
AcDbLine
 10
65.19999799999999
 20
217.4550079999999
 30
0.0
 11
65.19999799999999
 21
217.855002
 31
0.0
  0
LINE
  5
8CC
330
851
100
AcDbEntity
  8
1
  6
Continuous
100
AcDbLine
 10
65.19999799999999
 20
217.4550079999999
 30
0.0
 11
65.59999999999999
 21
217.4550079999999
 31
0.0
  0
LINE
  5
8CD
330
851
100
AcDbEntity
  8
1
  6
Continuous
100
AcDbLine
 10
37.5
 20
217.4550079999999
 30
0.0
 11
37.099998
 21
217.4550079999999
 31
0.0
  0
LINE
  5
8D7
330
851
100
AcDbEntity
  8
1
  6
Continuous
100
AcDbLine
 10
183.5904389999998
 20
445.717133
 30
0.0
 11
183.5904389999998
 21
441.167145
 31
0.0
  0
LINE
  5
8D8
330
851
100
AcDbEntity
  8
1
  6
Continuous
100
AcDbLine
 10
182.5904389999998
 20
434.617157
 30
0.0
 11
182.5904389999998
 21
434.417145
 31
0.0
  0
LINE
  5
8D9
330
851
100
AcDbEntity
  8
1
  6
Continuous
100
AcDbLine
 10
181.8904419999999
 20
434.417145
 30
0.0
 11
183.5904389999998
 21
434.417145
 31
0.0
  0
LINE
  5
8DA
330
851
100
AcDbEntity
  8
1
  6
Continuous
100
AcDbLine
 10
316.8808959999998
 20
215.2305049999999
 30
0.0
 11
316.8808959999998
 21
210.055008
 31
0.0
  0
LINE
  5
8DB
330
851
100
AcDbEntity
  8
1
  6
Continuous
100
AcDbLine
 10
341.9730109999998
 20
216.0550079999999
 30
0.0
 11
333.180878
 21
216.0550079999999
 31
0.0
  0
LINE
  5
8DC
330
851
100
AcDbEntity
  8
1
  6
Continuous
100
AcDbLine
 10
332.180878
 20
191.4550079999999
 30
0.0
 11
330.1808779999999
 21
191.4550079999999
 31
0.0
  0
LINE
  5
8DD
330
851
100
AcDbEntity
  8
1
  6
Continuous
100
AcDbLine
 10
332.180878
 20
191.4550079999999
 30
0.0
 11
332.180878
 21
174.4550079999999
 31
0.0
  0
LINE
  5
8DE
330
851
100
AcDbEntity
  8
1
  6
Continuous
100
AcDbLine
 10
330.1808779999999
 20
191.4550079999999
 30
0.0
 11
330.1808779999999
 21
174.4550079999999
 31
0.0
  0
LINE
  5
8DF
330
851
100
AcDbEntity
  8
1
  6
Continuous
100
AcDbLine
 10
333.180878
 20
217.4550079999999
 30
0.0
 11
333.180878
 21
216.0550079999999
 31
0.0
  0
LINE
  5
8E0
330
851
100
AcDbEntity
  8
1
  6
Continuous
100
AcDbLine
 10
61.6
 20
174.054999
 30
0.0
 11
65.19999799999999
 21
174.054999
 31
0.0
  0
LINE
  5
8E1
330
851
100
AcDbEntity
  8
1
  6
Continuous
100
AcDbLine
 10
61.6
 20
174.4550079999999
 30
0.0
 11
61.6
 21
174.054999
 31
0.0
  0
LINE
  5
8E2
330
851
100
AcDbEntity
  8
1
  6
Continuous
100
AcDbLine
 10
183.5904389999998
 20
217.855002
 30
0.0
 11
176.3904419999998
 21
217.855002
 31
0.0
  0
LINE
  5
8E3
330
851
100
AcDbEntity
  8
1
  6
Continuous
100
AcDbLine
 10
183.9904479999999
 20
174.4550079999999
 30
0.0
 11
183.9904479999999
 21
202.455008
 31
0.0
  0
LINE
  5
8E4
330
851
100
AcDbEntity
  8
1
  6
Continuous
100
AcDbLine
 10
175.9904479999999
 20
174.4550079999999
 30
0.0
 11
175.9904479999999
 21
217.4550079999999
 31
0.0
  0
LINE
  5
8E5
330
851
100
AcDbEntity
  8
1
  6
Continuous
100
AcDbLine
 10
183.9904479999999
 20
174.4550079999999
 30
0.0
 11
183.5904389999998
 21
174.4550079999999
 31
0.0
  0
LINE
  5
8E6
330
851
100
AcDbEntity
  8
1
  6
Continuous
100
AcDbLine
 10
183.5904389999998
 20
174.054999
 30
0.0
 11
183.5904389999998
 21
174.4550079999999
 31
0.0
  0
LINE
  5
8E7
330
851
100
AcDbEntity
  8
1
  6
Continuous
100
AcDbLine
 10
176.3904419999998
 20
174.054999
 30
0.0
 11
176.3904419999998
 21
174.4550079999999
 31
0.0
  0
LINE
  5
8E8
330
851
100
AcDbEntity
  8
1
  6
Continuous
100
AcDbLine
 10
176.3904419999998
 20
174.4550079999999
 30
0.0
 11
175.9904479999999
 21
174.4550079999999
 31
0.0
  0
LINE
  5
8E9
330
851
100
AcDbEntity
  8
1
  6
Continuous
100
AcDbLine
 10
183.5904389999998
 20
217.4550079999999
 30
0.0
 11
175.9904479999999
 21
217.4550079999999
 31
0.0
  0
LINE
  5
8EA
330
851
100
AcDbEntity
  8
1
  6
Continuous
100
AcDbLine
 10
183.5904389999998
 20
202.455008
 30
0.0
 11
183.5904389999998
 21
217.4550079999999
 31
0.0
  0
LINE
  5
8EB
330
851
100
AcDbEntity
  8
1
  6
Continuous
100
AcDbLine
 10
183.9904479999999
 20
213.855002
 30
0.0
 11
183.5904389999998
 21
213.855002
 31
0.0
  0
LINE
  5
8EC
330
851
100
AcDbEntity
  8
1
  6
Continuous
100
AcDbLine
 10
183.9904479999999
 20
202.455008
 30
0.0
 11
183.5904389999998
 21
202.455008
 31
0.0
  0
LINE
  5
8ED
330
851
100
AcDbEntity
  8
1
  6
Continuous
100
AcDbLine
 10
176.3904419999998
 20
174.054999
 30
0.0
 11
183.5904389999998
 21
174.054999
 31
0.0
  0
LINE
  5
8EE
330
851
100
AcDbEntity
  8
1
  6
Continuous
100
AcDbLine
 10
38.79999899999999
 20
168.055002
 30
0.0
 11
57.400002
 21
168.055002
 31
0.0
  0
LINE
  5
8EF
330
851
100
AcDbEntity
  8
1
  6
Continuous
100
AcDbLine
 10
38.79999899999999
 20
168.055002
 30
0.0
 11
38.79999899999999
 21
174.4550079999999
 31
0.0
  0
LINE
  5
8F0
330
851
100
AcDbEntity
  8
1
  6
Continuous
100
AcDbLine
 10
57.400002
 20
168.055002
 30
0.0
 11
57.400002
 21
174.4550079999999
 31
0.0
  0
LINE
  5
8F1
330
851
100
AcDbEntity
  8
1
  6
Continuous
100
AcDbLine
 10
180.790451
 20
168.0550079999999
 30
0.0
 11
180.790451
 21
174.054999
 31
0.0
  0
LINE
  5
8F2
330
851
100
AcDbEntity
  8
1
  6
Continuous
100
AcDbLine
 10
176.7904509999999
 20
168.0550079999999
 30
0.0
 11
176.7904509999999
 21
174.054999
 31
0.0
  0
LINE
  5
8FA
330
851
100
AcDbEntity
  8
1
  6
Continuous
100
AcDbLine
 10
183.5904389999998
 20
205.0550079999999
 30
0.0
 11
184.590439
 21
205.0550079999999
 31
0.0
  0
LINE
  5
8FB
330
851
100
AcDbEntity
  8
1
  6
Continuous
100
AcDbLine
 10
183.9904479999999
 20
197.0550079999999
 30
0.0
 11
184.590439
 21
197.0550079999999
 31
0.0
  0
LINE
  5
8FC
330
851
100
AcDbEntity
  8
1
  6
Continuous
100
AcDbLine
 10
183.9904479999999
 20
205.4550079999999
 30
0.0
 11
183.9904479999999
 21
217.4550079999999
 31
0.0
  0
LINE
  5
906
330
851
100
AcDbEntity
  8
1
  6
Continuous
100
AcDbLine
 10
514.0095829999998
 20
217.855002
 30
0.0
 11
516.2095339999998
 21
217.855002
 31
0.0
  0
LINE
  5
907
330
851
100
AcDbEntity
  8
1
  6
Continuous
100
AcDbLine
 10
513.609558
 20
174.4550079999999
 30
0.0
 11
513.609558
 21
217.4550079999999
 31
0.0
  0
LINE
  5
908
330
851
100
AcDbEntity
  8
1
  6
Continuous
100
AcDbLine
 10
521.609558
 20
174.4550079999999
 30
0.0
 11
521.609558
 21
217.4550079999999
 31
0.0
  0
LINE
  5
909
330
851
100
AcDbEntity
  8
1
  6
Continuous
100
AcDbLine
 10
514.0095829999998
 20
174.054999
 30
0.0
 11
514.0095829999998
 21
174.4550079999999
 31
0.0
  0
LINE
  5
90A
330
851
100
AcDbEntity
  8
1
  6
Continuous
100
AcDbLine
 10
521.2095339999998
 20
174.054999
 30
0.0
 11
521.2095339999998
 21
174.4550079999999
 31
0.0
  0
LINE
  5
90B
330
851
100
AcDbEntity
  8
1
  6
Continuous
100
AcDbLine
 10
513.609558
 20
174.4550079999999
 30
0.0
 11
521.609558
 21
174.4550079999999
 31
0.0
  0
LINE
  5
90C
330
851
100
AcDbEntity
  8
1
  6
Continuous
100
AcDbLine
 10
513.609558
 20
217.4550079999999
 30
0.0
 11
521.609558
 21
217.4550079999999
 31
0.0
  0
LINE
  5
90D
330
851
100
AcDbEntity
  8
1
  6
Continuous
100
AcDbLine
 10
521.2095339999998
 20
174.054999
 30
0.0
 11
520.80957
 21
174.054999
 31
0.0
  0
LINE
  5
90E
330
851
100
AcDbEntity
  8
1
  6
Continuous
100
AcDbLine
 10
320.3808959999999
 20
174.054999
 30
0.0
 11
316.7808899999998
 21
174.054999
 31
0.0
  0
LINE
  5
90F
330
851
100
AcDbEntity
  8
1
  6
Continuous
100
AcDbLine
 10
320.3808959999999
 20
174.054999
 30
0.0
 11
320.3808959999999
 21
174.4550079999999
 31
0.0
  0
LINE
  5
910
330
851
100
AcDbEntity
  8
1
  6
Continuous
100
AcDbLine
 10
344.8808899999999
 20
210.055008
 30
0.0
 11
344.8808899999999
 21
217.4550079999999
 31
0.0
  0
LINE
  5
911
330
851
100
AcDbEntity
  8
1
  6
Continuous
100
AcDbLine
 10
341.8808899999999
 20
210.055008
 30
0.0
 11
341.8808899999999
 21
215.4550079999999
 31
0.0
  0
LINE
  5
912
330
851
100
AcDbEntity
  8
1
  6
Continuous
100
AcDbLine
 10
316.3808959999999
 20
210.055008
 30
0.0
 11
316.3808959999999
 21
217.4550079999999
 31
0.0
  0
LINE
  5
913
330
851
100
AcDbEntity
  8
1
  6
Continuous
100
AcDbLine
 10
333.3808899999999
 20
217.855002
 30
0.0
 11
316.7808899999998
 21
217.855002
 31
0.0
  0
LINE
  5
914
330
851
100
AcDbEntity
  8
1
  6
Continuous
100
AcDbLine
 10
333.3808899999999
 20
217.4550079999999
 30
0.0
 11
332.9808959999998
 21
217.4550079999999
 31
0.0
  0
LINE
  5
915
330
851
100
AcDbEntity
  8
1
  6
Continuous
100
AcDbLine
 10
187.0904419999997
 20
421.2171509999997
 30
0.0
 11
187.0904419999997
 21
407.2171329999997
 31
0.0
  0
LINE
  5
916
330
851
100
AcDbEntity
  8
4
  6
CENTER
 48
0.1
100
AcDbLine
 10
182.5904389999998
 20
429.217133
 30
0.0
 11
187.790451
 21
429.217133
 31
0.0
  0
LINE
  5
917
330
851
100
AcDbEntity
  8
1
  6
Continuous
100
AcDbLine
 10
185.590451
 20
422.217133
 30
0.0
 11
187.0904389999998
 21
422.217133
 31
0.0
  0
LINE
  5
918
330
851
100
AcDbEntity
  8
1
  6
Continuous
100
AcDbLine
 10
188.0904389999998
 20
437.2171329999998
 30
0.0
 11
188.0904389999997
 21
458.217133
 31
0.0
  0
LINE
  5
919
330
851
100
AcDbEntity
  8
1
  6
Continuous
100
AcDbLine
 10
185.590451
 20
422.217133
 30
0.0
 11
185.590451
 21
436.2171329999998
 31
0.0
  0
LINE
  5
91A
330
851
100
AcDbEntity
  8
1
  6
Continuous
100
AcDbLine
 10
185.5904389999999
 20
421.2171509999998
 30
0.0
 11
187.0904419999997
 21
421.2171509999998
 31
0.0
  0
LINE
  5
91B
330
851
100
AcDbEntity
  8
1
  6
Continuous
100
AcDbLine
 10
185.590451
 20
436.2171329999998
 30
0.0
 11
187.0904389999998
 21
436.2171329999998
 31
0.0
  0
LINE
  5
91C
330
851
100
AcDbEntity
  8
1
  6
Continuous
100
AcDbLine
 10
185.590439
 20
437.2171449999998
 30
0.0
 11
187.0904419999997
 21
437.217145
 31
0.0
  0
LINE
  5
91D
330
851
100
AcDbEntity
  8
1
  6
Continuous
100
AcDbLine
 10
187.0904419999997
 20
437.2171449999998
 30
0.0
 11
187.0904419999997
 21
458.217133
 31
0.0
  0
LINE
  5
91E
330
851
100
AcDbEntity
  8
1
  6
Continuous
100
AcDbLine
 10
184.5904389999999
 20
422.2171509999998
 30
0.0
 11
184.590439
 21
436.2171449999998
 31
0.0
  0
LINE
  5
91F
330
851
100
AcDbEntity
  8
1
  6
Continuous
100
AcDbLine
 10
187.0904419999997
 20
458.217133
 30
0.0
 11
188.0904389999997
 21
458.217133
 31
0.0
  0
LINE
  5
920
330
851
100
AcDbEntity
  8
1
  6
Continuous
100
AcDbLine
 10
187.0904419999997
 20
407.2171329999997
 30
0.0
 11
188.0904389999997
 21
407.2171329999997
 31
0.0
  0
LINE
  5
921
330
851
100
AcDbEntity
  8
4
  6
CENTER
 48
0.1
100
AcDbLine
 10
184.8904419999998
 20
452.2171329999998
 30
0.0
 11
190.0904389999998
 21
452.2171329999998
 31
0.0
  0
LINE
  5
922
330
851
100
AcDbEntity
  8
1
  6
Continuous
100
AcDbLine
 10
188.0904389999997
 20
421.217133
 30
0.0
 11
188.0904389999997
 21
407.2171329999997
 31
0.0
  0
LINE
  5
923
330
851
100
AcDbEntity
  8
4
  6
CENTER
 48
0.1
100
AcDbLine
 10
185.0904419999998
 20
413.217133
 30
0.0
 11
190.2904389999998
 21
413.217133
 31
0.0
  0
LINE
  5
924
330
851
100
AcDbEntity
  8
1
  6
Continuous
100
AcDbLine
 10
183.5904389999998
 20
438.0671389999998
 30
0.0
 11
183.5904389999998
 21
434.217133
 31
0.0
  0
LINE
  5
925
330
851
100
AcDbEntity
  8
1
  6
Continuous
100
AcDbLine
 10
516.80957
 20
168.0550079999999
 30
0.0
 11
516.80957
 21
174.4550079999999
 31
0.0
  0
LINE
  5
926
330
851
100
AcDbEntity
  8
1
  6
Continuous
100
AcDbLine
 10
520.80957
 20
168.0550079999999
 30
0.0
 11
520.80957
 21
174.4550079999999
 31
0.0
  0
LINE
  5
92A
330
851
100
AcDbEntity
  8
1
  6
Continuous
100
AcDbLine
 10
332.180878
 20
176.855002
 30
0.0
 11
330.1808779999999
 21
176.855002
 31
0.0
  0
LINE
  5
92B
330
851
100
AcDbEntity
  8
1
  6
Continuous
100
AcDbLine
 10
343.180878
 20
168.0550079999999
 30
0.0
 11
343.180878
 21
174.4550079999999
 31
0.0
  0
LINE
  5
92C
330
851
100
AcDbEntity
  8
1
  6
Continuous
100
AcDbLine
 10
324.5809019999998
 20
168.0550079999999
 30
0.0
 11
324.5809019999998
 21
174.4550079999999
 31
0.0
  0
LINE
  5
92D
330
851
100
AcDbEntity
  8
1
  6
Continuous
100
AcDbLine
 10
341.5809019999998
 20
168.0550079999999
 30
0.0
 11
341.5809019999998
 21
174.4550079999999
 31
0.0
  0
LINE
  5
92E
330
851
100
AcDbEntity
  8
1
  6
Continuous
100
AcDbLine
 10
184.4904479999999
 20
441.617157
 30
0.0
 11
184.4904479999999
 21
437.617157
 31
0.0
  0
LINE
  5
92F
330
851
100
AcDbEntity
  8
1
  6
Continuous
100
AcDbLine
 10
184.4904629999998
 20
441.6171259999998
 30
0.0
 11
183.4904479999999
 21
441.1171259999998
 31
0.0
  0
LINE
  5
930
330
851
100
AcDbEntity
  8
1
  6
Continuous
100
AcDbLine
 10
183.4904479999999
 20
438.117157
 30
0.0
 11
184.4904479999999
 21
437.617157
 31
0.0
  0
LINE
  5
93D
330
851
100
AcDbEntity
  8
1
  6
Continuous
100
AcDbLine
 10
184.490433
 20
320.054993
 30
0.0
 11
183.490433
 21
319.554993
 31
0.0
  0
LINE
  5
93E
330
851
100
AcDbEntity
  8
1
  6
Continuous
100
AcDbLine
 10
183.4904479999999
 20
316.555023
 30
0.0
 11
184.4904479999999
 21
316.055023
 31
0.0
  0
LINE
  5
93F
330
851
100
AcDbEntity
  8
1
  6
Continuous
100
AcDbLine
 10
184.4904479999999
 20
320.054993
 30
0.0
 11
184.4904479999999
 21
316.054993
 31
0.0
  0
LINE
  5
943
330
851
100
AcDbEntity
  8
1
  6
Continuous
100
AcDbLine
 10
519.6095579999998
 20
217.4550079999999
 30
0.0
 11
519.6095579999998
 21
217.855002
 31
0.0
  0
LINE
  5
944
330
851
100
AcDbEntity
  8
1
  6
Continuous
100
AcDbLine
 10
184.590439
 20
425.217133
 30
0.0
 11
183.9904479999999
 21
425.217133
 31
0.0
  0
LINE
  5
945
330
851
100
AcDbEntity
  8
1
  6
Continuous
100
AcDbLine
 10
184.590439
 20
433.217133
 30
0.0
 11
183.9904479999999
 21
433.217133
 31
0.0
  0
LINE
  5
946
330
851
100
AcDbEntity
  8
1
  6
Continuous
100
AcDbLine
 10
513.009583
 20
205.0550079999999
 30
0.0
 11
513.609558
 21
205.0550079999999
 31
0.0
  0
LINE
  5
947
330
851
100
AcDbEntity
  8
1
  6
Continuous
100
AcDbLine
 10
513.009583
 20
197.0550079999999
 30
0.0
 11
513.609558
 21
197.0550079999999
 31
0.0
  0
LINE
  5
94B
330
851
100
AcDbEntity
  8
1
  6
Continuous
100
AcDbLine
 10
186.5904509999999
 20
427.467133
 30
0.0
 11
186.5904509999999
 21
430.9671329999998
 31
0.0
  0
LINE
  5
94C
330
851
100
AcDbEntity
  8
1
  6
Continuous
100
AcDbLine
 10
186.5904359999998
 20
427.467133
 30
0.0
 11
185.590436
 21
427.7171329999998
 31
0.0
  0
LINE
  5
94D
330
851
100
AcDbEntity
  8
1
  6
Continuous
100
AcDbLine
 10
186.5904509999999
 20
430.9671629999998
 30
0.0
 11
185.590436
 21
430.717163
 31
0.0
  0
LINE
  5
94E
330
851
100
AcDbEntity
  8
1
  6
Continuous
100
AcDbLine
 10
513.109558
 20
316.054993
 30
0.0
 11
514.1095579999999
 21
316.554993
 31
0.0
  0
LINE
  5
94F
330
851
100
AcDbEntity
  8
1
  6
Continuous
100
AcDbLine
 10
514.1095579999999
 20
319.555023
 30
0.0
 11
513.109558
 21
320.055023
 31
0.0
  0
LINE
  5
950
330
851
100
AcDbEntity
  8
1
  6
Continuous
100
AcDbLine
 10
513.109558
 20
316.054993
 30
0.0
 11
513.109558
 21
320.054993
 31
0.0
  0
LINE
  5
952
330
851
100
AcDbEntity
  8
1
  6
Continuous
100
AcDbLine
 10
181.3904419999999
 20
174.054999
 30
0.0
 11
181.3904419999999
 21
168.0550079999999
 31
0.0
  0
LINE
  5
953
330
851
100
AcDbEntity
  8
1
  6
Continuous
100
AcDbLine
 10
519.2095339999998
 20
217.855002
 30
0.0
 11
521.2095339999998
 21
217.855002
 31
0.0
  0
LINE
  5
954
330
851
100
AcDbEntity
  8
1
  6
Continuous
100
AcDbLine
 10
516.2095339999998
 20
174.4550079999999
 30
0.0
 11
516.2095339999998
 21
168.0550079999999
 31
0.0
  0
LINE
  5
955
330
851
100
AcDbEntity
  8
1
  6
Continuous
100
AcDbLine
 10
516.2095339999998
 20
174.054999
 30
0.0
 11
514.0095829999998
 21
174.054999
 31
0.0
  0
LINE
  5
956
330
851
100
AcDbEntity
  8
1
  6
Continuous
100
AcDbLine
 10
37.099998
 20
210.055008
 30
0.0
 11
34.0
 21
210.055008
 31
0.0
  0
LINE
  5
957
330
851
100
AcDbEntity
  8
1
  6
Continuous
100
AcDbLine
 10
37.099998
 20
192.0550079999999
 30
0.0
 11
34.0
 21
192.0550079999999
 31
0.0
  0
LINE
  5
958
330
851
100
AcDbEntity
  8
4
  6
CENTER
 48
0.5
100
AcDbLine
 10
43.59999799999999
 20
336.9049989999998
 30
0.0
 11
43.59999799999999
 21
164.955002
 31
0.0
  0
LINE
  5
959
330
851
100
AcDbEntity
  8
5
  6
PHANTOM
 48
0.1
100
AcDbLine
 10
29.6
 20
334.554993
 30
0.0
 11
29.6
 21
336.1549989999998
 31
0.0
  0
LINE
  5
95A
330
851
100
AcDbEntity
  8
5
  6
PHANTOM
 48
0.1
100
AcDbLine
 10
57.599998
 20
334.554993
 30
0.0
 11
57.599998
 21
336.1549989999998
 31
0.0
  0
LINE
  5
95B
330
851
100
AcDbEntity
  8
5
  6
PHANTOM
 48
0.1
100
AcDbLine
 10
57.599998
 20
336.1549989999998
 30
0.0
 11
29.6
 21
336.1549989999998
 31
0.0
  0
LINE
  5
95C
330
851
100
AcDbEntity
  8
5
  6
PHANTOM
 48
0.1
100
AcDbLine
 10
57.599998
 20
334.554993
 30
0.0
 11
29.6
 21
334.554993
 31
0.0
  0
LINE
  5
95D
330
851
100
AcDbEntity
  8
4
  6
CENTER
 48
0.2
100
AcDbLine
 10
50.59999799999999
 20
328.554993
 30
0.0
 11
36.599998
 21
328.554993
 31
0.0
  0
LINE
  5
95E
330
851
100
AcDbEntity
  8
1
  6
Continuous
100
AcDbLine
 10
38.599998
 20
318.054993
 30
0.0
 11
38.599998
 21
217.855002
 31
0.0
  0
LINE
  5
95F
330
851
100
AcDbEntity
  8
1
  6
Continuous
100
AcDbLine
 10
48.599998
 20
318.054993
 30
0.0
 11
48.599998
 21
217.855002
 31
0.0
  0
LINE
  5
960
330
851
100
AcDbEntity
  8
5
  6
PHANTOM
 48
0.1
100
AcDbLine
 10
29.6
 20
227.055008
 30
0.0
 11
29.6
 21
228.6549990000001
 31
0.0
  0
LINE
  5
961
330
851
100
AcDbEntity
  8
5
  6
PHANTOM
 48
0.1
100
AcDbLine
 10
57.599998
 20
227.055008
 30
0.0
 11
57.599998
 21
228.6549990000001
 31
0.0
  0
LINE
  5
962
330
851
100
AcDbEntity
  8
5
  6
PHANTOM
 48
0.1
100
AcDbLine
 10
57.599998
 20
228.6549990000001
 30
0.0
 11
29.6
 21
228.6549990000001
 31
0.0
  0
LINE
  5
963
330
851
100
AcDbEntity
  8
5
  6
PHANTOM
 48
0.1
100
AcDbLine
 10
57.599998
 20
227.055008
 30
0.0
 11
29.6
 21
227.055008
 31
0.0
  0
LINE
  5
964
330
851
100
AcDbEntity
  8
4
  6
CENTER
 48
0.2
100
AcDbLine
 10
52.26943699999999
 20
221.0550079999999
 30
0.0
 11
35.669439
 21
221.0550079999999
 31
0.0
  0
LINE
  5
967
330
851
100
AcDbEntity
  8
4
  6
CENTER
 48
0.1
100
AcDbLine
 10
328.3808899999999
 20
322.054993
 30
0.0
 11
328.3808899999999
 21
327.6549989999998
 31
0.0
  0
LINE
  5
968
330
851
100
AcDbEntity
  8
4
  6
CENTER
 48
0.1
100
AcDbLine
 10
348.3808899999999
 20
322.054993
 30
0.0
 11
348.3808899999999
 21
327.6549989999998
 31
0.0
  0
LINE
  5
96A
330
851
100
AcDbEntity
  8
4
  6
CENTER
 48
0.2
100
AcDbLine
 10
189.090439
 20
201.0550079999999
 30
0.0
 11
174.9904479999999
 21
201.0550079999999
 31
0.0
  0
LINE
  5
96B
330
851
100
AcDbEntity
  8
4
  6
CENTER
 48
0.1
100
AcDbLine
 10
334.3808899999999
 20
221.0550079999999
 30
0.0
 11
342.3808899999999
 21
221.0550079999999
 31
0.0
  0
LINE
  5
96C
330
851
100
AcDbEntity
  8
5
  6
PHANTOM
 48
0.1
100
AcDbLine
 10
352.3808899999999
 20
227.055008
 30
0.0
 11
352.3808899999999
 21
228.6549990000001
 31
0.0
  0
LINE
  5
96D
330
851
100
AcDbEntity
  8
5
  6
PHANTOM
 48
0.1
100
AcDbLine
 10
324.3808899999998
 20
227.055008
 30
0.0
 11
324.3808899999998
 21
228.6549990000001
 31
0.0
  0
LINE
  5
96E
330
851
100
AcDbEntity
  8
5
  6
PHANTOM
 48
0.1
100
AcDbLine
 10
324.3808899999998
 20
228.6549990000001
 30
0.0
 11
352.3808899999999
 21
228.6549990000001
 31
0.0
  0
LINE
  5
96F
330
851
100
AcDbEntity
  8
5
  6
PHANTOM
 48
0.1
100
AcDbLine
 10
324.3808899999998
 20
227.055008
 30
0.0
 11
352.3808899999999
 21
227.055008
 31
0.0
  0
LINE
  5
970
330
851
100
AcDbEntity
  8
5
  6
PHANTOM
 48
0.1
100
AcDbLine
 10
173.290451
 20
228.6549990000001
 30
0.0
 11
181.8904419999999
 21
228.6549990000001
 31
0.0
  0
LINE
  5
971
330
851
100
AcDbEntity
  8
5
  6
PHANTOM
 48
0.1
100
AcDbLine
 10
173.290451
 20
227.055008
 30
0.0
 11
181.8904419999999
 21
227.055008
 31
0.0
  0
LINE
  5
972
330
851
100
AcDbEntity
  8
5
  6
PHANTOM
 48
0.1
100
AcDbLine
 10
173.290451
 20
227.055008
 30
0.0
 11
173.290451
 21
228.6549990000001
 31
0.0
  0
LINE
  5
973
330
851
100
AcDbEntity
  8
5
  6
PHANTOM
 48
0.1
100
AcDbLine
 10
181.8904419999999
 20
217.855002
 30
0.0
 11
181.8904419999999
 21
228.6549990000001
 31
0.0
  0
LINE
  5
974
330
851
100
AcDbEntity
  8
5
  6
PHANTOM
 48
0.1
100
AcDbLine
 10
183.4904479999999
 20
217.855002
 30
0.0
 11
183.4904479999999
 21
227.055008
 31
0.0
  0
LINE
  5
975
330
851
100
AcDbEntity
  8
4
  6
CENTER
 48
0.2
100
AcDbLine
 10
511.1095579999997
 20
221.0550079999999
 30
0.0
 11
522.209534
 21
221.0550079999999
 31
0.0
  0
LINE
  5
976
330
851
100
AcDbEntity
  8
5
  6
PHANTOM
 48
0.1
100
AcDbLine
 10
177.3904419999998
 20
218.0550079999999
 30
0.0
 11
177.3904419999998
 21
224.0550079999999
 31
0.0
  0
LINE
  5
977
330
851
100
AcDbEntity
  8
5
  6
PHANTOM
 48
0.1
100
AcDbLine
 10
177.3904419999998
 20
218.0550079999999
 30
0.0
 11
178.3904419999998
 21
218.0550079999999
 31
0.0
  0
LINE
  5
978
330
851
100
AcDbEntity
  8
5
  6
PHANTOM
 48
0.1
100
AcDbLine
 10
177.3904419999998
 20
224.0550079999999
 30
0.0
 11
178.3904419999998
 21
224.0550079999999
 31
0.0
  0
LINE
  5
979
330
851
100
AcDbEntity
  8
5
  6
PHANTOM
 48
0.1
100
AcDbLine
 10
181.3904419999999
 20
225.055008
 30
0.0
 11
181.8904419999999
 21
225.055008
 31
0.0
  0
LINE
  5
97A
330
851
100
AcDbEntity
  8
5
  6
PHANTOM
 48
0.1
100
AcDbLine
 10
184.4904629999998
 20
223.0550079999999
 30
0.0
 11
183.4904479999999
 21
222.555008
 31
0.0
  0
LINE
  5
97B
330
851
100
AcDbEntity
  8
5
  6
PHANTOM
 48
0.1
100
AcDbLine
 10
183.4904479999999
 20
219.555023
 30
0.0
 11
184.4904479999999
 21
219.0550229999999
 31
0.0
  0
LINE
  5
97C
330
851
100
AcDbEntity
  8
5
  6
PHANTOM
 48
0.1
100
AcDbLine
 10
184.4904479999999
 20
223.0550079999999
 30
0.0
 11
184.4904479999999
 21
219.0550079999999
 31
0.0
  0
LINE
  5
97D
330
851
100
AcDbEntity
  8
5
  6
PHANTOM
 48
0.1
100
AcDbLine
 10
524.30957
 20
227.055008
 30
0.0
 11
524.30957
 21
228.6549990000001
 31
0.0
  0
LINE
  5
97E
330
851
100
AcDbEntity
  8
5
  6
PHANTOM
 48
0.1
100
AcDbLine
 10
514.1095579999999
 20
219.5550079999999
 30
0.0
 11
513.109558
 21
219.0550079999999
 31
0.0
  0
LINE
  5
97F
330
851
100
AcDbEntity
  8
5
  6
PHANTOM
 48
0.1
100
AcDbLine
 10
520.2095339999998
 20
218.0550079999999
 30
0.0
 11
519.2095339999998
 21
218.0550079999999
 31
0.0
  0
LINE
  5
980
330
851
100
AcDbEntity
  8
5
  6
PHANTOM
 48
0.1
100
AcDbLine
 10
516.2095339999998
 20
225.055008
 30
0.0
 11
515.7095339999998
 21
225.055008
 31
0.0
  0
LINE
  5
981
330
851
100
AcDbEntity
  8
5
  6
PHANTOM
 48
0.1
100
AcDbLine
 10
520.2095339999998
 20
224.0550079999999
 30
0.0
 11
519.2095339999998
 21
224.0550079999999
 31
0.0
  0
LINE
  5
982
330
851
100
AcDbEntity
  8
5
  6
PHANTOM
 48
0.1
100
AcDbLine
 10
513.109558
 20
223.054993
 30
0.0
 11
514.1095579999999
 21
222.554993
 31
0.0
  0
LINE
  5
983
330
851
100
AcDbEntity
  8
5
  6
PHANTOM
 48
0.1
100
AcDbLine
 10
515.7095339999998
 20
217.855002
 30
0.0
 11
515.7095339999998
 21
228.6549990000001
 31
0.0
  0
LINE
  5
984
330
851
100
AcDbEntity
  8
5
  6
PHANTOM
 48
0.1
100
AcDbLine
 10
524.30957
 20
227.055008
 30
0.0
 11
515.7095339999998
 21
227.055008
 31
0.0
  0
LINE
  5
985
330
851
100
AcDbEntity
  8
5
  6
PHANTOM
 48
0.1
100
AcDbLine
 10
524.30957
 20
228.6549990000001
 30
0.0
 11
515.7095339999998
 21
228.6549990000001
 31
0.0
  0
LINE
  5
986
330
851
100
AcDbEntity
  8
5
  6
PHANTOM
 48
0.1
100
AcDbLine
 10
514.1095579999999
 20
217.855002
 30
0.0
 11
514.1095579999999
 21
227.055008
 31
0.0
  0
LINE
  5
987
330
851
100
AcDbEntity
  8
5
  6
PHANTOM
 48
0.1
100
AcDbLine
 10
520.2095339999998
 20
218.0550079999999
 30
0.0
 11
520.2095339999998
 21
224.0550079999999
 31
0.0
  0
LINE
  5
988
330
851
100
AcDbEntity
  8
5
  6
PHANTOM
 48
0.1
100
AcDbLine
 10
513.109558
 20
223.0550079999999
 30
0.0
 11
513.109558
 21
219.0550079999999
 31
0.0
  0
LINE
  5
989
330
851
100
AcDbEntity
  8
4
  6
CENTER
 48
0.2
100
AcDbLine
 10
175.3904419999997
 20
221.0550079999999
 30
0.0
 11
186.4904479999999
 21
221.0550079999999
 31
0.0
  0
LINE
  5
98A
330
851
100
AcDbEntity
  8
3
  6
DASHED
 48
0.2
100
AcDbLine
 10
48.599998
 20
183.955008
 30
0.0
 11
48.599998
 21
176.855002
 31
0.0
  0
LINE
  5
98B
330
851
100
AcDbEntity
  8
3
  6
DASHED
 48
0.2
100
AcDbLine
 10
45.59999799999999
 20
185.9550079999999
 30
0.0
 11
46.599998
 21
185.9550079999999
 31
0.0
  0
LINE
  5
98C
330
851
100
AcDbEntity
  8
3
  6
DASHED
 48
0.2
100
AcDbLine
 10
44.099998
 20
198.4550079999999
 30
0.0
 11
44.099998
 21
187.4550079999999
 31
0.0
  0
LINE
  5
98D
330
851
100
AcDbEntity
  8
3
  6
DASHED
 48
0.2
100
AcDbLine
 10
55.799999
 20
185.9550079999999
 30
0.0
 11
57.400002
 21
185.9550079999999
 31
0.0
  0
LINE
  5
98E
330
851
100
AcDbEntity
  8
3
  6
DASHED
 48
0.2
100
AcDbLine
 10
55.799999
 20
176.855002
 30
0.0
 11
55.799999
 21
185.9550079999999
 31
0.0
  0
LINE
  5
98F
330
851
100
AcDbEntity
  8
3
  6
DASHED
 48
0.2
100
AcDbLine
 10
38.79999899999999
 20
176.855002
 30
0.0
 11
57.400002
 21
176.855002
 31
0.0
  0
LINE
  5
990
330
851
100
AcDbEntity
  8
3
  6
DASHED
 48
0.2
100
AcDbLine
 10
180.790451
 20
185.9550079999999
 30
0.0
 11
180.790451
 21
174.054999
 31
0.0
  0
LINE
  5
991
330
851
100
AcDbEntity
  8
3
  6
DASHED
 48
0.2
100
AcDbLine
 10
176.7904509999999
 20
175.255011
 30
0.0
 11
176.7904509999999
 21
174.054999
 31
0.0
  0
LINE
  5
992
330
851
100
AcDbEntity
  8
3
  6
DASHED
 48
0.2
100
AcDbLine
 10
178.3904419999998
 20
185.9550079999999
 30
0.0
 11
180.790451
 21
185.9550079999999
 31
0.0
  0
LINE
  5
993
330
851
100
AcDbEntity
  8
3
  6
DASHED
 48
0.2
100
AcDbLine
 10
178.3904419999998
 20
176.855002
 30
0.0
 11
176.7904359999997
 21
175.254996
 31
0.0
  0
LINE
  5
994
330
851
100
AcDbEntity
  8
3
  6
DASHED
 48
0.2
100
AcDbLine
 10
38.79999899999999
 20
175.255011
 30
0.0
 11
57.400002
 21
175.255011
 31
0.0
  0
LINE
  5
995
330
851
100
AcDbEntity
  8
1
  6
Continuous
100
AcDbLine
 10
38.599998
 20
324.054993
 30
0.0
 11
38.599998
 21
318.054993
 31
0.0
  0
LINE
  5
996
330
851
100
AcDbEntity
  8
1
  6
Continuous
100
AcDbLine
 10
48.599998
 20
324.054993
 30
0.0
 11
48.599998
 21
318.054993
 31
0.0
  0
LINE
  5
997
330
851
100
AcDbEntity
  8
1
  6
Continuous
100
AcDbLine
 10
29.6
 20
324.054993
 30
0.0
 11
29.6
 21
325.6549989999998
 31
0.0
  0
LINE
  5
998
330
851
100
AcDbEntity
  8
1
  6
Continuous
100
AcDbLine
 10
57.599998
 20
324.054993
 30
0.0
 11
57.599998
 21
325.6549989999998
 31
0.0
  0
LINE
  5
999
330
851
100
AcDbEntity
  8
1
  6
Continuous
100
AcDbLine
 10
57.599998
 20
325.6549989999998
 30
0.0
 11
29.6
 21
325.6549989999998
 31
0.0
  0
LINE
  5
99A
330
851
100
AcDbEntity
  8
1
  6
Continuous
100
AcDbLine
 10
57.599998
 20
324.054993
 30
0.0
 11
29.6
 21
324.054993
 31
0.0
  0
LINE
  5
99B
330
851
100
AcDbEntity
  8
3
  6
DASHED
 48
0.2
100
AcDbLine
 10
178.3904419999998
 20
217.855002
 30
0.0
 11
178.3904419999998
 21
176.855002
 31
0.0
  0
LINE
  5
99C
330
851
100
AcDbEntity
  8
3
  6
DASHED
 48
0.2
100
AcDbLine
 10
343.3808899999998
 20
217.3915
 30
0.0
 11
343.3808899999998
 21
176.9550079999999
 31
0.0
  0
LINE
  5
99D
330
851
100
AcDbEntity
  8
3
  6
DASHED
 48
0.2
100
AcDbLine
 10
333.3808899999999
 20
216.0550079999999
 30
0.0
 11
333.3808899999999
 21
200.9550079999999
 31
0.0
  0
LINE
  5
99E
330
851
100
AcDbEntity
  8
3
  6
DASHED
 48
0.2
100
AcDbLine
 10
333.3808899999999
 20
183.955008
 30
0.0
 11
333.3808899999999
 21
174.4550079999999
 31
0.0
  0
LINE
  5
99F
330
851
100
AcDbEntity
  8
3
  6
DASHED
 48
0.2
100
AcDbLine
 10
326.1808779999999
 20
185.9550079999999
 30
0.0
 11
324.5809019999998
 21
185.9550079999999
 31
0.0
  0
LINE
  5
9A0
330
851
100
AcDbEntity
  8
3
  6
DASHED
 48
0.2
100
AcDbLine
 10
336.3808899999999
 20
185.9550079999999
 30
0.0
 11
335.3808899999999
 21
185.9550079999999
 31
0.0
  0
LINE
  5
9A1
330
851
100
AcDbEntity
  8
3
  6
DASHED
 48
0.2
100
AcDbLine
 10
337.8808899999999
 20
198.4550079999999
 30
0.0
 11
337.8808899999999
 21
187.4550079999999
 31
0.0
  0
LINE
  5
9A2
330
851
100
AcDbEntity
  8
3
  6
DASHED
 48
0.2
100
AcDbLine
 10
336.3808899999999
 20
199.9550079999999
 30
0.0
 11
334.3808899999999
 21
199.9550079999999
 31
0.0
  0
LINE
  5
9A3
330
851
100
AcDbEntity
  8
1
  6
Continuous
100
AcDbLine
 10
326.1808779999999
 20
168.0550079999999
 30
0.0
 11
326.1808779999999
 21
174.4550079999999
 31
0.0
  0
LINE
  5
9A4
330
851
100
AcDbEntity
  8
3
  6
DASHED
 48
0.2
100
AcDbLine
 10
333.3808899999999
 20
176.855002
 30
0.0
 11
332.180878
 21
176.855002
 31
0.0
  0
LINE
  5
9A5
330
851
100
AcDbEntity
  8
3
  6
DASHED
 48
0.2
100
AcDbLine
 10
38.599998
 20
217.855002
 30
0.0
 11
38.599998
 21
176.9550079999999
 31
0.0
  0
LINE
  5
9A6
330
851
100
AcDbEntity
  8
3
  6
DASHED
 48
0.2
100
AcDbLine
 10
48.599998
 20
217.855002
 30
0.0
 11
48.599998
 21
200.9550079999999
 31
0.0
  0
LINE
  5
9A7
330
851
100
AcDbEntity
  8
3
  6
DASHED
 48
0.2
100
AcDbLine
 10
38.79999899999999
 20
174.4550079999999
 30
0.0
 11
38.79999899999999
 21
176.855002
 31
0.0
  0
LINE
  5
9A8
330
851
100
AcDbEntity
  8
3
  6
DASHED
 48
0.2
100
AcDbLine
 10
57.400002
 20
174.4550079999999
 30
0.0
 11
57.400002
 21
185.9550079999999
 31
0.0
  0
LINE
  5
9A9
330
851
100
AcDbEntity
  8
3
  6
DASHED
 48
0.2
100
AcDbLine
 10
181.3904419999999
 20
217.855002
 30
0.0
 11
181.3904419999999
 21
174.054999
 31
0.0
  0
LINE
  5
9AA
330
851
100
AcDbEntity
  8
3
  6
DASHED
 48
0.2
100
AcDbLine
 10
38.599998
 20
176.9550079999999
 30
0.0
 11
40.400002
 21
176.9550079999999
 31
0.0
  0
LINE
  5
9AB
330
851
100
AcDbEntity
  8
3
  6
DASHED
 48
0.2
100
AcDbLine
 10
40.400002
 20
176.9550079999999
 30
0.0
 11
40.400002
 21
176.855002
 31
0.0
  0
LINE
  5
9AC
330
851
100
AcDbEntity
  8
3
  6
DASHED
 48
0.2
100
AcDbLine
 10
343.3808899999998
 20
176.9550079999999
 30
0.0
 11
341.5809019999998
 21
176.9550079999999
 31
0.0
  0
LINE
  5
9AD
330
851
100
AcDbEntity
  8
3
  6
DASHED
 48
0.2
100
AcDbLine
 10
330.1808779999999
 20
176.855002
 30
0.0
 11
326.1808779999999
 21
176.855002
 31
0.0
  0
LINE
  5
9AE
330
851
100
AcDbEntity
  8
3
  6
DASHED
 48
0.2
100
AcDbLine
 10
324.5809019999998
 20
174.4550079999999
 30
0.0
 11
324.5809019999998
 21
185.9550079999999
 31
0.0
  0
LINE
  5
9AF
330
851
100
AcDbEntity
  8
3
  6
DASHED
 48
0.2
100
AcDbLine
 10
341.5809019999998
 20
174.4550079999999
 30
0.0
 11
341.5809019999998
 21
176.9550079999999
 31
0.0
  0
LINE
  5
9B0
330
851
100
AcDbEntity
  8
3
  6
DASHED
 48
0.2
100
AcDbLine
 10
516.80957
 20
185.9550079999999
 30
0.0
 11
516.80957
 21
174.4550079999999
 31
0.0
  0
LINE
  5
9B1
330
851
100
AcDbEntity
  8
3
  6
DASHED
 48
0.2
100
AcDbLine
 10
519.2095339999998
 20
185.9550079999999
 30
0.0
 11
516.80957
 21
185.9550079999999
 31
0.0
  0
LINE
  5
9B2
330
851
100
AcDbEntity
  8
3
  6
DASHED
 48
0.2
100
AcDbLine
 10
516.2095339999998
 20
217.4550079999999
 30
0.0
 11
516.2095339999998
 21
174.4550079999999
 31
0.0
  0
LINE
  5
9B3
330
851
100
AcDbEntity
  8
3
  6
DASHED
 48
0.2
100
AcDbLine
 10
519.2095339999998
 20
176.855002
 30
0.0
 11
520.80957
 21
175.255011
 31
0.0
  0
LINE
  5
9B4
330
851
100
AcDbEntity
  8
3
  6
DASHED
 48
0.2
100
AcDbLine
 10
519.2095339999998
 20
217.4550079999999
 30
0.0
 11
519.2095339999998
 21
176.855002
 31
0.0
  0
LINE
  5
9B5
330
851
100
AcDbEntity
  8
4
  6
CENTER
 48
0.1
100
AcDbLine
 10
33.599998
 20
327.6549989999998
 30
0.0
 11
33.599998
 21
322.054993
 31
0.0
  0
LINE
  5
9B6
330
851
100
AcDbEntity
  8
4
  6
CENTER
 48
0.1
100
AcDbLine
 10
53.599998
 20
327.6549989999998
 30
0.0
 11
53.599998
 21
322.054993
 31
0.0
  0
LINE
  5
9B7
330
851
100
AcDbEntity
  8
1
  6
Continuous
100
AcDbLine
 10
173.290451
 20
325.6549989999998
 30
0.0
 11
181.8904419999999
 21
325.6549989999998
 31
0.0
  0
LINE
  5
9B8
330
851
100
AcDbEntity
  8
1
  6
Continuous
100
AcDbLine
 10
181.8904419999999
 20
313.054993
 30
0.0
 11
183.4904479999999
 21
313.054993
 31
0.0
  0
LINE
  5
9B9
330
851
100
AcDbEntity
  8
1
  6
Continuous
100
AcDbLine
 10
173.290451
 20
324.054993
 30
0.0
 11
181.8904419999999
 21
324.054993
 31
0.0
  0
LINE
  5
9BA
330
851
100
AcDbEntity
  8
1
  6
Continuous
100
AcDbLine
 10
183.4904479999999
 20
313.054993
 30
0.0
 11
183.4904479999999
 21
324.054993
 31
0.0
  0
LINE
  5
9BB
330
851
100
AcDbEntity
  8
1
  6
Continuous
100
AcDbLine
 10
181.8904419999999
 20
313.054993
 30
0.0
 11
181.8904419999999
 21
325.6549989999998
 31
0.0
  0
LINE
  5
9BC
330
851
100
AcDbEntity
  8
1
  6
Continuous
100
AcDbLine
 10
173.290451
 20
324.054993
 30
0.0
 11
173.290451
 21
325.6549989999998
 31
0.0
  0
LINE
  5
9BD
330
851
100
AcDbEntity
  8
4
  6
CENTER
 48
0.1
100
AcDbLine
 10
177.5904389999998
 20
323.054993
 30
0.0
 11
177.5904389999998
 21
326.6549989999998
 31
0.0
  0
LINE
  5
9C4
330
851
100
AcDbEntity
  8
1
  6
Continuous
100
AcDbLine
 10
173.290451
 20
429.917145
 30
0.0
 11
173.290451
 21
449.3171389999998
 31
0.0
  0
LINE
  5
9C5
330
851
100
AcDbEntity
  8
1
  6
Continuous
100
AcDbLine
 10
181.8904419999999
 20
429.917145
 30
0.0
 11
181.8904419999999
 21
434.617157
 31
0.0
  0
LINE
  5
9C6
330
851
100
AcDbEntity
  8
1
  6
Continuous
100
AcDbLine
 10
183.4904479999999
 20
434.617157
 30
0.0
 11
183.4904479999999
 21
444.617157
 31
0.0
  0
LINE
  5
9C7
330
851
100
AcDbEntity
  8
1
  6
Continuous
100
AcDbLine
 10
183.4904479999999
 20
444.617157
 30
0.0
 11
181.8904419999999
 21
444.617157
 31
0.0
  0
LINE
  5
9C8
330
851
100
AcDbEntity
  8
4
  6
CENTER
 48
0.5
100
AcDbLine
 10
177.5904389999998
 20
423.617157
 30
0.0
 11
177.5904389999998
 21
455.617157
 31
0.0
  0
LINE
  5
9C9
330
851
100
AcDbEntity
  8
1
  6
Continuous
100
AcDbLine
 10
181.8904419999999
 20
444.617157
 30
0.0
 11
181.8904419999999
 21
449.3171389999998
 31
0.0
  0
LINE
  5
9CA
330
851
100
AcDbEntity
  8
1
  6
Continuous
100
AcDbLine
 10
519.2095339999998
 20
323.054993
 30
0.0
 11
516.2095339999998
 21
323.054993
 31
0.0
  0
LINE
  5
9CB
330
851
100
AcDbEntity
  8
1
  6
Continuous
100
AcDbLine
 10
520.2095339999998
 20
315.054993
 30
0.0
 11
520.2095339999998
 21
321.054993
 31
0.0
  0
LINE
  5
9CC
330
851
100
AcDbEntity
  8
1
  6
Continuous
100
AcDbLine
 10
520.2095339999998
 20
315.054993
 30
0.0
 11
519.2095339999998
 21
315.054993
 31
0.0
  0
LINE
  5
9CD
330
851
100
AcDbEntity
  8
1
  6
Continuous
100
AcDbLine
 10
520.2095339999998
 20
321.054993
 30
0.0
 11
519.2095339999998
 21
321.054993
 31
0.0
  0
LINE
  5
9CE
330
851
100
AcDbEntity
  8
1
  6
Continuous
100
AcDbLine
 10
516.2095339999998
 20
314.054993
 30
0.0
 11
515.7095339999998
 21
314.054993
 31
0.0
  0
LINE
  5
9CF
330
851
100
AcDbEntity
  8
1
  6
Continuous
100
AcDbLine
 10
516.2095339999998
 20
322.054993
 30
0.0
 11
515.7095339999998
 21
322.054993
 31
0.0
  0
LINE
  5
9D0
330
851
100
AcDbEntity
  8
1
  6
Continuous
100
AcDbLine
 10
524.30957
 20
325.6549989999998
 30
0.0
 11
515.7095339999998
 21
325.6549989999998
 31
0.0
  0
LINE
  5
9D1
330
851
100
AcDbEntity
  8
1
  6
Continuous
100
AcDbLine
 10
515.7095339999998
 20
313.054993
 30
0.0
 11
514.1095579999999
 21
313.054993
 31
0.0
  0
LINE
  5
9D2
330
851
100
AcDbEntity
  8
1
  6
Continuous
100
AcDbLine
 10
524.30957
 20
324.054993
 30
0.0
 11
515.7095339999998
 21
324.054993
 31
0.0
  0
LINE
  5
9D3
330
851
100
AcDbEntity
  8
1
  6
Continuous
100
AcDbLine
 10
514.1095579999999
 20
313.054993
 30
0.0
 11
514.1095579999999
 21
324.054993
 31
0.0
  0
LINE
  5
9D4
330
851
100
AcDbEntity
  8
1
  6
Continuous
100
AcDbLine
 10
515.7095339999998
 20
313.054993
 30
0.0
 11
515.7095339999998
 21
325.6549989999998
 31
0.0
  0
LINE
  5
9D5
330
851
100
AcDbEntity
  8
1
  6
Continuous
100
AcDbLine
 10
524.30957
 20
324.054993
 30
0.0
 11
524.30957
 21
325.6549989999998
 31
0.0
  0
LINE
  5
9D6
330
851
100
AcDbEntity
  8
4
  6
CENTER
 48
0.1
100
AcDbLine
 10
520.009583
 20
323.054993
 30
0.0
 11
520.009583
 21
326.6549989999998
 31
0.0
  0
LINE
  5
9D7
330
851
100
AcDbEntity
  8
1
  6
Continuous
100
AcDbLine
 10
181.8904419999999
 20
445.617157
 30
0.0
 11
182.5904389999998
 21
445.617157
 31
0.0
  0
LINE
  5
9D8
330
851
100
AcDbEntity
  8
1
  6
Continuous
100
AcDbLine
 10
175.9904479999999
 20
425.9259029999998
 30
0.0
 11
175.9904479999999
 21
418.0171569999997
 31
0.0
  0
LINE
  5
9D9
330
851
100
AcDbEntity
  8
3
  6
DASHED
 48
0.2
100
AcDbLine
 10
45.59999799999999
 20
199.9550079999999
 30
0.0
 11
47.599998
 21
199.9550079999999
 31
0.0
  0
LINE
  5
9DA
330
851
100
AcDbEntity
  8
3
  6
DASHED
 48
0.2
100
AcDbLine
 10
326.1808779999999
 20
185.9550079999999
 30
0.0
 11
326.1808779999999
 21
174.4550079999999
 31
0.0
  0
LINE
  5
9DB
330
851
100
AcDbEntity
  8
3
  6
DASHED
 48
0.2
100
AcDbLine
 10
520.80957
 20
175.255011
 30
0.0
 11
520.80957
 21
174.4550079999999
 31
0.0
  0
LINE
  5
9DC
330
851
100
AcDbEntity
  8
3
  6
DASHED
 48
0.2
100
AcDbLine
 10
343.180878
 20
174.4550079999999
 30
0.0
 11
343.180878
 21
176.9550079999999
 31
0.0
  0
LINE
  5
9DD
330
851
100
AcDbEntity
  8
1
  6
Continuous
100
AcDbLine
 10
343.3808899999998
 20
324.054993
 30
0.0
 11
352.3808899999999
 21
324.054993
 31
0.0
  0
LINE
  5
9DE
330
851
100
AcDbEntity
  8
4
  6
CENTER
 48
0.1
100
AcDbLine
 10
174.2904509999999
 20
449.617157
 30
0.0
 11
180.8904419999999
 21
449.617157
 31
0.0
  0
LINE
  5
9DF
330
851
100
AcDbEntity
  8
4
  6
CENTER
 48
0.1
100
AcDbLine
 10
174.2904509999999
 20
429.617157
 30
0.0
 11
180.8904419999999
 21
429.617157
 31
0.0
  0
LINE
  5
9E0
330
851
100
AcDbEntity
  8
4
  6
CENTER
 48
0.2
100
AcDbLine
 10
31.0
 20
206.6549989999999
 30
0.0
 11
31.0
 21
195.455002
 31
0.0
  0
LINE
  5
9E1
330
851
100
AcDbEntity
  8
4
  6
CENTER
 48
0.2
100
AcDbLine
 10
70.0
 20
206.6549989999999
 30
0.0
 11
70.0
 21
195.455002
 31
0.0
  0
LINE
  5
9E2
330
851
100
AcDbEntity
  8
4
  6
CENTER
 48
0.1
100
AcDbLine
 10
311.9808959999998
 20
204.255005
 30
0.0
 11
311.9808959999998
 21
197.855011
 31
0.0
  0
LINE
  5
9E3
330
851
100
AcDbEntity
  8
4
  6
CENTER
 48
0.1
100
AcDbLine
 10
327.9808959999998
 20
204.5550079999999
 30
0.0
 11
327.9808959999998
 21
197.5550079999999
 31
0.0
  0
LINE
  5
9E4
330
851
100
AcDbEntity
  8
4
  6
CENTER
 48
0.1
100
AcDbLine
 10
350.9808959999999
 20
204.255005
 30
0.0
 11
350.9808959999999
 21
197.855011
 31
0.0
  0
ARC
  5
9E5
330
851
100
AcDbEntity
  8
1
  6
Continuous
100
AcDbCircle
 10
43.59999799999999
 20
318.054993
 30
0.0
 40
5.0
100
AcDbArc
 50
0.0
 51
180.000005
  0
CIRCLE
  5
9E6
330
851
100
AcDbEntity
  8
1
  6
Continuous
100
AcDbCircle
 10
43.59999799999999
 20
318.054993
 30
0.0
 40
3.0
  0
ARC
  5
9E7
330
851
100
AcDbEntity
  8
1
  6
Continuous
100
AcDbCircle
 10
338.3808899999999
 20
318.054993
 30
0.0
 40
5.0
100
AcDbArc
 50
179.9999909999999
 51
0.00001
  0
ARC
  5
9E8
330
851
100
AcDbEntity
  8
1
  6
Continuous
100
AcDbCircle
 10
67.0
 20
201.0550079999999
 30
0.0
 40
9.0
100
AcDbArc
 50
269.9999969999999
 51
90.00000300000001
  0
CIRCLE
  5
9E9
330
851
100
AcDbEntity
  8
1
  6
Continuous
100
AcDbCircle
 10
70.0
 20
201.0550079999999
 30
0.0
 40
2.799999999999998
  0
CIRCLE
  5
9EA
330
851
100
AcDbEntity
  8
1
  6
Continuous
100
AcDbCircle
 10
70.0
 20
201.0550079999999
 30
0.0
 40
1.6
  0
ARC
  5
9EB
330
851
100
AcDbEntity
  8
1
  6
Continuous
100
AcDbCircle
 10
34.0
 20
201.0550079999999
 30
0.0
 40
9.0
100
AcDbArc
 50
90.00000300000001
 51
270.000001
  0
CIRCLE
  5
9EC
330
851
100
AcDbEntity
  8
1
  6
Continuous
100
AcDbCircle
 10
31.0
 20
201.0550079999999
 30
0.0
 40
2.799999999999998
  0
CIRCLE
  5
9ED
330
851
100
AcDbEntity
  8
1
  6
Continuous
100
AcDbCircle
 10
31.0
 20
201.0550079999999
 30
0.0
 40
1.6
  0
ARC
  5
9F2
330
851
100
AcDbEntity
  8
1
  6
Continuous
100
AcDbCircle
 10
314.8808959999998
 20
201.0550079999999
 30
0.0
 40
9.0
100
AcDbArc
 50
90.00000300000001
 51
270.000001
  0
CIRCLE
  5
9F3
330
851
100
AcDbEntity
  8
1
  6
Continuous
100
AcDbCircle
 10
350.9808959999999
 20
201.0550079999999
 30
0.0
 40
1.6
  0
ARC
  5
9F4
330
851
100
AcDbEntity
  8
1
  6
Continuous
100
AcDbCircle
 10
347.9808959999999
 20
201.0550079999999
 30
0.0
 40
9.0
100
AcDbArc
 50
269.9999969999999
 51
90.00000300000001
  0
CIRCLE
  5
9F5
330
851
100
AcDbEntity
  8
1
  6
Continuous
100
AcDbCircle
 10
311.9808959999998
 20
201.0550079999999
 30
0.0
 40
1.6
  0
ARC
  5
9F6
330
851
100
AcDbEntity
  8
1
  6
Continuous
100
AcDbCircle
 10
318.7808899999998
 20
215.855002
 30
0.0
 40
2.0
100
AcDbArc
 50
179.9999909999999
 51
270.000001
  0
ARC
  5
9F7
330
851
100
AcDbEntity
  8
1
  6
Continuous
100
AcDbCircle
 10
330.9808959999998
 20
215.855002
 30
0.0
 40
2.0
100
AcDbArc
 50
269.9999969999999
 51
0.0
  0
ARC
  5
9F8
330
851
100
AcDbEntity
  8
1
  6
Continuous
100
AcDbCircle
 10
317.3808959999999
 20
176.455008
 30
0.0
 40
2.0
100
AcDbArc
 50
269.9999969999999
 51
0.0
  0
ARC
  5
9F9
330
851
100
AcDbEntity
  8
1
  6
Continuous
100
AcDbCircle
 10
343.8808899999998
 20
176.455008
 30
0.0
 40
2.0
100
AcDbArc
 50
179.9999909999999
 51
270.000001
  0
ARC
  5
9FA
330
851
100
AcDbEntity
  8
1
  6
Continuous
100
AcDbCircle
 10
343.8808899999998
 20
215.4550079999999
 30
0.0
 40
2.0
100
AcDbArc
 50
90.00000300000001
 51
180.000005
  0
ARC
  5
9FB
330
851
100
AcDbEntity
  8
1
  6
Continuous
100
AcDbCircle
 10
183.5904389999998
 20
445.717133
 30
0.0
 40
0.4
100
AcDbArc
 50
0.0
 51
90.00000300000001
  0
ARC
  5
9FC
330
851
100
AcDbEntity
  8
1
  6
Continuous
100
AcDbCircle
 10
176.3904419999998
 20
418.0171569999997
 30
0.0
 40
0.4
100
AcDbArc
 50
179.9999909999999
 51
270.000001
  0
ARC
  5
9FF
330
851
100
AcDbEntity
  8
1
  6
Continuous
100
AcDbCircle
 10
182.5904389999998
 20
444.617157
 30
0.0
 40
1.0
100
AcDbArc
 50
0.0
 51
90.00000300000001
  0
ARC
  5
A00
330
851
100
AcDbEntity
  8
1
  6
Continuous
100
AcDbCircle
 10
65.19999799999999
 20
174.4550079999999
 30
0.0
 40
0.4
100
AcDbArc
 50
269.9999969999999
 51
0.0
  0
ARC
  5
A01
330
851
100
AcDbEntity
  8
1
  6
Continuous
100
AcDbCircle
 10
183.5904389999998
 20
217.4550079999999
 30
0.0
 40
0.4
100
AcDbArc
 50
0.0
 51
90.00000300000001
  0
ARC
  5
A02
330
851
100
AcDbEntity
  8
1
  6
Continuous
100
AcDbCircle
 10
176.3904419999998
 20
217.4550079999999
 30
0.0
 40
0.4
100
AcDbArc
 50
90.00000300000001
 51
180.000005
  0
ARC
  5
A08
330
851
100
AcDbEntity
  8
1
  6
Continuous
100
AcDbCircle
 10
521.2095339999998
 20
217.4550079999999
 30
0.0
 40
0.4
100
AcDbArc
 50
0.0
 51
90.00000300000001
  0
ARC
  5
A09
330
851
100
AcDbEntity
  8
1
  6
Continuous
100
AcDbCircle
 10
316.7808899999998
 20
174.4550079999999
 30
0.0
 40
0.4
100
AcDbArc
 50
179.9999909999999
 51
270.000001
  0
CIRCLE
  5
A0E
330
851
100
AcDbEntity
  8
1
  6
Continuous
100
AcDbCircle
 10
327.9808959999998
 20
201.0550079999999
 30
0.0
 40
1.75
  0
CIRCLE
  5
A0F
330
851
100
AcDbEntity
  8
1
  6
Continuous
100
AcDbCircle
 10
338.3808899999999
 20
318.054993
 30
0.0
 40
2.0
  0
ARC
  5
A10
330
851
100
AcDbEntity
  8
1
  6
Continuous
100
AcDbCircle
 10
514.0095829999998
 20
217.4550079999999
 30
0.0
 40
0.4
100
AcDbArc
 50
90.00000300000001
 51
180.000005
  0
ARC
  5
A11
330
851
100
AcDbEntity
  8
5
  6
PHANTOM
 48
0.1
100
AcDbCircle
 10
43.59999799999999
 20
328.554993
 30
0.0
 40
5.0
100
AcDbArc
 50
0.0
 51
180.000005
  0
ARC
  5
A12
330
851
100
AcDbEntity
  8
5
  6
PHANTOM
 48
0.1
100
AcDbCircle
 10
43.59999799999999
 20
221.0550079999999
 30
0.0
 40
5.0
100
AcDbArc
 50
0.0
 51
180.000005
  0
CIRCLE
  5
A13
330
851
100
AcDbEntity
  8
5
  6
PHANTOM
 48
0.1
100
AcDbCircle
 10
43.59999799999999
 20
221.0550079999999
 30
0.0
 40
3.0
  0
CIRCLE
  5
A14
330
851
100
AcDbEntity
  8
5
  6
PHANTOM
 48
0.1
100
AcDbCircle
 10
338.3808899999999
 20
221.0550079999999
 30
0.0
 40
2.0
  0
ARC
  5
A15
330
851
100
AcDbEntity
  8
5
  6
PHANTOM
 48
0.1
100
AcDbCircle
 10
338.3808899999999
 20
221.0550079999999
 30
0.0
 40
5.0
100
AcDbArc
 50
179.9999909999999
 51
0.00001
  0
ARC
  5
A16
330
851
100
AcDbEntity
  8
5
  6
PHANTOM
 48
0.1
100
AcDbCircle
 10
181.8904419999999
 20
227.055008
 30
0.0
 40
1.6
100
AcDbArc
 50
0.0
 51
90.00000300000001
  0
ARC
  5
A17
330
851
100
AcDbEntity
  8
5
  6
PHANTOM
 48
0.1
100
AcDbCircle
 10
515.7095339999998
 20
227.055008
 30
0.0
 40
1.6
100
AcDbArc
 50
90.00000300000001
 51
180.000005
  0
ARC
  5
A18
330
851
100
AcDbEntity
  8
3
  6
DASHED
 48
0.2
100
AcDbCircle
 10
46.599998
 20
183.955008
 30
0.0
 40
2.0
100
AcDbArc
 50
0.0
 51
90.00000300000001
  0
ARC
  5
A19
330
851
100
AcDbEntity
  8
3
  6
DASHED
 48
0.2
100
AcDbCircle
 10
45.59999799999999
 20
187.4550079999999
 30
0.0
 40
1.5
100
AcDbArc
 50
179.9999909999999
 51
270.000001
  0
ARC
  5
A1A
330
851
100
AcDbEntity
  8
3
  6
DASHED
 48
0.2
100
AcDbCircle
 10
45.59999799999999
 20
198.4550079999999
 30
0.0
 40
1.5
100
AcDbArc
 50
90.00000300000001
 51
180.000005
  0
ARC
  5
A1B
330
851
100
AcDbEntity
  8
3
  6
DASHED
 48
0.2
100
AcDbCircle
 10
47.599998
 20
200.9550079999999
 30
0.0
 40
1.0
100
AcDbArc
 50
269.9999969999999
 51
0.0
  0
ARC
  5
A1C
330
851
100
AcDbEntity
  8
3
  6
DASHED
 48
0.2
100
AcDbCircle
 10
336.3808899999999
 20
198.4550079999999
 30
0.0
 40
1.5
100
AcDbArc
 50
0.0
 51
90.00000300000001
  0
ARC
  5
A1D
330
851
100
AcDbEntity
  8
3
  6
DASHED
 48
0.2
100
AcDbCircle
 10
335.3808899999999
 20
183.955008
 30
0.0
 40
2.0
100
AcDbArc
 50
90.00000300000001
 51
180.000005
  0
ARC
  5
A1E
330
851
100
AcDbEntity
  8
3
  6
DASHED
 48
0.2
100
AcDbCircle
 10
336.3808899999999
 20
187.4550079999999
 30
0.0
 40
1.5
100
AcDbArc
 50
269.9999969999999
 51
0.0
  0
ARC
  5
A1F
330
851
100
AcDbEntity
  8
3
  6
DASHED
 48
0.2
100
AcDbCircle
 10
334.3808899999999
 20
200.9550079999999
 30
0.0
 40
1.0
100
AcDbArc
 50
179.9999909999999
 51
270.000001
  0
ARC
  5
A20
330
851
100
AcDbEntity
  8
1
  6
Continuous
100
AcDbCircle
 10
181.8904419999999
 20
324.054993
 30
0.0
 40
1.6
100
AcDbArc
 50
0.0
 51
90.00000300000001
  0
ARC
  5
A27
330
851
100
AcDbEntity
  8
1
  6
Continuous
100
AcDbCircle
 10
177.5904389999998
 20
429.917145
 30
0.0
 40
4.299999999999998
100
AcDbArc
 50
179.9999909999999
 51
0.00001
  0
CIRCLE
  5
A28
330
851
100
AcDbEntity
  8
1
  6
Continuous
100
AcDbCircle
 10
177.5904389999998
 20
429.617157
 30
0.0
 40
1.649999999999999
  0
CIRCLE
  5
A29
330
851
100
AcDbEntity
  8
1
  6
Continuous
100
AcDbCircle
 10
177.5904389999998
 20
449.617157
 30
0.0
 40
1.649999999999999
  0
ARC
  5
A2A
330
851
100
AcDbEntity
  8
1
  6
Continuous
100
AcDbCircle
 10
177.5904389999998
 20
449.3171389999998
 30
0.0
 40
4.299999999999998
100
AcDbArc
 50
0.0
 51
180.000005
  0
ARC
  5
A2B
330
851
100
AcDbEntity
  8
1
  6
Continuous
100
AcDbCircle
 10
515.7095339999998
 20
324.054993
 30
0.0
 40
1.6
100
AcDbArc
 50
90.00000300000001
 51
180.000005
  0
TEXT
  5
A2C
330
851
100
AcDbEntity
  8
6
  6
Continuous
100
AcDbText
 10
27.97945
 20
10.0487
 30
0.0
 40
1.399999999999999
  1
6
 41
1.069393
100
AcDbText
  0
TEXT
  5
A2D
330
851
100
AcDbEntity
  8
1
  6
Continuous
100
AcDbText
 10
17.97945
 20
10.0487
 30
0.0
 40
1.399999999999999
  1
1
 41
1.069393
100
AcDbText
  0
TEXT
  5
A2E
330
851
100
AcDbEntity
  8
1
  6
Continuous
100
AcDbText
 10
9.99995
 20
10.0
 30
0.0
 40
1.399999999999999
  1
LAYER
 41
1.009912999999996
100
AcDbText
  0
TEXT
  5
A2F
330
851
100
AcDbEntity
  8
2
  6
Continuous
100
AcDbText
 10
19.97944999999998
 20
10.0487
 30
0.0
 40
1.399999999999999
  1
2
 41
1.069393
100
AcDbText
  0
TEXT
  5
A30
330
851
100
AcDbEntity
  8
3
  6
DASHED
100
AcDbText
 10
21.97945
 20
10.0487
 30
0.0
 40
1.399999999999999
  1
3
 41
1.069393
100
AcDbText
  0
TEXT
  5
A31
330
851
100
AcDbEntity
  8
4
  6
CENTER
100
AcDbText
 10
23.97944999999999
 20
10.0487
 30
0.0
 40
1.399999999999999
  1
4
 41
1.069393
100
AcDbText
  0
TEXT
  5
A32
330
851
100
AcDbEntity
  8
5
  6
PHANTOM
100
AcDbText
 10
25.97945
 20
10.0487
 30
0.0
 40
1.399999999999999
  1
5
 41
1.069393
100
AcDbText
  0
TEXT
  5
A33
330
851
100
AcDbEntity
  8
7
  6
Continuous
100
AcDbText
 10
10.00005
 20
26.0
 30
0.0
 40
3.0
  1
CODE No.5024
 41
1.003962999999999
100
AcDbText
  0
TEXT
  5
A34
330
851
100
AcDbEntity
  8
7
  6
Continuous
100
AcDbText
 10
10.00005
 20
18.0
 30
0.0
 40
3.0
  1
TYPE No.TM-50-1
 41
1.003152
100
AcDbText
  0
TEXT
  5
A35
330
851
100
AcDbEntity
  8
7
  6
Continuous
100
AcDbText
 10
29.97944999999999
 20
10.0487
 30
0.0
 40
1.399999999999999
  1
7
 41
1.069393
100
AcDbText
  0
ARC
  5
A36
330
851
100
AcDbEntity
  8
5
  6
PHANTOM
 48
0.1
100
AcDbCircle
 10
43.59999799999999
 20
328.554993
 30
0.0
 40
3.0
100
AcDbArc
 50
284.8355669999999
 51
255.164433
  0
LINE
  5
A37
330
851
100
AcDbEntity
  8
4
  6
CENTER
 48
0.2
100
AcDbLine
 10
524.5323289999999
 20
201.0550079999999
 30
0.0
 11
506.7909419999998
 21
201.0550079999999
 31
0.0
  0
ARC
  5
C79
330
851
100
AcDbEntity
  8
1
  6
Continuous
100
AcDbCircle
 10
187.0904389999998
 20
437.2171329999998
 30
0.0
 40
1.0
100
AcDbArc
 50
270.0
 51
0.0
  0
ARC
  5
C7A
330
851
100
AcDbEntity
  8
1
  6
Continuous
100
AcDbCircle
 10
185.590439
 20
436.2171449999998
 30
0.0
 40
1.0
100
AcDbArc
 50
90.00000000000218
 51
179.9999999999998
  0
ARC
  5
C7B
330
851
100
AcDbEntity
  8
1
  6
Continuous
100
AcDbCircle
 10
187.0904389999997
 20
421.217133
 30
0.0
 40
1.0
100
AcDbArc
 50
0.0
 51
89.99999999999785
  0
ARC
  5
C7C
330
851
100
AcDbEntity
  8
1
  6
Continuous
100
AcDbCircle
 10
185.5904389999999
 20
422.2171509999998
 30
0.0
 40
1.0
100
AcDbArc
 50
179.9999999999997
 51
270.0
  0
LINE
  5
E77
330
851
100
AcDbEntity
  8
4
  6
CENTER
 48
0.5
100
AcDbLine
 10
177.5904389999998
 20
75.59999799999999
 30
0.0
 11
177.5904389999998
 21
43.59999799999999
 31
0.0
  0
LINE
  5
E78
330
851
100
AcDbEntity
  8
1
  6
Continuous
100
AcDbLine
 10
173.290451
 20
69.300003
 30
0.0
 11
173.290451
 21
49.900002
 31
0.0
  0
LINE
  5
E79
330
851
100
AcDbEntity
  8
1
  6
Continuous
100
AcDbLine
 10
184.4904479999998
 20
61.599998
 30
0.0
 11
184.4904479999998
 21
57.599998
 31
0.0
  0
LINE
  5
E7A
330
851
100
AcDbEntity
  8
1
  6
Continuous
100
AcDbLine
 10
176.7904509999999
 20
56.400002
 30
0.0
 11
176.7904509999999
 21
71.800003
 31
0.0
  0
LINE
  5
E7B
330
851
100
AcDbEntity
  8
1
  6
Continuous
100
AcDbLine
 10
181.3904419999999
 20
54.599998
 30
0.0
 11
181.3904419999999
 21
64.800003
 31
0.0
  0
LINE
  5
E7C
330
851
100
AcDbEntity
  8
1
  6
Continuous
100
AcDbLine
 10
176.3904419999998
 20
53.5
 30
0.0
 11
176.3904419999998
 21
81.199998
 31
0.0
  0
LINE
  5
E7D
330
851
100
AcDbEntity
  8
1
  6
Continuous
100
AcDbLine
 10
175.9904479999999
 20
53.5
 30
0.0
 11
175.9904479999999
 21
81.199998
 31
0.0
  0
LINE
  5
E7E
330
851
100
AcDbEntity
  8
1
  6
Continuous
100
AcDbLine
 10
178.3904419999998
 20
56.400002
 30
0.0
 11
178.3904419999998
 21
71.800003
 31
0.0
  0
LINE
  5
E7F
330
851
100
AcDbEntity
  8
1
  6
Continuous
100
AcDbLine
 10
182.5904389999998
 20
54.599998
 30
0.0
 11
182.5904389999998
 21
64.800003
 31
0.0
  0
LINE
  5
E80
330
851
100
AcDbEntity
  8
1
  6
Continuous
100
AcDbLine
 10
183.5904389999998
 20
53.5
 30
0.0
 11
183.5904389999998
 21
81.6
 31
0.0
  0
LINE
  5
E81
330
851
100
AcDbEntity
  8
1
  6
Continuous
100
AcDbLine
 10
188.0904389999998
 20
62.0
 30
0.0
 11
188.0904389999998
 21
41.0
 31
0.0
  0
LINE
  5
E82
330
851
100
AcDbEntity
  8
1
  6
Continuous
100
AcDbLine
 10
187.0904419999997
 20
61.99999900000001
 30
0.0
 11
187.0904419999997
 21
41.0
 31
0.0
  0
ARC
  5
E84
330
851
100
AcDbEntity
  8
1
  6
Continuous
100
AcDbCircle
 10
177.5904389999998
 20
49.900002
 30
0.0
 40
4.299999999999998
100
AcDbArc
 50
179.9999909999999
 51
0.0000100000001922
  0
CIRCLE
  5
E85
330
851
100
AcDbEntity
  8
1
  6
Continuous
100
AcDbCircle
 10
177.5904389999998
 20
49.599998
 30
0.0
 40
3.0
  0
LINE
  5
E86
330
851
100
AcDbEntity
  8
4
  6
CENTER
 48
0.1
100
AcDbLine
 10
182.5904389999998
 20
49.599998
 30
0.0
 11
172.590439
 21
49.599998
 31
0.0
  0
LINE
  5
E87
330
851
100
AcDbEntity
  8
4
  6
CENTER
 48
0.2
100
AcDbLine
 10
185.4904479999999
 20
59.599998
 30
0.0
 11
171.2904509999999
 21
59.599998
 31
0.0
  0
LINE
  5
E88
330
851
100
AcDbEntity
  8
1
  6
Continuous
100
AcDbLine
 10
183.5904389999998
 20
53.5
 30
0.0
 11
176.3904419999998
 21
53.5
 31
0.0
  0
LINE
  5
E89
330
851
100
AcDbEntity
  8
1
  6
Continuous
100
AcDbLine
 10
183.5904389999998
 20
53.09999799999999
 30
0.0
 11
176.3904419999998
 21
53.09999799999999
 31
0.0
  0
LINE
  5
E8A
330
851
100
AcDbEntity
  8
1
  6
Continuous
100
AcDbLine
 10
178.3904419999998
 20
56.400002
 30
0.0
 11
181.3904419999999
 21
56.400002
 31
0.0
  0
LINE
  5
E8B
330
851
100
AcDbEntity
  8
1
  6
Continuous
100
AcDbLine
 10
178.3904419999998
 20
54.799999
 30
0.0
 11
180.7904509999999
 21
54.799999
 31
0.0
  0
LINE
  5
E8C
330
851
100
AcDbEntity
  8
1
  6
Continuous
100
AcDbLine
 10
176.3904419999998
 20
54.599998
 30
0.0
 11
182.5904389999998
 21
54.599998
 31
0.0
  0
LINE
  5
E8D
330
851
100
AcDbEntity
  8
1
  6
Continuous
100
AcDbLine
 10
176.590439
 20
53.599998
 30
0.0
 11
183.5904389999998
 21
53.599998
 31
0.0
  0
CIRCLE
  5
E8E
330
851
100
AcDbEntity
  8
1
  6
Continuous
100
AcDbCircle
 10
177.5904389999998
 20
49.599998
 30
0.0
 40
1.649999999999999
  0
ARC
  5
E8F
330
851
100
AcDbEntity
  8
1
  6
Continuous
100
AcDbCircle
 10
176.3904419999998
 20
53.5
 30
0.0
 40
0.4
100
AcDbArc
 50
179.9999909999999
 51
270.0000009999997
  0
ARC
  5
E90
330
851
100
AcDbEntity
  8
1
  6
Continuous
100
AcDbCircle
 10
178.3904419999998
 20
56.400002
 30
0.0
 40
1.6
100
AcDbArc
 50
179.9999909999999
 51
270.0000009999997
  0
LINE
  5
E91
330
851
100
AcDbEntity
  8
1
  6
Continuous
100
AcDbLine
 10
178.3904419999998
 20
54.599998
 30
0.0
 11
178.3904419999998
 21
54.799999
 31
0.0
  0
LINE
  5
E92
330
851
100
AcDbEntity
  8
1
  6
Continuous
100
AcDbLine
 10
176.590439
 20
53.599998
 30
0.0
 11
176.590439
 21
54.599998
 31
0.0
  0
LINE
  5
E93
330
851
100
AcDbEntity
  8
4
  6
CENTER
 48
0.1
100
AcDbLine
 10
185.0904419999997
 20
47.0
 30
0.0
 11
190.0904389999998
 21
47.0
 31
0.0
  0
LINE
  5
E94
330
851
100
AcDbEntity
  8
1
  6
Continuous
100
AcDbLine
 10
187.0904419999997
 20
41.0
 30
0.0
 11
188.0904389999998
 21
41.0
 31
0.0
  0
ARC
  5
E95
330
851
100
AcDbEntity
  8
1
  6
Continuous
100
AcDbCircle
 10
183.5904389999998
 20
53.5
 30
0.0
 40
0.4
100
AcDbArc
 50
269.9999970000007
 51
0.0
  0
ARC
  5
E96
330
851
100
AcDbEntity
  8
1
  6
Continuous
100
AcDbCircle
 10
182.5904389999998
 20
54.599998
 30
0.0
 40
1.0
100
AcDbArc
 50
269.9999970000007
 51
0.0
  0
LINE
  5
E97
330
851
100
AcDbEntity
  8
1
  6
Continuous
100
AcDbLine
 10
181.8904419999999
 20
53.09999799999999
 30
0.0
 11
181.8904419999999
 21
49.900002
 31
0.0
  0
LINE
  5
E98
330
851
100
AcDbEntity
  8
1
  6
Continuous
100
AcDbLine
 10
183.5904539999999
 20
58.04999200000001
 30
0.0
 11
184.4904479999998
 21
57.59999499999999
 31
0.0
  0
LINE
  5
E99
330
851
100
AcDbEntity
  8
1
  6
Continuous
100
AcDbLine
 10
183.9904479999999
 20
53.5
 30
0.0
 11
183.9904479999999
 21
56.099998
 31
0.0
  0
LINE
  5
E9A
330
851
100
AcDbEntity
  8
1
  6
Continuous
100
AcDbLine
 10
183.9904479999999
 20
56.099998
 30
0.0
 11
183.5904389999998
 21
56.099998
 31
0.0
  0
LINE
  5
E9B
330
851
100
AcDbEntity
  8
1
  6
Continuous
100
AcDbLine
 10
180.7904509999999
 20
54.799999
 30
0.0
 11
180.7904509999999
 21
56.400002
 31
0.0
  0
LINE
  5
E9C
330
851
100
AcDbEntity
  8
4
  6
CENTER
 48
0.1
100
AcDbLine
 10
182.5904389999998
 20
69.599998
 30
0.0
 11
172.590439
 21
69.599998
 31
0.0
  0
LINE
  5
E9D
330
851
100
AcDbEntity
  8
1
  6
Continuous
100
AcDbLine
 10
183.5904389999998
 20
77.5
 30
0.0
 11
176.3904419999998
 21
77.5
 31
0.0
  0
LINE
  5
E9E
330
851
100
AcDbEntity
  8
1
  6
Continuous
100
AcDbLine
 10
179.3904419999997
 20
76.28555299999998
 30
0.0
 11
182.3904419999997
 21
76.28555299999998
 31
0.0
  0
LINE
  5
E9F
330
851
100
AcDbEntity
  8
1
  6
Continuous
100
AcDbLine
 10
183.9904479999999
 20
81.6
 30
0.0
 11
176.3904419999998
 21
81.6
 31
0.0
  0
LINE
  5
EA0
330
851
100
AcDbEntity
  8
1
  6
Continuous
100
AcDbLine
 10
178.3904419999998
 20
71.800003
 30
0.0
 11
180.7904509999999
 21
71.800003
 31
0.0
  0
LINE
  5
EA1
330
851
100
AcDbEntity
  8
1
  6
Continuous
100
AcDbLine
 10
178.3904419999998
 20
73.400002
 30
0.0
 11
180.7904509999999
 21
73.400002
 31
0.0
  0
LINE
  5
EA2
330
851
100
AcDbEntity
  8
4
  6
CENTER
 48
0.2
100
AcDbLine
 10
177.3904419999998
 20
70.0
 30
0.0
 11
187.6904419999998
 21
70.0
 31
0.0
  0
LINE
  5
EA3
330
851
100
AcDbEntity
  8
1
  6
Continuous
100
AcDbLine
 10
178.3904419999998
 20
64.599998
 30
0.0
 11
181.3904419999999
 21
64.599998
 31
0.0
  0
ARC
  5
EA4
330
851
100
AcDbEntity
  8
1
  6
Continuous
100
AcDbCircle
 10
177.5904389999998
 20
69.599998
 30
0.0
 40
3.0
100
AcDbArc
 50
122.2309479999997
 51
237.7690479999992
  0
ARC
  5
EA5
330
851
100
AcDbEntity
  8
1
  6
Continuous
100
AcDbCircle
 10
177.5904389999998
 20
69.300003
 30
0.0
 40
4.299999999999998
100
AcDbArc
 50
111.8447569999996
 51
180.0000050000001
  0
LINE
  5
EA6
330
851
100
AcDbEntity
  8
1
  6
Continuous
100
AcDbLine
 10
179.090439
 20
67.0
 30
0.0
 11
179.090439
 21
71.800003
 31
0.0
  0
LINE
  5
EA7
330
851
100
AcDbEntity
  8
1
  6
Continuous
100
AcDbLine
 10
179.3904419999997
 20
64.599998
 30
0.0
 11
179.3904419999997
 21
71.800003
 31
0.0
  0
LINE
  5
EA8
330
851
100
AcDbEntity
  8
1
  6
Continuous
100
AcDbLine
 10
176.590439
 20
64.800003
 30
0.0
 11
176.590439
 21
77.5
 31
0.0
  0
ARC
  5
EA9
330
851
100
AcDbEntity
  8
1
  6
Continuous
100
AcDbCircle
 10
177.5904389999998
 20
69.599998
 30
0.0
 40
1.649999999999999
100
AcDbArc
 50
165.8588909999997
 51
194.1411059999999
  0
LINE
  5
EAA
330
851
100
AcDbEntity
  8
1
  6
Continuous
100
AcDbLine
 10
178.3904419999998
 20
64.800003
 30
0.0
 11
179.3904419999997
 21
64.800003
 31
0.0
  0
LINE
  5
EAB
330
851
100
AcDbEntity
  8
1
  6
Continuous
100
AcDbLine
 10
176.3904419999998
 20
64.599998
 30
0.0
 11
176.7904509999999
 21
64.599998
 31
0.0
  0
LINE
  5
EAC
330
851
100
AcDbEntity
  8
1
  6
Continuous
100
AcDbLine
 10
176.590439
 20
64.800003
 30
0.0
 11
176.7904509999999
 21
64.800003
 31
0.0
  0
LINE
  5
EAD
330
851
100
AcDbEntity
  8
1
  6
Continuous
100
AcDbLine
 10
179.090439
 20
67.900002
 30
0.0
 11
179.3904419999997
 21
67.900002
 31
0.0
  0
LINE
  5
EAE
330
851
100
AcDbEntity
  8
1
  6
Continuous
100
AcDbLine
 10
178.3904419999998
 20
67.0
 30
0.0
 11
179.090439
 21
67.0
 31
0.0
  0
ARC
  5
EAF
330
851
100
AcDbEntity
  8
1
  6
Continuous
100
AcDbCircle
 10
178.3904419999998
 20
71.800003
 30
0.0
 40
1.6
100
AcDbArc
 50
90.0000029999993
 51
180.0000050000001
  0
LINE
  5
EB0
330
851
100
AcDbEntity
  8
1
  6
Continuous
100
AcDbLine
 10
179.3904419999997
 20
73.400002
 30
0.0
 11
179.3904419999997
 21
77.5
 31
0.0
  0
ARC
  5
EB1
330
851
100
AcDbEntity
  8
1
  6
Continuous
100
AcDbCircle
 10
176.3904419999998
 20
81.199998
 30
0.0
 40
0.4
100
AcDbArc
 50
90.0000029999993
 51
180.0000050000001
  0
LINE
  5
EB3
330
851
100
AcDbEntity
  8
1
  6
Continuous
100
AcDbLine
 10
183.9904479999999
 20
78.59999999999998
 30
0.0
 11
183.9904479999999
 21
81.6
 31
0.0
  0
LINE
  5
EB4
330
851
100
AcDbEntity
  8
1
  6
Continuous
100
AcDbLine
 10
188.0904389999998
 20
78.00000000000001
 30
0.0
 11
188.0904389999998
 21
92.0
 31
0.0
  0
LINE
  5
EB5
330
851
100
AcDbEntity
  8
1
  6
Continuous
100
AcDbLine
 10
187.0904419999997
 20
77.99999699999998
 30
0.0
 11
187.0904419999997
 21
92.0
 31
0.0
  0
LINE
  5
EB7
330
851
100
AcDbEntity
  8
1
  6
Continuous
100
AcDbLine
 10
186.5904509999999
 20
71.75
 30
0.0
 11
186.5904509999999
 21
68.25
 31
0.0
  0
LINE
  5
EB8
330
851
100
AcDbEntity
  8
1
  6
Continuous
100
AcDbLine
 10
182.5904389999998
 20
65.800003
 30
0.0
 11
182.5904389999998
 21
77.5
 31
0.0
  0
LINE
  5
EB9
330
851
100
AcDbEntity
  8
1
  6
Continuous
100
AcDbLine
 10
182.3904419999997
 20
65.800003
 30
0.0
 11
182.3904419999997
 21
77.5
 31
0.0
  0
LINE
  5
EBA
330
851
100
AcDbEntity
  8
1
  6
Continuous
100
AcDbLine
 10
185.5904509999999
 20
77.0
 30
0.0
 11
185.5904509999999
 21
63.0
 31
0.0
  0
LINE
  5
EBB
330
851
100
AcDbEntity
  8
1
  6
Continuous
100
AcDbLine
 10
184.5904389999999
 20
76.99999699999998
 30
0.0
 11
184.590439
 21
62.99999899999999
 31
0.0
  0
ARC
  5
EBD
330
851
100
AcDbEntity
  8
1
  6
Continuous
100
AcDbCircle
 10
182.5904389999998
 20
64.800003
 30
0.0
 40
1.0
100
AcDbArc
 50
0.0
 51
90.0000029999993
  0
LINE
  5
EBF
330
851
100
AcDbEntity
  8
1
  6
Continuous
100
AcDbLine
 10
185.5904509999999
 20
68.5
 30
0.0
 11
186.5904509999999
 21
68.25
 31
0.0
  0
LINE
  5
EC0
330
851
100
AcDbEntity
  8
1
  6
Continuous
100
AcDbLine
 10
184.4904479999998
 20
61.600002
 30
0.0
 11
183.5904539999999
 21
61.150005
 31
0.0
  0
LINE
  5
EC1
330
851
100
AcDbEntity
  8
1
  6
Continuous
100
AcDbLine
 10
182.5904389999998
 20
67.80000300000001
 30
0.0
 11
183.5904389999998
 21
67.80000300000001
 31
0.0
  0
LINE
  5
EC2
330
851
100
AcDbEntity
  8
1
  6
Continuous
100
AcDbLine
 10
183.5904389999998
 20
66.0
 30
0.0
 11
184.590439
 21
66.0
 31
0.0
  0
LINE
  5
EC3
330
851
100
AcDbEntity
  8
1
  6
Continuous
100
AcDbLine
 10
179.590439
 20
64.800003
 30
0.0
 11
179.590439
 21
65.800003
 31
0.0
  0
LINE
  5
EC4
330
851
100
AcDbEntity
  8
1
  6
Continuous
100
AcDbLine
 10
179.590439
 20
65.800003
 30
0.0
 11
182.5904389999998
 21
65.800003
 31
0.0
  0
LINE
  5
EC5
330
851
100
AcDbEntity
  8
1
  6
Continuous
100
AcDbLine
 10
179.590439
 20
64.800003
 30
0.0
 11
182.5904389999998
 21
64.800003
 31
0.0
  0
LINE
  5
EC6
330
851
100
AcDbEntity
  8
1
  6
Continuous
100
AcDbLine
 10
185.590439
 20
61.99999899999999
 30
0.0
 11
187.0904419999997
 21
61.999999
 31
0.0
  0
LINE
  5
EC7
330
851
100
AcDbEntity
  8
1
  6
Continuous
100
AcDbLine
 10
185.5904509999999
 20
63.0
 30
0.0
 11
187.0904389999998
 21
63.0
 31
0.0
  0
LINE
  5
ECA
330
851
100
AcDbEntity
  8
1
  6
Continuous
100
AcDbLine
 10
183.9904479999999
 20
78.59999999999998
 30
0.0
 11
183.5904389999998
 21
78.59999999999998
 31
0.0
  0
LINE
  5
ECB
330
851
100
AcDbEntity
  8
1
  6
Continuous
100
AcDbLine
 10
185.5904509999999
 20
71.5
 30
0.0
 11
186.5904509999999
 21
71.75
 31
0.0
  0
LINE
  5
ECC
330
851
100
AcDbEntity
  8
1
  6
Continuous
100
AcDbLine
 10
182.3904419999997
 20
75.0
 30
0.0
 11
182.5904389999998
 21
75.0
 31
0.0
  0
LINE
  5
ECD
330
851
100
AcDbEntity
  8
1
  6
Continuous
100
AcDbLine
 10
183.5904389999998
 20
74.0
 30
0.0
 11
184.590439
 21
74.0
 31
0.0
  0
LINE
  5
ECE
330
851
100
AcDbEntity
  8
1
  6
Continuous
100
AcDbLine
 10
180.7904509999999
 20
71.800003
 30
0.0
 11
180.7904509999999
 21
73.400002
 31
0.0
  0
LINE
  5
ECF
330
851
100
AcDbEntity
  8
1
  6
Continuous
100
AcDbLine
 10
185.5904389999999
 20
77.99999699999998
 30
0.0
 11
187.0904419999997
 21
77.99999699999998
 31
0.0
  0
LINE
  5
ED0
330
851
100
AcDbEntity
  8
1
  6
Continuous
100
AcDbLine
 10
185.5904509999999
 20
77.0
 30
0.0
 11
187.0904389999998
 21
77.00000000000001
 31
0.0
  0
LINE
  5
ED2
330
851
100
AcDbEntity
  8
4
  6
CENTER
 48
0.1
100
AcDbLine
 10
185.0904419999997
 20
86.0
 30
0.0
 11
190.0904389999998
 21
86.0
 31
0.0
  0
LINE
  5
ED3
330
851
100
AcDbEntity
  8
1
  6
Continuous
100
AcDbLine
 10
187.0904419999997
 20
92.0
 30
0.0
 11
188.0904389999998
 21
92.0
 31
0.0
  0
ARC
  5
FA1
330
851
100
AcDbEntity
  8
1
  6
Continuous
100
AcDbCircle
 10
187.0904389999998
 20
78.00000000000001
 30
0.0
 40
1.0
100
AcDbArc
 50
270.0
 51
0.0
  0
ARC
  5
FA2
330
851
100
AcDbEntity
  8
1
  6
Continuous
100
AcDbCircle
 10
185.5904389999999
 20
76.99999699999998
 30
0.0
 40
1.0
100
AcDbArc
 50
90.0
 51
180.0
  0
ARC
  5
FA3
330
851
100
AcDbEntity
  8
1
  6
Continuous
100
AcDbCircle
 10
187.0904389999998
 20
62.0
 30
0.0
 40
1.0
100
AcDbArc
 50
0.0
 51
90.0
  0
ARC
  5
FA4
330
851
100
AcDbEntity
  8
1
  6
Continuous
100
AcDbCircle
 10
185.590439
 20
62.99999899999999
 30
0.0
 40
1.0
100
AcDbArc
 50
180.0000000000001
 51
270.0
  0
ENDSEC
  0
SECTION
  2
OBJECTS
  0
DICTIONARY
  5
83F
330
0
100
AcDbDictionary
281
     1
  3
ACAD_CIP_PREVIOUS_PRODUCT_INFO
350
11E0
  3
ACAD_COLOR
350
11C2
  3
ACAD_DETAILVIEWSTYLE
350
11DB
  3
ACAD_GROUP
350
840
  3
ACAD_LAYOUT
350
84C
  3
ACAD_MATERIAL
350
1190
  3
ACAD_MLEADERSTYLE
350
11D7
  3
ACAD_MLINESTYLE
350
849
  3
ACAD_PLOTSETTINGS
350
84B
  3
ACAD_PLOTSTYLENAME
350
118E
  3
ACAD_SCALELIST
350
11C5
  3
ACAD_SECTIONVIEWSTYLE
350
11D9
  3
ACAD_TABLESTYLE
350
11C3
  3
ACAD_VISUALSTYLE
350
11A9
  3
ACDB_RECOMPOSE_DATA
350
11FE
  3
AcDbVariableDictionary
350
11F1
  3
DWGPROPS
350
11FF
  0
DICTIONARY
  5
11E1
330
843
100
AcDbDictionary
280
     1
281
     1
  3
ADSK_XREC_LAYER_RECONCILED
360
11E2
  0
DICTIONARY
  5
11E3
330
859
100
AcDbDictionary
280
     1
281
     1
  3
ADSK_XREC_LAYER_RECONCILED
360
11E4
  0
DICTIONARY
  5
11E5
330
85A
100
AcDbDictionary
280
     1
281
     1
  3
ADSK_XREC_LAYER_RECONCILED
360
11E6
  0
DICTIONARY
  5
11E7
330
85B
100
AcDbDictionary
280
     1
281
     1
  3
ADSK_XREC_LAYER_RECONCILED
360
11E8
  0
DICTIONARY
  5
11E9
330
85C
100
AcDbDictionary
280
     1
281
     1
  3
ADSK_XREC_LAYER_RECONCILED
360
11EA
  0
DICTIONARY
  5
11EB
330
85D
100
AcDbDictionary
280
     1
281
     1
  3
ADSK_XREC_LAYER_RECONCILED
360
11EC
  0
DICTIONARY
  5
11ED
330
85E
100
AcDbDictionary
280
     1
281
     1
  3
ADSK_XREC_LAYER_RECONCILED
360
11EE
  0
DICTIONARY
  5
11EF
330
85F
100
AcDbDictionary
280
     1
281
     1
  3
ADSK_XREC_LAYER_RECONCILED
360
11F0
  0
DICTIONARY
  5
A52
330
851
100
AcDbDictionary
281
     1
  3
ACAD_LAYOUTSELFREF
350
118A
  0
DICTIONARY
  5
A50
330
84D
100
AcDbDictionary
281
     1
  3
ACAD_LAYOUTSELFREF
350
1189
  0
XRECORD
  5
11E0
102
{ACAD_REACTORS
330
83F
102
}
330
83F
100
AcDbXrecord
280
     1
300
ACDLT
300
2014
300
ACDLT_F_S
  0
DICTIONARY
  5
11C2
102
{ACAD_REACTORS
330
83F
102
}
330
83F
100
AcDbDictionary
281
     1
  0
DICTIONARY
  5
11DB
102
{ACAD_REACTORS
330
83F
102
}
330
83F
100
AcDbDictionary
281
     1
  3
Imperial24
350
11DC
  0
DICTIONARY
  5
840
102
{ACAD_REACTORS
330
83F
102
}
330
83F
100
AcDbDictionary
281
     1
  0
DICTIONARY
  5
84C
102
{ACAD_REACTORS
330
83F
102
}
330
83F
100
AcDbDictionary
281
     1
  3
Model
350
11DD
  3
レイアウト1
350
11DE
  0
DICTIONARY
  5
1190
102
{ACAD_REACTORS
330
83F
102
}
330
83F
100
AcDbDictionary
281
     1
  3
ByBlock
350
1199
  3
ByLayer
350
1191
  3
Global
350
11A1
  0
DICTIONARY
  5
11D7
102
{ACAD_REACTORS
330
83F
102
}
330
83F
100
AcDbDictionary
281
     1
  3
Standard
350
11D8
  0
DICTIONARY
  5
849
102
{ACAD_REACTORS
330
83F
102
}
330
83F
100
AcDbDictionary
281
     1
  3
STANDARD
350
84A
  0
DICTIONARY
  5
84B
102
{ACAD_REACTORS
330
83F
102
}
330
83F
100
AcDbDictionary
281
     1
  0
ACDBDICTIONARYWDFLT
  5
118E
102
{ACAD_REACTORS
330
83F
102
}
330
83F
100
AcDbDictionary
281
     1
  3
Normal
350
118F
100
AcDbDictionaryWithDefault
340
118F
  0
DICTIONARY
  5
11C5
102
{ACAD_REACTORS
330
83F
102
}
330
83F
100
AcDbDictionary
281
     1
  3
A0
350
11C6
  3
A1
350
11C7
  3
A2
350
11C8
  3
A3
350
11C9
  3
A4
350
11CA
  3
A5
350
11CB
  3
A6
350
11CC
  3
A7
350
11CD
  3
A8
350
11CE
  3
A9
350
11CF
  3
B0
350
11D0
  3
B1
350
11D1
  3
B2
350
11D2
  3
B3
350
11D3
  3
B4
350
11D4
  3
B5
350
11D5
  3
B6
350
11D6
  0
DICTIONARY
  5
11D9
102
{ACAD_REACTORS
330
83F
102
}
330
83F
100
AcDbDictionary
281
     1
  3
Imperial24
350
11DA
  0
DICTIONARY
  5
11C3
102
{ACAD_REACTORS
330
83F
102
}
330
83F
100
AcDbDictionary
281
     1
  3
Standard
350
11C4
  0
DICTIONARY
  5
11A9
102
{ACAD_REACTORS
330
83F
102
}
330
83F
100
AcDbDictionary
281
     1
  3
2dWireframe
350
11AF
  3
Basic
350
11AE
  3
Brighten
350
11B5
  3
ColorChange
350
11B9
  3
Conceptual
350
11B2
  3
Dim
350
11B4
  3
EdgeColorOff
350
11C1
  3
Facepattern
350
11B8
  3
Flat
350
11AA
  3
FlatWithEdges
350
11AB
  3
Gouraud
350
11AC
  3
GouraudWithEdges
350
11AD
  3
Hidden
350
11B1
  3
JitterOff
350
11BF
  3
Linepattern
350
11B7
  3
OverhangOff
350
11C0
  3
Realistic
350
11B3
  3
Shaded
350
11BE
  3
Shaded with edges
350
11BD
  3
Shades of Gray
350
11BA
  3
Sketchy
350
11BB
  3
Thicken
350
11B6
  3
Wireframe
350
11B0
  3
X-Ray
350
11BC
  0
XRECORD
  5
11FE
102
{ACAD_REACTORS
330
83F
102
}
330
83F
100
AcDbXrecord
280
     1
 90
        1
330
11C4
  0
DICTIONARY
  5
11F1
102
{ACAD_REACTORS
330
83F
102
}
330
83F
100
AcDbDictionary
281
     1
  3
CANNOSCALE
350
11F6
  3
CMLEADERSTYLE
350
11F3
  3
CTABLESTYLE
350
11F2
  3
CVIEWDETAILSTYLE
350
11F4
  3
CVIEWSECTIONSTYLE
350
11F5
  3
DIMASSOC
350
11F9
  3
INDEXCTL
350
11F8
  3
SORTENTS
350
11F7
  3
XCLIPFRAME
350
11FA
  0
XRECORD
  5
11FF
102
{ACAD_REACTORS
330
83F
102
}
330
83F
100
AcDbXrecord
280
     1
  1
DWGPROPS COOKIE
  2

  3

  4

  6

  7

  8
Yoshitsune
  9

300
=
301
=
302
=
303
=
304
=
305
=
306
=
307
=
308
=
309
=
 40
0.073277662037037
 41
2451640.670942003
 42
2457192.622543692
  1

 90
        0
  0
XRECORD
  5
11E2
102
{ACAD_REACTORS
330
11E1
102
}
330
11E1
100
AcDbXrecord
280
     1
290
     1
  0
XRECORD
  5
11E4
102
{ACAD_REACTORS
330
11E3
102
}
330
11E3
100
AcDbXrecord
280
     1
290
     1
  0
XRECORD
  5
11E6
102
{ACAD_REACTORS
330
11E5
102
}
330
11E5
100
AcDbXrecord
280
     1
290
     1
  0
XRECORD
  5
11E8
102
{ACAD_REACTORS
330
11E7
102
}
330
11E7
100
AcDbXrecord
280
     1
290
     1
  0
XRECORD
  5
11EA
102
{ACAD_REACTORS
330
11E9
102
}
330
11E9
100
AcDbXrecord
280
     1
290
     1
  0
XRECORD
  5
11EC
102
{ACAD_REACTORS
330
11EB
102
}
330
11EB
100
AcDbXrecord
280
     1
290
     1
  0
XRECORD
  5
11EE
102
{ACAD_REACTORS
330
11ED
102
}
330
11ED
100
AcDbXrecord
280
     1
290
     1
  0
XRECORD
  5
11F0
102
{ACAD_REACTORS
330
11EF
102
}
330
11EF
100
AcDbXrecord
280
     1
290
     1
  0
XRECORD
  5
118A
102
{ACAD_REACTORS
330
A52
102
}
330
A52
100
AcDbXrecord
280
     1
340
851
  0
XRECORD
  5
1189
102
{ACAD_REACTORS
330
A50
102
}
330
A50
100
AcDbXrecord
280
     1
340
84D
  0
ACDBDETAILVIEWSTYLE
  5
11DC
102
{ACAD_XDICTIONARY
360
1237
102
}
102
{ACAD_REACTORS
330
11DB
102
}
330
11DB
100
AcDbModelDocViewStyle
 70
     0
  3
Imperial24
290
     0
100
AcDbDetailViewStyle
 70
     0
 71
     0
 90
        3
 71
     1
340
844
 40
0.24
340
0
 40
0.24
300

 40
0.36
280
     3
 71
     2
340
848
 90
       25
 71
     3
340
844
 40
0.24
 90
        1
 40
0.75
 90
        1
300
%<\AcVar ViewType \f "%tc1">% %<\AcVar ViewDetailId>%\PSCALE %<\AcVar ViewScale \f "%sn">%
 71
     4
340
848
 90
       25
340
848
 90
       25
280
     0
  0
LAYOUT
  5
11DD
102
{ACAD_XDICTIONARY
360
1239
102
}
102
{ACAD_REACTORS
330
84C
102
}
330
84C
100
AcDbPlotSettings
  1

  2
Canon LBP9100C
  4

  6

 40
0.0
 41
0.0
 42
0.0
 43
0.0
 44
0.0
 45
0.0
 46
0.0
 47
0.0
 48
0.0
 49
0.0
140
0.0
141
0.0
142
1.0
143
1.0
 70
  1712
 72
     0
 73
     0
 74
     0
  7

 75
     0
147
1.0
148
0.0
149
0.0
100
AcDbLayout
  1
Model
 70
     1
 71
     0
 10
0.0
 20
0.0
 11
12.0
 21
9.0
 12
0.0
 22
0.0
 32
0.0
 14
0.0
 24
0.0
 34
0.0
 15
0.0
 25
0.0
 35
0.0
146
0.0
 13
0.0
 23
0.0
 33
0.0
 16
1.0
 26
0.0
 36
0.0
 17
0.0
 27
1.0
 37
0.0
 76
     0
330
851
331
1188
  0
LAYOUT
  5
11DE
102
{ACAD_XDICTIONARY
360
123B
102
}
102
{ACAD_REACTORS
330
84C
102
}
330
84C
100
AcDbPlotSettings
  1

  2
Canon LBP9100C
  4

  6

 40
0.0
 41
0.0
 42
0.0
 43
0.0
 44
0.0
 45
0.0
 46
0.0
 47
0.0
 48
0.0
 49
0.0
140
0.0
141
0.0
142
1.0
143
1.0
 70
   688
 72
     0
 73
     0
 74
     5
  7

 75
    16
147
1.0
148
0.0
149
0.0
100
AcDbLayout
  1
レイアウト1
 70
     1
 71
     1
 10
0.0
 20
0.0
 11
420.0
 21
297.0
 12
0.0
 22
0.0
 32
0.0
 14
1.000000000000000E+20
 24
1.000000000000000E+20
 34
1.000000000000000E+20
 15
-1.000000000000000E+20
 25
-1.000000000000000E+20
 35
-1.000000000000000E+20
146
0.0
 13
0.0
 23
0.0
 33
0.0
 16
1.0
 26
0.0
 36
0.0
 17
0.0
 27
1.0
 37
0.0
 76
     0
330
84D
  0
MATERIAL
  5
1199
102
{ACAD_XDICTIONARY
360
119A
102
}
102
{ACAD_REACTORS
330
1190
102
}
330
1190
100
AcDbMaterial
  1
ByBlock
 72
     0
 43
0.0208333333333333
 43
0.0
 43
0.0
 43
0.0
 43
0.0
 43
0.0208333333333333
 43
0.0
 43
0.0
 43
0.0
 43
0.0
 43
1.0
 43
0.0
 43
0.0
 43
0.0
 43
0.0
 43
1.0
 77
     0
 47
0.0208333333333333
 47
0.0
 47
0.0
 47
0.0
 47
0.0
 47
0.0208333333333333
 47
0.0
 47
0.0
 47
0.0
 47
0.0
 47
1.0
 47
0.0
 47
0.0
 47
0.0
 47
0.0
 47
1.0
171
     0
 49
0.0208333333333333
 49
0.0
 49
0.0
 49
0.0
 49
0.0
 49
0.0208333333333333
 49
0.0
 49
0.0
 49
0.0
 49
0.0
 49
1.0
 49
0.0
 49
0.0
 49
0.0
 49
0.0
 49
1.0
175
     0
142
0.0208333333333333
142
0.0
142
0.0
142
0.0
142
0.0
142
0.0208333333333333
142
0.0
142
0.0
142
0.0
142
0.0
142
1.0
142
0.0
142
0.0
142
0.0
142
0.0
142
1.0
179
     0
144
0.0208333333333333
144
0.0
144
0.0
144
0.0
144
0.0
144
0.0208333333333333
144
0.0
144
0.0
144
0.0
144
0.0
144
1.0
144
0.0
144
0.0
144
0.0
144
0.0
144
1.0
147
0.0208333333333333
147
0.0
147
0.0
147
0.0
147
0.0
147
0.0208333333333333
147
0.0
147
0.0
147
0.0
147
0.0
147
1.0
147
0.0
147
0.0
147
0.0
147
0.0
147
1.0
  0
MATERIAL
  5
1191
102
{ACAD_XDICTIONARY
360
1192
102
}
102
{ACAD_REACTORS
330
1190
102
}
330
1190
100
AcDbMaterial
  1
ByLayer
 72
     0
 43
0.0208333333333333
 43
0.0
 43
0.0
 43
0.0
 43
0.0
 43
0.0208333333333333
 43
0.0
 43
0.0
 43
0.0
 43
0.0
 43
1.0
 43
0.0
 43
0.0
 43
0.0
 43
0.0
 43
1.0
 77
     0
 47
0.0208333333333333
 47
0.0
 47
0.0
 47
0.0
 47
0.0
 47
0.0208333333333333
 47
0.0
 47
0.0
 47
0.0
 47
0.0
 47
1.0
 47
0.0
 47
0.0
 47
0.0
 47
0.0
 47
1.0
171
     0
 49
0.0208333333333333
 49
0.0
 49
0.0
 49
0.0
 49
0.0
 49
0.0208333333333333
 49
0.0
 49
0.0
 49
0.0
 49
0.0
 49
1.0
 49
0.0
 49
0.0
 49
0.0
 49
0.0
 49
1.0
175
     0
142
0.0208333333333333
142
0.0
142
0.0
142
0.0
142
0.0
142
0.0208333333333333
142
0.0
142
0.0
142
0.0
142
0.0
142
1.0
142
0.0
142
0.0
142
0.0
142
0.0
142
1.0
179
     0
144
0.0208333333333333
144
0.0
144
0.0
144
0.0
144
0.0
144
0.0208333333333333
144
0.0
144
0.0
144
0.0
144
0.0
144
1.0
144
0.0
144
0.0
144
0.0
144
0.0
144
1.0
147
0.0208333333333333
147
0.0
147
0.0
147
0.0
147
0.0
147
0.0208333333333333
147
0.0
147
0.0
147
0.0
147
0.0
147
1.0
147
0.0
147
0.0
147
0.0
147
0.0
147
1.0
  0
MATERIAL
  5
11A1
102
{ACAD_XDICTIONARY
360
11A2
102
}
102
{ACAD_REACTORS
330
1190
102
}
330
1190
100
AcDbMaterial
  1
Global
 72
     0
 43
0.0208333333333333
 43
0.0
 43
0.0
 43
0.0
 43
0.0
 43
0.0208333333333333
 43
0.0
 43
0.0
 43
0.0
 43
0.0
 43
1.0
 43
0.0
 43
0.0
 43
0.0
 43
0.0
 43
1.0
 77
     0
 47
0.0208333333333333
 47
0.0
 47
0.0
 47
0.0
 47
0.0
 47
0.0208333333333333
 47
0.0
 47
0.0
 47
0.0
 47
0.0
 47
1.0
 47
0.0
 47
0.0
 47
0.0
 47
0.0
 47
1.0
171
     0
 49
0.0208333333333333
 49
0.0
 49
0.0
 49
0.0
 49
0.0
 49
0.0208333333333333
 49
0.0
 49
0.0
 49
0.0
 49
0.0
 49
1.0
 49
0.0
 49
0.0
 49
0.0
 49
0.0
 49
1.0
175
     0
142
0.0208333333333333
142
0.0
142
0.0
142
0.0
142
0.0
142
0.0208333333333333
142
0.0
142
0.0
142
0.0
142
0.0
142
1.0
142
0.0
142
0.0
142
0.0
142
0.0
142
1.0
179
     0
144
0.0208333333333333
144
0.0
144
0.0
144
0.0
144
0.0
144
0.0208333333333333
144
0.0
144
0.0
144
0.0
144
0.0
144
1.0
144
0.0
144
0.0
144
0.0
144
0.0
144
1.0
147
0.0208333333333333
147
0.0
147
0.0
147
0.0
147
0.0
147
0.0208333333333333
147
0.0
147
0.0
147
0.0
147
0.0
147
1.0
147
0.0
147
0.0
147
0.0
147
0.0
147
1.0
  0
MLEADERSTYLE
  5
11D8
102
{ACAD_REACTORS
330
11D7
102
}
330
11D7
100
AcDbMLeaderStyle
170
     2
171
     1
172
     0
 90
        2
 40
0.0
 41
0.0
173
     1
 91
-1056964608
340
846
 92
       -2
290
     1
 42
0.09
291
     1
 43
0.36
  3
Standard
 44
0.18
300

342
844
174
     1
178
     6
175
     1
176
     0
 93
-1056964608
 45
0.18
292
     0
297
     0
 46
0.18
 94
-1056964608
 47
1.0
 49
1.0
140
1.0
293
     1
141
0.0
294
     1
177
     0
142
1.0
295
     0
296
     0
143
0.125
1001
ACAD_MLEADERVER
1070
     2
  0
MLINESTYLE
  5
84A
102
{ACAD_REACTORS
330
849
102
}
330
849
100
AcDbMlineStyle
  2
STANDARD
 70
     0
  3

 62
   256
 51
90.0
 52
90.0
 71
     2
 49
0.5
 62
   256
  6
BYLAYER
 49
-0.5
 62
   256
  6
BYLAYER
  0
ACDBPLACEHOLDER
  5
118F
102
{ACAD_REACTORS
330
118E
102
}
330
118E
  0
SCALE
  5
11C6
102
{ACAD_REACTORS
330
11C5
102
}
330
11C5
100
AcDbScale
 70
     0
300
1:1
140
1.0
141
1.0
290
     1
  0
SCALE
  5
11C7
102
{ACAD_REACTORS
330
11C5
102
}
330
11C5
100
AcDbScale
 70
     0
300
1/128" = 1'-0"
140
0.0078125
141
12.0
290
     0
  0
SCALE
  5
11C8
102
{ACAD_REACTORS
330
11C5
102
}
330
11C5
100
AcDbScale
 70
     0
300
1/64" = 1'-0"
140
0.015625
141
12.0
290
     0
  0
SCALE
  5
11C9
102
{ACAD_REACTORS
330
11C5
102
}
330
11C5
100
AcDbScale
 70
     0
300
1/32" = 1'-0"
140
0.03125
141
12.0
290
     0
  0
SCALE
  5
11CA
102
{ACAD_REACTORS
330
11C5
102
}
330
11C5
100
AcDbScale
 70
     0
300
1/16" = 1'-0"
140
0.0625
141
12.0
290
     0
  0
SCALE
  5
11CB
102
{ACAD_REACTORS
330
11C5
102
}
330
11C5
100
AcDbScale
 70
     0
300
3/32" = 1'-0"
140
0.09375
141
12.0
290
     0
  0
SCALE
  5
11CC
102
{ACAD_REACTORS
330
11C5
102
}
330
11C5
100
AcDbScale
 70
     0
300
1/8" = 1'-0"
140
0.125
141
12.0
290
     0
  0
SCALE
  5
11CD
102
{ACAD_REACTORS
330
11C5
102
}
330
11C5
100
AcDbScale
 70
     0
300
3/16" = 1'-0"
140
0.1875
141
12.0
290
     0
  0
SCALE
  5
11CE
102
{ACAD_REACTORS
330
11C5
102
}
330
11C5
100
AcDbScale
 70
     0
300
1/4" = 1'-0"
140
0.25
141
12.0
290
     0
  0
SCALE
  5
11CF
102
{ACAD_REACTORS
330
11C5
102
}
330
11C5
100
AcDbScale
 70
     0
300
3/8" = 1'-0"
140
0.375
141
12.0
290
     0
  0
SCALE
  5
11D0
102
{ACAD_REACTORS
330
11C5
102
}
330
11C5
100
AcDbScale
 70
     0
300
1/2" = 1'-0"
140
0.5
141
12.0
290
     0
  0
SCALE
  5
11D1
102
{ACAD_REACTORS
330
11C5
102
}
330
11C5
100
AcDbScale
 70
     0
300
3/4" = 1'-0"
140
0.75
141
12.0
290
     0
  0
SCALE
  5
11D2
102
{ACAD_REACTORS
330
11C5
102
}
330
11C5
100
AcDbScale
 70
     0
300
1" = 1'-0"
140
1.0
141
12.0
290
     0
  0
SCALE
  5
11D3
102
{ACAD_REACTORS
330
11C5
102
}
330
11C5
100
AcDbScale
 70
     0
300
1-1/2" = 1'-0"
140
1.5
141
12.0
290
     0
  0
SCALE
  5
11D4
102
{ACAD_REACTORS
330
11C5
102
}
330
11C5
100
AcDbScale
 70
     0
300
3" = 1'-0"
140
3.0
141
12.0
290
     0
  0
SCALE
  5
11D5
102
{ACAD_REACTORS
330
11C5
102
}
330
11C5
100
AcDbScale
 70
     0
300
6" = 1'-0"
140
6.0
141
12.0
290
     0
  0
SCALE
  5
11D6
102
{ACAD_REACTORS
330
11C5
102
}
330
11C5
100
AcDbScale
 70
     0
300
1'-0" = 1'-0"
140
12.0
141
12.0
290
     0
  0
ACDBSECTIONVIEWSTYLE
  5
11DA
102
{ACAD_XDICTIONARY
360
1235
102
}
102
{ACAD_REACTORS
330
11D9
102
}
330
11D9
100
AcDbModelDocViewStyle
 70
     0
  3
Imperial24
290
     0
100
AcDbSectionViewStyle
 70
     0
 71
     0
 90
       78
 71
     1
340
844
 40
0.24
340
0
340
0
 40
0.24
300
I, O, Q, S, X, Z
 40
0.48
 90
        3
 40
0.18
 90
        1
 71
     2
340
848
 90
       25
340
848
 90
       50
 40
0.24
 40
0.0
 40
0.24
 71
     3
340
844
 40
0.24
 90
        1
 40
0.75
 90
        1
300
%<\AcVar ViewType \f "%tc1">% %<\AcVar ViewSectionStartId>%-%<\AcVar ViewSectionEndId>%\PSCALE %<\AcVar ViewScale \f "%sn">%
 71
     4
300
ANSI31
 40
1.0
 90
        0
290
     0
290
     0
 90
        6
 40
0.0
 40
1.570796326794896
 40
0.2617993877991494
 40
1.308996938995747
 40
-0.2617993877991494
 40
1.832595714594046
  0
TABLESTYLE
  5
11C4
102
{ACAD_XDICTIONARY
360
11FC
102
}
102
{ACAD_REACTORS
330
11C3
102
}
330
11C3
100
AcDbTableStyle
  3
Standard
 70
     0
 71
     0
 40
0.06
 41
0.06
280
     0
281
     0
  7
STANDARD
140
0.18
170
     2
 62
     0
 63
     7
283
     0
274
    -2
284
     1
 64
     0
275
    -2
285
     1
 65
     0
276
    -2
286
     1
 66
     0
277
    -2
287
     1
 67
     0
278
    -2
288
     1
 68
     0
279
    -2
289
     1
 69
     0
  7
STANDARD
140
0.25
170
     5
 62
     0
 63
     7
283
     0
274
    -2
284
     1
 64
     0
275
    -2
285
     1
 65
     0
276
    -2
286
     1
 66
     0
277
    -2
287
     1
 67
     0
278
    -2
288
     1
 68
     0
279
    -2
289
     1
 69
     0
  7
STANDARD
140
0.18
170
     5
 62
     0
 63
     7
283
     0
274
    -2
284
     1
 64
     0
275
    -2
285
     1
 65
     0
276
    -2
286
     1
 66
     0
277
    -2
287
     1
 67
     0
278
    -2
288
     1
 68
     0
279
    -2
289
     1
 69
     0
  0
VISUALSTYLE
  5
11AF
102
{ACAD_XDICTIONARY
360
120D
102
}
102
{ACAD_REACTORS
330
11A9
102
}
330
11A9
100
AcDbVisualStyle
  2
2dWireframe
 70
     4
 71
     0
 72
     2
 73
     0
 90
        0
 40
-0.6
 41
-30.0
 62
     5
 63
     7
 74
     1
 91
        4
 64
     7
 65
   257
 75
     1
175
     1
 42
1.0
 92
        0
 66
   257
 43
1.0
 76
     1
 77
     6
 78
     2
 67
     7
 79
     5
170
     0
171
     0
290
     0
174
     0
 93
        1
 44
0.0
173
     0
291
     0
 45
0.0
1001
ACAD
1000
AcDbSavedByObjectVersion
1070
     0
  0
VISUALSTYLE
  5
11AE
102
{ACAD_XDICTIONARY
360
120B
102
}
102
{ACAD_REACTORS
330
11A9
102
}
330
11A9
100
AcDbVisualStyle
  2
Basic
 70
     7
 71
     1
 72
     0
 73
     1
 90
        0
 40
-0.6
 41
-30.0
 62
     5
 63
     7
 74
     0
 91
        4
 64
     7
 65
   257
 75
     1
175
     1
 42
1.0
 92
        8
 66
     7
 43
1.0
 76
     1
 77
     6
 78
     2
 67
     7
 79
     5
170
     0
171
     0
290
     0
174
     0
 93
        1
 44
0.0
173
     0
291
     1
 45
0.0
1001
ACAD
1000
AcDbSavedByObjectVersion
1070
     0
  0
VISUALSTYLE
  5
11B5
102
{ACAD_XDICTIONARY
360
1219
102
}
102
{ACAD_REACTORS
330
11A9
102
}
330
11A9
100
AcDbVisualStyle
  2
Brighten
 70
    12
 71
     2
 72
     2
 73
     0
 90
        0
 40
-0.6
 41
-30.0
 62
     5
 63
     7
 74
     1
 91
        4
 64
     7
 65
   257
 75
     1
175
     1
 42
1.0
 92
        8
 66
     7
 43
1.0
 76
     1
 77
     6
 78
     2
 67
     7
 79
     5
170
     0
171
     0
290
     0
174
     0
 93
        1
 44
50.0
173
     0
291
     1
 45
0.0
1001
ACAD
1000
AcDbSavedByObjectVersion
1070
     0
  0
VISUALSTYLE
  5
11B9
102
{ACAD_XDICTIONARY
360
1221
102
}
102
{ACAD_REACTORS
330
11A9
102
}
330
11A9
100
AcDbVisualStyle
  2
ColorChange
 70
    16
 71
     2
 72
     2
 73
     3
 90
        0
 40
-0.6
 41
-30.0
 62
     5
 63
     8
 74
     1
 91
        4
 64
     7
 65
   257
 75
     1
175
     1
 42
1.0
 92
        8
 66
     8
 43
1.0
 76
     1
 77
     6
 78
     2
 67
     7
 79
     5
170
     0
171
     0
290
     0
174
     0
 93
        1
 44
0.0
173
     0
291
     1
 45
0.0
1001
ACAD
1000
AcDbSavedByObjectVersion
1070
     0
  0
VISUALSTYLE
  5
11B2
102
{ACAD_XDICTIONARY
360
1213
102
}
102
{ACAD_REACTORS
330
11A9
102
}
330
11A9
100
AcDbVisualStyle
  2
Conceptual
 70
     9
 71
     3
 72
     2
 73
     0
 90
        0
 40
-0.6
 41
-30.0
 62
     5
 63
     7
 74
     2
 91
        2
 64
     7
 65
   257
 75
     1
175
     1
 42
179.0
 92
        8
 66
     7
 43
1.0
 76
     1
 77
     6
 78
     2
 67
     7
 79
     3
170
     0
171
     0
290
     0
174
     0
 93
        1
 44
0.0
173
     0
291
     0
 45
0.0
1001
ACAD
1000
AcDbSavedByObjectVersion
1070
     0
  0
VISUALSTYLE
  5
11B4
102
{ACAD_XDICTIONARY
360
1217
102
}
102
{ACAD_REACTORS
330
11A9
102
}
330
11A9
100
AcDbVisualStyle
  2
Dim
 70
    11
 71
     2
 72
     2
 73
     0
 90
        0
 40
-0.6
 41
-30.0
 62
     5
 63
     7
 74
     1
 91
        4
 64
     7
 65
   257
 75
     1
175
     1
 42
1.0
 92
        8
 66
     7
 43
1.0
 76
     1
 77
     6
 78
     2
 67
     7
 79
     5
170
     0
171
     0
290
     0
174
     0
 93
        1
 44
-50.0
173
     0
291
     1
 45
0.0
1001
ACAD
1000
AcDbSavedByObjectVersion
1070
     0
  0
VISUALSTYLE
  5
11C1
102
{ACAD_XDICTIONARY
360
1231
102
}
102
{ACAD_REACTORS
330
11A9
102
}
330
11A9
100
AcDbVisualStyle
  2
EdgeColorOff
 70
    22
 71
     2
 72
     2
 73
     0
 90
        0
 40
-0.6
 41
-30.0
 62
     5
 63
     7
 74
     1
 91
        4
 64
     7
 65
   257
 75
     1
175
     1
 42
1.0
 92
        8
 66
     7
 43
1.0
 76
     1
 77
     6
 78
     2
 67
     7
 79
     5
170
     0
171
     0
290
     0
174
     0
 93
        1
 44
0.0
173
     0
291
     1
 45
0.0
1001
ACAD
1000
AcDbSavedByObjectVersion
1070
     0
  0
VISUALSTYLE
  5
11B8
102
{ACAD_XDICTIONARY
360
121F
102
}
102
{ACAD_REACTORS
330
11A9
102
}
330
11A9
100
AcDbVisualStyle
  2
Facepattern
 70
    15
 71
     2
 72
     2
 73
     0
 90
        0
 40
-0.6
 41
-30.0
 62
     5
 63
     7
 74
     1
 91
        4
 64
     7
 65
   257
 75
     1
175
     1
 42
1.0
 92
        8
 66
     7
 43
1.0
 76
     1
 77
     6
 78
     2
 67
     7
 79
     5
170
     0
171
     0
290
     0
174
     0
 93
        1
 44
0.0
173
     0
291
     1
 45
0.0
1001
ACAD
1000
AcDbSavedByObjectVersion
1070
     0
  0
VISUALSTYLE
  5
11AA
102
{ACAD_XDICTIONARY
360
1203
102
}
102
{ACAD_REACTORS
330
11A9
102
}
330
11A9
100
AcDbVisualStyle
  2
Flat
 70
     0
 71
     2
 72
     1
 73
     1
 90
        2
 40
-0.6
 41
30.0
 62
     5
 63
     7
 74
     0
 91
        0
 64
     7
 65
   257
 75
     1
175
     1
 42
1.0
 92
        8
 66
     7
 43
1.0
 76
     1
 77
     6
 78
     2
 67
     7
 79
     5
170
     0
171
     0
290
     0
174
     0
 93
       13
 44
0.0
173
     0
291
     1
 45
0.0
1001
ACAD
1000
AcDbSavedByObjectVersion
1070
     0
  0
VISUALSTYLE
  5
11AB
102
{ACAD_XDICTIONARY
360
1205
102
}
102
{ACAD_REACTORS
330
11A9
102
}
330
11A9
100
AcDbVisualStyle
  2
FlatWithEdges
 70
     1
 71
     2
 72
     1
 73
     1
 90
        2
 40
-0.6
 41
30.0
 62
     5
 63
     7
 74
     1
 91
        0
 64
     7
 65
   257
 75
     1
175
     1
 42
1.0
 92
        0
 66
   257
 43
1.0
 76
     1
 77
     6
 78
     2
 67
     7
 79
     5
170
     0
171
     0
290
     0
174
     0
 93
       13
 44
0.0
173
     0
291
     1
 45
0.0
1001
ACAD
1000
AcDbSavedByObjectVersion
1070
     0
  0
VISUALSTYLE
  5
11AC
102
{ACAD_XDICTIONARY
360
1207
102
}
102
{ACAD_REACTORS
330
11A9
102
}
330
11A9
100
AcDbVisualStyle
  2
Gouraud
 70
     2
 71
     2
 72
     2
 73
     1
 90
        2
 40
-0.6
 41
30.0
 62
     5
 63
     7
 74
     0
 91
        0
 64
     7
 65
   257
 75
     1
175
     1
 42
1.0
 92
        0
 66
     7
 43
1.0
 76
     1
 77
     6
 78
     2
 67
     7
 79
     5
170
     0
171
     0
290
     0
174
     0
 93
       13
 44
0.0
173
     0
291
     1
 45
0.0
1001
ACAD
1000
AcDbSavedByObjectVersion
1070
     0
  0
VISUALSTYLE
  5
11AD
102
{ACAD_XDICTIONARY
360
1209
102
}
102
{ACAD_REACTORS
330
11A9
102
}
330
11A9
100
AcDbVisualStyle
  2
GouraudWithEdges
 70
     3
 71
     2
 72
     2
 73
     1
 90
        2
 40
-0.6
 41
30.0
 62
     5
 63
     7
 74
     1
 91
        0
 64
     7
 65
   257
 75
     1
175
     1
 42
1.0
 92
        0
 66
   257
 43
1.0
 76
     1
 77
     6
 78
     2
 67
     7
 79
     5
170
     0
171
     0
290
     0
174
     0
 93
       13
 44
0.0
173
     0
291
     1
 45
0.0
1001
ACAD
1000
AcDbSavedByObjectVersion
1070
     0
  0
VISUALSTYLE
  5
11B1
102
{ACAD_XDICTIONARY
360
1211
102
}
102
{ACAD_REACTORS
330
11A9
102
}
330
11A9
100
AcDbVisualStyle
  2
Hidden
 70
     6
 71
     1
 72
     2
 73
     2
 90
        0
 40
-0.6
 41
-30.0
 62
     5
 63
     7
 74
     2
 91
        2
 64
     7
 65
   257
 75
     2
175
     1
 42
40.0
 92
        0
 66
   257
 43
1.0
 76
     1
 77
     6
 78
     2
 67
     7
 79
     3
170
     0
171
     0
290
     0
174
     0
 93
        1
 44
0.0
173
     0
291
     0
 45
0.0
1001
ACAD
1000
AcDbSavedByObjectVersion
1070
     0
  0
VISUALSTYLE
  5
11BF
102
{ACAD_XDICTIONARY
360
122D
102
}
102
{ACAD_REACTORS
330
11A9
102
}
330
11A9
100
AcDbVisualStyle
  2
JitterOff
 70
    20
 71
     2
 72
     2
 73
     0
 90
        0
 40
-0.6
 41
-30.0
 62
     5
 63
     7
 74
     1
 91
        4
 64
     7
 65
   257
 75
     1
175
     1
 42
1.0
 92
       10
 66
     7
 43
1.0
 76
     1
 77
     6
 78
     2
 67
     7
 79
     5
170
     0
171
     0
290
     0
174
     0
 93
        1
 44
0.0
173
     0
291
     1
 45
0.0
1001
ACAD
1000
AcDbSavedByObjectVersion
1070
     0
  0
VISUALSTYLE
  5
11B7
102
{ACAD_XDICTIONARY
360
121D
102
}
102
{ACAD_REACTORS
330
11A9
102
}
330
11A9
100
AcDbVisualStyle
  2
Linepattern
 70
    14
 71
     2
 72
     2
 73
     0
 90
        0
 40
-0.6
 41
-30.0
 62
     5
 63
     7
 74
     1
 91
        4
 64
     7
 65
   257
 75
     7
175
     7
 42
1.0
 92
        8
 66
     7
 43
1.0
 76
     1
 77
     6
 78
     2
 67
     7
 79
     5
170
     0
171
     0
290
     0
174
     0
 93
        1
 44
0.0
173
     0
291
     1
 45
0.0
1001
ACAD
1000
AcDbSavedByObjectVersion
1070
     0
  0
VISUALSTYLE
  5
11C0
102
{ACAD_XDICTIONARY
360
122F
102
}
102
{ACAD_REACTORS
330
11A9
102
}
330
11A9
100
AcDbVisualStyle
  2
OverhangOff
 70
    21
 71
     2
 72
     2
 73
     0
 90
        0
 40
-0.6
 41
-30.0
 62
     5
 63
     7
 74
     1
 91
        4
 64
     7
 65
   257
 75
     1
175
     1
 42
1.0
 92
        9
 66
     7
 43
1.0
 76
     1
 77
     6
 78
     2
 67
     7
 79
     5
170
     0
171
     0
290
     0
174
     0
 93
        1
 44
0.0
173
     0
291
     1
 45
0.0
1001
ACAD
1000
AcDbSavedByObjectVersion
1070
     0
  0
VISUALSTYLE
  5
11B3
102
{ACAD_XDICTIONARY
360
1215
102
}
102
{ACAD_REACTORS
330
11A9
102
}
330
11A9
100
AcDbVisualStyle
  2
Realistic
 70
     8
 71
     2
 72
     3
 73
     0
 90
        2
 40
-0.6
 41
30.0
 62
     5
 63
     7
 74
     0
 91
        0
 64
     7
 65
   257
 75
     1
175
     1
 42
1.0
 92
        8
 66
   257
 43
1.0
 76
     1
 77
     6
 78
     2
 67
     7
 79
     3
170
     0
171
     0
290
     0
174
     0
 93
       13
 44
0.0
173
     0
291
     0
 45
0.0
1001
ACAD
1000
AcDbSavedByObjectVersion
1070
     0
  0
VISUALSTYLE
  5
11BE
102
{ACAD_XDICTIONARY
360
122B
102
}
102
{ACAD_REACTORS
330
11A9
102
}
330
11A9
100
AcDbVisualStyle
  2
Shaded
 70
    27
 71
     2
 72
     2
 73
     1
 90
        2
 40
-0.6
 41
30.0
 62
     5
 63
     7
 74
     0
 91
        4
 64
     7
 65
   257
 75
     1
175
     1
 42
1.0
 92
        8
 66
   257
 43
1.0
 76
     1
 77
     6
 78
     2
 67
     8
 79
     3
170
     0
171
     0
290
     0
174
     0
 93
        5
 44
0.0
173
     0
291
     0
 45
0.0
1001
ACAD
1000
AcDbSavedByObjectVersion
1070
     0
  0
VISUALSTYLE
  5
11BD
102
{ACAD_XDICTIONARY
360
1229
102
}
102
{ACAD_REACTORS
330
11A9
102
}
330
11A9
100
AcDbVisualStyle
  2
Shaded with edges
 70
    26
 71
     2
 72
     2
 73
     1
 90
        2
 40
-0.6
 41
30.0
 62
     5
 63
     7
 74
     1
 91
       10
 64
     7
 65
   257
 75
     2
175
     1
 42
1.0
 92
        8
 66
   257
 43
1.0
 76
     1
 77
     6
 78
     2
 67
     7
 79
     3
170
     0
171
     0
290
     0
174
     0
 93
        5
 44
0.0
173
     0
291
     0
 45
0.0
1001
ACAD
1000
AcDbSavedByObjectVersion
1070
     0
  0
VISUALSTYLE
  5
11BA
102
{ACAD_XDICTIONARY
360
1223
102
}
102
{ACAD_REACTORS
330
11A9
102
}
330
11A9
100
AcDbVisualStyle
  2
Shades of Gray
 70
    23
 71
     2
 72
     2
 73
     3
 90
        0
 40
-0.6
 41
-30.0
 62
     5
 63
     7
 74
     2
 91
        2
 64
     7
 65
     7
 75
     1
175
     1
 42
40.0
 92
        8
 66
     7
 43
1.0
 76
     1
 77
     6
 78
     2
 67
     7
 79
     3
170
     0
171
     0
290
     0
174
     0
 93
        1
 44
0.0
173
     0
291
     0
 45
0.0
1001
ACAD
1000
AcDbSavedByObjectVersion
1070
     0
  0
VISUALSTYLE
  5
11BB
102
{ACAD_XDICTIONARY
360
1225
102
}
102
{ACAD_REACTORS
330
11A9
102
}
330
11A9
100
AcDbVisualStyle
  2
Sketchy
 70
    24
 71
     1
 72
     2
 73
     2
 90
        0
 40
-0.6
 41
-30.0
 62
     5
 63
     7
 74
     2
 91
        2
 64
     7
 65
     7
 75
     1
175
     1
 42
40.0
 92
       11
 66
     7
 43
1.0
 76
     1
 77
     6
 78
     2
 67
     7
 79
     6
170
     0
171
     0
290
     0
174
     0
 93
        1
 44
0.0
173
     0
291
     0
 45
0.0
1001
ACAD
1000
AcDbSavedByObjectVersion
1070
     0
  0
VISUALSTYLE
  5
11B6
102
{ACAD_XDICTIONARY
360
121B
102
}
102
{ACAD_REACTORS
330
11A9
102
}
330
11A9
100
AcDbVisualStyle
  2
Thicken
 70
    13
 71
     2
 72
     2
 73
     0
 90
        0
 40
-0.6
 41
-30.0
 62
     5
 63
     7
 74
     1
 91
        4
 64
     7
 65
   257
 75
     1
175
     1
 42
1.0
 92
       12
 66
     7
 43
1.0
 76
     1
 77
     6
 78
     2
 67
     7
 79
     5
170
     0
171
     0
290
     0
174
     0
 93
        1
 44
0.0
173
     0
291
     1
 45
0.0
1001
ACAD
1000
AcDbSavedByObjectVersion
1070
     0
  0
VISUALSTYLE
  5
11B0
102
{ACAD_XDICTIONARY
360
120F
102
}
102
{ACAD_REACTORS
330
11A9
102
}
330
11A9
100
AcDbVisualStyle
  2
Wireframe
 70
     5
 71
     0
 72
     2
 73
     0
 90
        0
 40
-0.6
 41
-30.0
 62
     5
 63
     7
 74
     1
 91
        4
 64
     7
 65
   257
 75
     1
175
     1
 42
1.0
 92
        0
 66
   257
 43
1.0
 76
     1
 77
     6
 78
     2
 67
     7
 79
     3
170
     0
171
     0
290
     0
174
     0
 93
        1
 44
0.0
173
     0
291
     0
 45
0.0
1001
ACAD
1000
AcDbSavedByObjectVersion
1070
     0
  0
VISUALSTYLE
  5
11BC
102
{ACAD_XDICTIONARY
360
1227
102
}
102
{ACAD_REACTORS
330
11A9
102
}
330
11A9
100
AcDbVisualStyle
  2
X-Ray
 70
    25
 71
     2
 72
     2
 73
     1
 90
        1
 40
0.5
 41
-30.0
 62
     5
 63
     7
 74
     1
 91
        0
 64
     7
 65
   257
 75
     1
175
     1
 42
1.0
 92
        8
 66
     7
 43
1.0
 76
     1
 77
     6
 78
     2
 67
     7
 79
     3
170
     0
171
     0
290
     0
174
     0
 93
       13
 44
0.0
173
     0
291
     0
 45
0.0
1001
ACAD
1000
AcDbSavedByObjectVersion
1070
     0
  0
DICTIONARYVAR
  5
11F6
102
{ACAD_REACTORS
330
11F1
102
}
330
11F1
100
DictionaryVariables
280
     0
  1
1:1
  0
DICTIONARYVAR
  5
11F3
102
{ACAD_REACTORS
330
11F1
102
}
330
11F1
100
DictionaryVariables
280
     0
  1
STANDARD
  0
DICTIONARYVAR
  5
11F2
102
{ACAD_REACTORS
330
11F1
102
}
330
11F1
100
DictionaryVariables
280
     0
  1
STANDARD
  0
DICTIONARYVAR
  5
11F4
102
{ACAD_REACTORS
330
11F1
102
}
330
11F1
100
DictionaryVariables
280
     0
  1
Imperial24
  0
DICTIONARYVAR
  5
11F5
102
{ACAD_REACTORS
330
11F1
102
}
330
11F1
100
DictionaryVariables
280
     0
  1
Imperial24
  0
DICTIONARYVAR
  5
11F9
102
{ACAD_REACTORS
330
11F1
102
}
330
11F1
100
DictionaryVariables
280
     0
  1
1
  0
DICTIONARYVAR
  5
11F8
102
{ACAD_REACTORS
330
11F1
102
}
330
11F1
100
DictionaryVariables
280
     0
  1
0
  0
DICTIONARYVAR
  5
11F7
102
{ACAD_REACTORS
330
11F1
102
}
330
11F1
100
DictionaryVariables
280
     0
  1
127
  0
DICTIONARYVAR
  5
11FA
102
{ACAD_REACTORS
330
11F1
102
}
330
11F1
100
DictionaryVariables
280
     0
  1
2
  0
DICTIONARY
  5
1237
330
11DC
100
AcDbDictionary
280
     1
281
     1
  3
ACAD_XREC_ROUNDTRIP
360
1238
  0
DICTIONARY
  5
1239
330
11DD
100
AcDbDictionary
280
     1
281
     1
  3
ACAD_XREC_ROUNDTRIP
360
123A
  0
DICTIONARY
  5
123B
330
11DE
100
AcDbDictionary
280
     1
281
     1
  3
ACAD_XREC_ROUNDTRIP
360
123C
  0
DICTIONARY
  5
119A
330
1199
100
AcDbDictionary
280
     1
281
     1
  3
ACAD_XREC_ROUNDTRIP
360
1201
  3
BUMPTILE
360
119C
  3
DIFFUSETILE
360
119B
  3
OPACITYTILE
360
119F
  3
REFLECTIONTILE
360
119E
  3
REFRACTIONTILE
360
11A0
  3
SPECULARTILE
360
119D
  0
DICTIONARY
  5
1192
330
1191
100
AcDbDictionary
280
     1
281
     1
  3
ACAD_XREC_ROUNDTRIP
360
1200
  3
BUMPTILE
360
1194
  3
DIFFUSETILE
360
1193
  3
OPACITYTILE
360
1197
  3
REFLECTIONTILE
360
1196
  3
REFRACTIONTILE
360
1198
  3
SPECULARTILE
360
1195
  0
DICTIONARY
  5
11A2
330
11A1
100
AcDbDictionary
280
     1
281
     1
  3
ACAD_XREC_ROUNDTRIP
360
1202
  3
BUMPTILE
360
11A4
  3
DIFFUSETILE
360
11A3
  3
OPACITYTILE
360
11A7
  3
REFLECTIONTILE
360
11A6
  3
REFRACTIONTILE
360
11A8
  3
SPECULARTILE
360
11A5
  0
DICTIONARY
  5
1235
330
11DA
100
AcDbDictionary
280
     1
281
     1
  3
ACAD_XREC_ROUNDTRIP
360
1236
  0
DICTIONARY
  5
11FC
330
11C4
100
AcDbDictionary
280
     1
281
     1
  3
ACAD_ROUNDTRIP_2008_TABLESTYLE_CELLSTYLEMAP
360
11FD
  3
ACAD_XREC_ROUNDTRIP
360
1233
  0
DICTIONARY
  5
120D
330
11AF
100
AcDbDictionary
280
     1
281
     1
  3
ACAD_XREC_ROUNDTRIP
360
120E
  0
DICTIONARY
  5
120B
330
11AE
100
AcDbDictionary
280
     1
281
     1
  3
ACAD_XREC_ROUNDTRIP
360
120C
  0
DICTIONARY
  5
1219
330
11B5
100
AcDbDictionary
280
     1
281
     1
  3
ACAD_XREC_ROUNDTRIP
360
121A
  0
DICTIONARY
  5
1221
330
11B9
100
AcDbDictionary
280
     1
281
     1
  3
ACAD_XREC_ROUNDTRIP
360
1222
  0
DICTIONARY
  5
1213
330
11B2
100
AcDbDictionary
280
     1
281
     1
  3
ACAD_XREC_ROUNDTRIP
360
1214
  0
DICTIONARY
  5
1217
330
11B4
100
AcDbDictionary
280
     1
281
     1
  3
ACAD_XREC_ROUNDTRIP
360
1218
  0
DICTIONARY
  5
1231
330
11C1
100
AcDbDictionary
280
     1
281
     1
  3
ACAD_XREC_ROUNDTRIP
360
1232
  0
DICTIONARY
  5
121F
330
11B8
100
AcDbDictionary
280
     1
281
     1
  3
ACAD_XREC_ROUNDTRIP
360
1220
  0
DICTIONARY
  5
1203
330
11AA
100
AcDbDictionary
280
     1
281
     1
  3
ACAD_XREC_ROUNDTRIP
360
1204
  0
DICTIONARY
  5
1205
330
11AB
100
AcDbDictionary
280
     1
281
     1
  3
ACAD_XREC_ROUNDTRIP
360
1206
  0
DICTIONARY
  5
1207
330
11AC
100
AcDbDictionary
280
     1
281
     1
  3
ACAD_XREC_ROUNDTRIP
360
1208
  0
DICTIONARY
  5
1209
330
11AD
100
AcDbDictionary
280
     1
281
     1
  3
ACAD_XREC_ROUNDTRIP
360
120A
  0
DICTIONARY
  5
1211
330
11B1
100
AcDbDictionary
280
     1
281
     1
  3
ACAD_XREC_ROUNDTRIP
360
1212
  0
DICTIONARY
  5
122D
330
11BF
100
AcDbDictionary
280
     1
281
     1
  3
ACAD_XREC_ROUNDTRIP
360
122E
  0
DICTIONARY
  5
121D
330
11B7
100
AcDbDictionary
280
     1
281
     1
  3
ACAD_XREC_ROUNDTRIP
360
121E
  0
DICTIONARY
  5
122F
330
11C0
100
AcDbDictionary
280
     1
281
     1
  3
ACAD_XREC_ROUNDTRIP
360
1230
  0
DICTIONARY
  5
1215
330
11B3
100
AcDbDictionary
280
     1
281
     1
  3
ACAD_XREC_ROUNDTRIP
360
1216
  0
DICTIONARY
  5
122B
330
11BE
100
AcDbDictionary
280
     1
281
     1
  3
ACAD_XREC_ROUNDTRIP
360
122C
  0
DICTIONARY
  5
1229
330
11BD
100
AcDbDictionary
280
     1
281
     1
  3
ACAD_XREC_ROUNDTRIP
360
122A
  0
DICTIONARY
  5
1223
330
11BA
100
AcDbDictionary
280
     1
281
     1
  3
ACAD_XREC_ROUNDTRIP
360
1224
  0
DICTIONARY
  5
1225
330
11BB
100
AcDbDictionary
280
     1
281
     1
  3
ACAD_XREC_ROUNDTRIP
360
1226
  0
DICTIONARY
  5
121B
330
11B6
100
AcDbDictionary
280
     1
281
     1
  3
ACAD_XREC_ROUNDTRIP
360
121C
  0
DICTIONARY
  5
120F
330
11B0
100
AcDbDictionary
280
     1
281
     1
  3
ACAD_XREC_ROUNDTRIP
360
1210
  0
DICTIONARY
  5
1227
330
11BC
100
AcDbDictionary
280
     1
281
     1
  3
ACAD_XREC_ROUNDTRIP
360
1228
  0
XRECORD
  5
1238
102
{ACAD_REACTORS
330
1237
102
}
330
1237
100
AcDbXrecord
280
     1
102
DISPLAYNAME
  1
Imperial24
102
FLAGS
 90
        0
  0
XRECORD
  5
123A
102
{ACAD_REACTORS
330
1239
102
}
330
1239
100
AcDbXrecord
280
     1
102
SHADEPLOT
 70
     0
102
SHADEPLOTRESLEVEL
 70
     2
102
SHADEPLOTCUSTOMDPI
 70
   300
  0
XRECORD
  5
123C
102
{ACAD_REACTORS
330
123B
102
}
330
123B
100
AcDbXrecord
280
     1
102
SHADEPLOT
 70
     0
102
SHADEPLOTRESLEVEL
 70
     2
102
SHADEPLOTCUSTOMDPI
 70
   300
  0
XRECORD
  5
1201
102
{ACAD_REACTORS
330
119A
102
}
330
119A
100
AcDbXrecord
280
     1
102
MATERIAL
148
0.0
149
0.0
149
0.0
 93
        0
 94
      127
282
     0
 72
     0
 77
     0
171
     0
175
     0
179
     0
273
     0
  0
XRECORD
  5
119C
102
{ACAD_REACTORS
330
119A
102
}
330
119A
100
AcDbXrecord
280
     1
270
     1
271
     1
  0
XRECORD
  5
119B
102
{ACAD_REACTORS
330
119A
102
}
330
119A
100
AcDbXrecord
280
     1
270
     1
271
     1
  0
XRECORD
  5
119F
102
{ACAD_REACTORS
330
119A
102
}
330
119A
100
AcDbXrecord
280
     1
270
     1
271
     1
  0
XRECORD
  5
119E
102
{ACAD_REACTORS
330
119A
102
}
330
119A
100
AcDbXrecord
280
     1
270
     1
271
     1
  0
XRECORD
  5
11A0
102
{ACAD_REACTORS
330
119A
102
}
330
119A
100
AcDbXrecord
280
     1
270
     1
271
     1
  0
XRECORD
  5
119D
102
{ACAD_REACTORS
330
119A
102
}
330
119A
100
AcDbXrecord
280
     1
270
     1
271
     1
  0
XRECORD
  5
1200
102
{ACAD_REACTORS
330
1192
102
}
330
1192
100
AcDbXrecord
280
     1
102
MATERIAL
148
0.0
149
0.0
149
0.0
 93
        0
 94
      127
282
     0
 72
     0
 77
     0
171
     0
175
     0
179
     0
273
     0
  0
XRECORD
  5
1194
102
{ACAD_REACTORS
330
1192
102
}
330
1192
100
AcDbXrecord
280
     1
270
     1
271
     1
  0
XRECORD
  5
1193
102
{ACAD_REACTORS
330
1192
102
}
330
1192
100
AcDbXrecord
280
     1
270
     1
271
     1
  0
XRECORD
  5
1197
102
{ACAD_REACTORS
330
1192
102
}
330
1192
100
AcDbXrecord
280
     1
270
     1
271
     1
  0
XRECORD
  5
1196
102
{ACAD_REACTORS
330
1192
102
}
330
1192
100
AcDbXrecord
280
     1
270
     1
271
     1
  0
XRECORD
  5
1198
102
{ACAD_REACTORS
330
1192
102
}
330
1192
100
AcDbXrecord
280
     1
270
     1
271
     1
  0
XRECORD
  5
1195
102
{ACAD_REACTORS
330
1192
102
}
330
1192
100
AcDbXrecord
280
     1
270
     1
271
     1
  0
XRECORD
  5
1202
102
{ACAD_REACTORS
330
11A2
102
}
330
11A2
100
AcDbXrecord
280
     1
102
MATERIAL
148
0.0
149
0.0
149
0.0
 93
        0
 94
      127
282
     0
 72
     0
 77
     0
171
     0
175
     0
179
     0
273
     0
  0
XRECORD
  5
11A4
102
{ACAD_REACTORS
330
11A2
102
}
330
11A2
100
AcDbXrecord
280
     1
270
     1
271
     1
  0
XRECORD
  5
11A3
102
{ACAD_REACTORS
330
11A2
102
}
330
11A2
100
AcDbXrecord
280
     1
270
     1
271
     1
  0
XRECORD
  5
11A7
102
{ACAD_REACTORS
330
11A2
102
}
330
11A2
100
AcDbXrecord
280
     1
270
     1
271
     1
  0
XRECORD
  5
11A6
102
{ACAD_REACTORS
330
11A2
102
}
330
11A2
100
AcDbXrecord
280
     1
270
     1
271
     1
  0
XRECORD
  5
11A8
102
{ACAD_REACTORS
330
11A2
102
}
330
11A2
100
AcDbXrecord
280
     1
270
     1
271
     1
  0
XRECORD
  5
11A5
102
{ACAD_REACTORS
330
11A2
102
}
330
11A2
100
AcDbXrecord
280
     1
270
     1
271
     1
  0
XRECORD
  5
1236
102
{ACAD_REACTORS
330
1235
102
}
330
1235
100
AcDbXrecord
280
     1
102
DISPLAYNAME
  1
Imperial24
102
FLAGS
 90
        0
  0
CELLSTYLEMAP
  5
11FD
102
{ACAD_REACTORS
330
11FC
102
}
330
11FC
100
AcDbCellStyleMap
 90
        3
300
CELLSTYLE
  1
TABLEFORMAT_BEGIN
 90
        5
170
     1
 91
        0
 92
    32768
 62
   257
 93
        1
300
CONTENTFORMAT
  1
CONTENTFORMAT_BEGIN
 90
        0
 91
        0
 92
      512
 93
        0
300

 40
0.0
140
1.0
 94
        5
 62
     0
340
844
144
0.25
309
CONTENTFORMAT_END
171
     0
 94
        0
309
TABLEFORMAT_END
  1
CELLSTYLE_BEGIN
 90
        1
 91
        1
300
_TITLE
309
CELLSTYLE_END
300
CELLSTYLE
  1
TABLEFORMAT_BEGIN
 90
        5
170
     1
 91
        0
 92
        0
 62
   257
 93
        1
300
CONTENTFORMAT
  1
CONTENTFORMAT_BEGIN
 90
        0
 91
        0
 92
      512
 93
        0
300

 40
0.0
140
1.0
 94
        5
 62
     0
340
844
144
0.18
309
CONTENTFORMAT_END
171
     0
 94
        0
309
TABLEFORMAT_END
  1
CELLSTYLE_BEGIN
 90
        2
 91
        1
300
_HEADER
309
CELLSTYLE_END
300
CELLSTYLE
  1
TABLEFORMAT_BEGIN
 90
        5
170
     1
 91
        0
 92
        0
 62
   257
 93
        1
300
CONTENTFORMAT
  1
CONTENTFORMAT_BEGIN
 90
        0
 91
        0
 92
      512
 93
        0
300

 40
0.0
140
1.0
 94
        2
 62
     0
340
844
144
0.18
309
CONTENTFORMAT_END
171
     0
 94
        0
309
TABLEFORMAT_END
  1
CELLSTYLE_BEGIN
 90
        3
 91
        2
300
_DATA
309
CELLSTYLE_END
  0
XRECORD
  5
1233
102
{ACAD_REACTORS
330
11FC
102
}
330
11FC
100
AcDbXrecord
280
     1
102
ACAD_ROUNDTRIP_PRE2007_TABLESTYLE
 90
      512
 91
        0
  1

 92
      512
 93
        0
  2

 94
      512
 95
        0
  3

  0
XRECORD
  5
120E
102
{ACAD_REACTORS
330
120D
102
}
330
120D
100
AcDbXrecord
280
     1
102
RTVSPost2010Prop28
280
     1
102
RTVSPost2010PropOp28
 70
     1
102
RTVSPost2010Prop29
280
     1
102
RTVSPost2010PropOp29
 70
     1
102
RTVSPost2010Prop30
280
     0
102
RTVSPost2010PropOp30
 70
     1
102
RTVSPost2010Prop31
280
     0
102
RTVSPost2010PropOp31
 70
     1
102
RTVSPost2010Prop32
280
     0
102
RTVSPost2010PropOp32
 70
     1
102
RTVSPost2010Prop33
280
     0
102
RTVSPost2010PropOp33
 70
     1
102
RTVSPost2010Prop34
280
     0
102
RTVSPost2010PropOp34
 70
     1
102
RTVSPost2010Prop35
280
     0
102
RTVSPost2010PropOp35
 70
     1
102
RTVSPost2010Prop36
280
     0
102
RTVSPost2010PropOp36
 70
     1
102
RTVSPost2010Prop37
 90
       50
102
RTVSPost2010PropOp37
 70
     1
102
RTVSPost2010Prop38
140
0.0
102
RTVSPost2010PropOp38
 70
     1
102
RTVSPost2010Prop39
140
1.0
102
RTVSPost2010PropOp39
 70
     1
102
RTVSPost2010Prop40
 90
        0
102
RTVSPost2010PropOp40
 70
     1
102
RTVSPost2010Prop41ColorIndex
 90
       18
102
RTVSPost2010Prop41ColorRGB
 90
        0
102
RTVSPost2010PropOp41
 70
     1
102
RTVSPost2010Prop42
 90
       50
102
RTVSPost2010PropOp42
 70
     1
102
RTVSPost2010Prop43
 90
        3
102
RTVSPost2010PropOp43
 70
     1
102
RTVSPost2010Prop44ColorIndex
 90
        5
102
RTVSPost2010Prop44ColorRGB
 90
      255
102
RTVSPost2010PropOp44
 70
     1
102
RTVSPost2010Prop45
280
     0
102
RTVSPost2010PropOp45
 70
     1
102
RTVSPost2010Prop46
 90
       50
102
RTVSPost2010PropOp46
 70
     1
102
RTVSPost2010Prop47
 90
       50
102
RTVSPost2010PropOp47
 70
     1
102
RTVSPost2010Prop48
 90
       50
102
RTVSPost2010PropOp48
 70
     1
102
RTVSPost2010Prop49
280
     0
102
RTVSPost2010PropOp49
 70
     1
102
RTVSPost2010Prop50
 90
       50
102
RTVSPost2010PropOp50
 70
     1
102
RTVSPost2010Prop51ColorIndex
 90
      256
102
RTVSPost2010Prop51ColorRGB
 90
-16777216
102
RTVSPost2010PropOp51
 70
     0
102
RTVSPost2010Prop52
140
1.0
102
RTVSPost2010PropOp52
 70
     0
102
RTVSPost2010Prop53
 90
        2
102
RTVSPost2010PropOp53
 70
     1
102
RTVSPost2010Prop54
  1
strokes_ogs.tif
102
RTVSPost2010PropOp54
 70
     1
102
RTVSPost2010Prop55
280
     0
102
RTVSPost2010PropOp55
 70
     1
102
RTVSPost2010Prop56
140
1.0
102
RTVSPost2010PropOp56
 70
     1
102
RTVSPost2010Prop57
140
1.0
102
RTVSPost2010PropOp57
 70
     1
102
RTVSPropertyOp0
 70
     1
102
RTVSPropertyOp1
 70
     1
102
RTVSPropertyOp2
 70
     1
102
RTVSPropertyOp3
 70
     1
102
RTVSPropertyOp4
 70
     1
102
RTVSPropertyOp5
 70
     1
102
RTVSPropertyOp6
 70
     1
102
RTVSPropertyOp7
 70
     1
102
RTVSPropertyOp8
 70
     1
102
RTVSPropertyOp9
 70
     1
102
RTVSPropertyOp10
 70
     1
102
RTVSPropertyOp11
 70
     1
102
RTVSPropertyOp12
 70
     1
102
RTVSPropertyOp13
 70
     1
102
RTVSPropertyOp14
 70
     1
102
RTVSPropertyOp15
 70
     1
102
RTVSPropertyOp16
 70
     1
102
RTVSPropertyOp17
 70
     1
102
RTVSPropertyOp18
 70
     1
102
RTVSPropertyOp19
 70
     1
102
RTVSPropertyOp20
 70
     1
102
RTVSPropertyOp21
 70
     1
102
RTVSPropertyOp22
 70
     1
102
RTVSPropertyOp23
 70
     1
102
RTVSPropertyOp24
 70
     1
102
RTVSPropertyOp25
 70
     1
102
RTVSPropertyOp26
 70
     1
102
RTVSPropertyOp27
 70
     1
102
RTVSPropertyOp28
 70
     1
102
RTVSPropertyOp29
 70
     1
102
RTVSPropertyOp30
 70
     1
102
RTVSPropertyOp31
 70
     1
102
RTVSPropertyOp32
 70
     1
102
RTVSPropertyOp33
 70
     1
102
RTVSPropertyOp34
 70
     1
102
RTVSPropertyOp35
 70
     1
102
RTVSPropertyOp36
 70
     1
102
RTVSPropertyOp37
 70
     1
102
RTVSPropertyOp38
 70
     1
102
RTVSPropertyOp39
 70
     1
102
RTVSPropertyOp40
 70
     1
102
RTVSPropertyOp41
 70
     1
102
RTVSPropertyOp42
 70
     1
102
RTVSPropertyOp43
 70
     1
102
RTVSPropertyOp44
 70
     1
102
RTVSPropertyOp45
 70
     1
102
RTVSPropertyOp46
 70
     1
102
RTVSPropertyOp47
 70
     1
102
RTVSPropertyOp48
 70
     1
102
RTVSPropertyOp49
 70
     1
102
RTVSPropertyOp50
 70
     1
102
RTVSPropertyOp51
 70
     0
102
RTVSPropertyOp52
 70
     0
102
RTVSPropertyOp53
 70
     1
102
RTVSPropertyOp54
 70
     1
102
RTVSPropertyOp55
 70
     1
102
RTVSPropertyOp56
 70
     1
102
RTVSPropertyOp57
 70
     1
102
RTVSPropertyOp58
 70
     1
102
RTVSPropertyOp59
 70
     1
102
RTVSPropertyOp60
 70
     1
102
RTVSPropertyOp61
 70
     1
102
RTVSPropertyOp62
 70
     1
  0
XRECORD
  5
120C
102
{ACAD_REACTORS
330
120B
102
}
330
120B
100
AcDbXrecord
280
     1
102
RTVSPost2010Prop28
280
     0
102
RTVSPost2010PropOp28
 70
     1
102
RTVSPost2010Prop29
280
     1
102
RTVSPost2010PropOp29
 70
     1
102
RTVSPost2010Prop30
280
     1
102
RTVSPost2010PropOp30
 70
     1
102
RTVSPost2010Prop31
280
     0
102
RTVSPost2010PropOp31
 70
     1
102
RTVSPost2010Prop32
280
     0
102
RTVSPost2010PropOp32
 70
     1
102
RTVSPost2010Prop33
280
     0
102
RTVSPost2010PropOp33
 70
     1
102
RTVSPost2010Prop34
280
     0
102
RTVSPost2010PropOp34
 70
     1
102
RTVSPost2010Prop35
280
     0
102
RTVSPost2010PropOp35
 70
     1
102
RTVSPost2010Prop36
280
     0
102
RTVSPost2010PropOp36
 70
     1
102
RTVSPost2010Prop37
 90
       50
102
RTVSPost2010PropOp37
 70
     1
102
RTVSPost2010Prop38
140
0.0
102
RTVSPost2010PropOp38
 70
     1
102
RTVSPost2010Prop39
140
1.0
102
RTVSPost2010PropOp39
 70
     1
102
RTVSPost2010Prop40
 90
        0
102
RTVSPost2010PropOp40
 70
     1
102
RTVSPost2010Prop41ColorIndex
 90
       18
102
RTVSPost2010Prop41ColorRGB
 90
        0
102
RTVSPost2010PropOp41
 70
     1
102
RTVSPost2010Prop42
 90
       50
102
RTVSPost2010PropOp42
 70
     1
102
RTVSPost2010Prop43
 90
        3
102
RTVSPost2010PropOp43
 70
     1
102
RTVSPost2010Prop44ColorIndex
 90
        5
102
RTVSPost2010Prop44ColorRGB
 90
      255
102
RTVSPost2010PropOp44
 70
     1
102
RTVSPost2010Prop45
280
     0
102
RTVSPost2010PropOp45
 70
     1
102
RTVSPost2010Prop46
 90
       50
102
RTVSPost2010PropOp46
 70
     1
102
RTVSPost2010Prop47
 90
       50
102
RTVSPost2010PropOp47
 70
     1
102
RTVSPost2010Prop48
 90
       50
102
RTVSPost2010PropOp48
 70
     1
102
RTVSPost2010Prop49
280
     0
102
RTVSPost2010PropOp49
 70
     1
102
RTVSPost2010Prop50
 90
       50
102
RTVSPost2010PropOp50
 70
     1
102
RTVSPost2010Prop51ColorIndex
 90
      256
102
RTVSPost2010Prop51ColorRGB
 90
-16777216
102
RTVSPost2010PropOp51
 70
     0
102
RTVSPost2010Prop52
140
1.0
102
RTVSPost2010PropOp52
 70
     0
102
RTVSPost2010Prop53
 90
        2
102
RTVSPost2010PropOp53
 70
     1
102
RTVSPost2010Prop54
  1
strokes_ogs.tif
102
RTVSPost2010PropOp54
 70
     1
102
RTVSPost2010Prop55
280
     0
102
RTVSPost2010PropOp55
 70
     1
102
RTVSPost2010Prop56
140
1.0
102
RTVSPost2010PropOp56
 70
     1
102
RTVSPost2010Prop57
140
1.0
102
RTVSPost2010PropOp57
 70
     1
102
RTVSPropertyOp0
 70
     1
102
RTVSPropertyOp1
 70
     1
102
RTVSPropertyOp2
 70
     1
102
RTVSPropertyOp3
 70
     1
102
RTVSPropertyOp4
 70
     1
102
RTVSPropertyOp5
 70
     1
102
RTVSPropertyOp6
 70
     1
102
RTVSPropertyOp7
 70
     1
102
RTVSPropertyOp8
 70
     1
102
RTVSPropertyOp9
 70
     1
102
RTVSPropertyOp10
 70
     1
102
RTVSPropertyOp11
 70
     1
102
RTVSPropertyOp12
 70
     1
102
RTVSPropertyOp13
 70
     1
102
RTVSPropertyOp14
 70
     1
102
RTVSPropertyOp15
 70
     1
102
RTVSPropertyOp16
 70
     1
102
RTVSPropertyOp17
 70
     1
102
RTVSPropertyOp18
 70
     1
102
RTVSPropertyOp19
 70
     1
102
RTVSPropertyOp20
 70
     1
102
RTVSPropertyOp21
 70
     1
102
RTVSPropertyOp22
 70
     1
102
RTVSPropertyOp23
 70
     1
102
RTVSPropertyOp24
 70
     1
102
RTVSPropertyOp25
 70
     1
102
RTVSPropertyOp26
 70
     1
102
RTVSPropertyOp27
 70
     1
102
RTVSPropertyOp28
 70
     1
102
RTVSPropertyOp29
 70
     1
102
RTVSPropertyOp30
 70
     1
102
RTVSPropertyOp31
 70
     1
102
RTVSPropertyOp32
 70
     1
102
RTVSPropertyOp33
 70
     1
102
RTVSPropertyOp34
 70
     1
102
RTVSPropertyOp35
 70
     1
102
RTVSPropertyOp36
 70
     1
102
RTVSPropertyOp37
 70
     1
102
RTVSPropertyOp38
 70
     1
102
RTVSPropertyOp39
 70
     1
102
RTVSPropertyOp40
 70
     1
102
RTVSPropertyOp41
 70
     1
102
RTVSPropertyOp42
 70
     1
102
RTVSPropertyOp43
 70
     1
102
RTVSPropertyOp44
 70
     1
102
RTVSPropertyOp45
 70
     1
102
RTVSPropertyOp46
 70
     1
102
RTVSPropertyOp47
 70
     1
102
RTVSPropertyOp48
 70
     1
102
RTVSPropertyOp49
 70
     1
102
RTVSPropertyOp50
 70
     1
102
RTVSPropertyOp51
 70
     0
102
RTVSPropertyOp52
 70
     0
102
RTVSPropertyOp53
 70
     1
102
RTVSPropertyOp54
 70
     1
102
RTVSPropertyOp55
 70
     1
102
RTVSPropertyOp56
 70
     1
102
RTVSPropertyOp57
 70
     1
102
RTVSPropertyOp58
 70
     1
102
RTVSPropertyOp59
 70
     1
102
RTVSPropertyOp60
 70
     1
102
RTVSPropertyOp61
 70
     1
102
RTVSPropertyOp62
 70
     1
  0
XRECORD
  5
121A
102
{ACAD_REACTORS
330
1219
102
}
330
1219
100
AcDbXrecord
280
     1
102
RTVSPost2010Prop28
280
     0
102
RTVSPost2010PropOp28
 70
     1
102
RTVSPost2010Prop29
280
     1
102
RTVSPost2010PropOp29
 70
     1
102
RTVSPost2010Prop30
280
     1
102
RTVSPost2010PropOp30
 70
     1
102
RTVSPost2010Prop31
280
     0
102
RTVSPost2010PropOp31
 70
     1
102
RTVSPost2010Prop32
280
     0
102
RTVSPost2010PropOp32
 70
     1
102
RTVSPost2010Prop33
280
     0
102
RTVSPost2010PropOp33
 70
     1
102
RTVSPost2010Prop34
280
     0
102
RTVSPost2010PropOp34
 70
     1
102
RTVSPost2010Prop35
280
     0
102
RTVSPost2010PropOp35
 70
     1
102
RTVSPost2010Prop36
280
     0
102
RTVSPost2010PropOp36
 70
     1
102
RTVSPost2010Prop37
 90
       50
102
RTVSPost2010PropOp37
 70
     1
102
RTVSPost2010Prop38
140
0.0
102
RTVSPost2010PropOp38
 70
     1
102
RTVSPost2010Prop39
140
1.0
102
RTVSPost2010PropOp39
 70
     1
102
RTVSPost2010Prop40
 90
        0
102
RTVSPost2010PropOp40
 70
     1
102
RTVSPost2010Prop41ColorIndex
 90
       18
102
RTVSPost2010Prop41ColorRGB
 90
        0
102
RTVSPost2010PropOp41
 70
     1
102
RTVSPost2010Prop42
 90
       50
102
RTVSPost2010PropOp42
 70
     1
102
RTVSPost2010Prop43
 90
        3
102
RTVSPost2010PropOp43
 70
     1
102
RTVSPost2010Prop44ColorIndex
 90
        5
102
RTVSPost2010Prop44ColorRGB
 90
      255
102
RTVSPost2010PropOp44
 70
     1
102
RTVSPost2010Prop45
280
     0
102
RTVSPost2010PropOp45
 70
     1
102
RTVSPost2010Prop46
 90
       50
102
RTVSPost2010PropOp46
 70
     1
102
RTVSPost2010Prop47
 90
       50
102
RTVSPost2010PropOp47
 70
     1
102
RTVSPost2010Prop48
 90
       50
102
RTVSPost2010PropOp48
 70
     1
102
RTVSPost2010Prop49
280
     0
102
RTVSPost2010PropOp49
 70
     1
102
RTVSPost2010Prop50
 90
       50
102
RTVSPost2010PropOp50
 70
     1
102
RTVSPost2010Prop51ColorIndex
 90
      256
102
RTVSPost2010Prop51ColorRGB
 90
-16777216
102
RTVSPost2010PropOp51
 70
     0
102
RTVSPost2010Prop52
140
1.0
102
RTVSPost2010PropOp52
 70
     0
102
RTVSPost2010Prop53
 90
        2
102
RTVSPost2010PropOp53
 70
     1
102
RTVSPost2010Prop54
  1
strokes_ogs.tif
102
RTVSPost2010PropOp54
 70
     1
102
RTVSPost2010Prop55
280
     0
102
RTVSPost2010PropOp55
 70
     1
102
RTVSPost2010Prop56
140
1.0
102
RTVSPost2010PropOp56
 70
     1
102
RTVSPost2010Prop57
140
1.0
102
RTVSPost2010PropOp57
 70
     1
102
RTVSPropertyOp0
 70
     1
102
RTVSPropertyOp1
 70
     1
102
RTVSPropertyOp2
 70
     1
102
RTVSPropertyOp3
 70
     1
102
RTVSPropertyOp4
 70
     1
102
RTVSPropertyOp5
 70
     1
102
RTVSPropertyOp6
 70
     1
102
RTVSPropertyOp7
 70
     1
102
RTVSPropertyOp8
 70
     1
102
RTVSPropertyOp9
 70
     1
102
RTVSPropertyOp10
 70
     1
102
RTVSPropertyOp11
 70
     1
102
RTVSPropertyOp12
 70
     1
102
RTVSPropertyOp13
 70
     1
102
RTVSPropertyOp14
 70
     1
102
RTVSPropertyOp15
 70
     1
102
RTVSPropertyOp16
 70
     1
102
RTVSPropertyOp17
 70
     1
102
RTVSPropertyOp18
 70
     1
102
RTVSPropertyOp19
 70
     1
102
RTVSPropertyOp20
 70
     1
102
RTVSPropertyOp21
 70
     1
102
RTVSPropertyOp22
 70
     1
102
RTVSPropertyOp23
 70
     1
102
RTVSPropertyOp24
 70
     1
102
RTVSPropertyOp25
 70
     1
102
RTVSPropertyOp26
 70
     1
102
RTVSPropertyOp27
 70
     1
102
RTVSPropertyOp28
 70
     1
102
RTVSPropertyOp29
 70
     1
102
RTVSPropertyOp30
 70
     1
102
RTVSPropertyOp31
 70
     1
102
RTVSPropertyOp32
 70
     1
102
RTVSPropertyOp33
 70
     1
102
RTVSPropertyOp34
 70
     1
102
RTVSPropertyOp35
 70
     1
102
RTVSPropertyOp36
 70
     1
102
RTVSPropertyOp37
 70
     1
102
RTVSPropertyOp38
 70
     1
102
RTVSPropertyOp39
 70
     1
102
RTVSPropertyOp40
 70
     1
102
RTVSPropertyOp41
 70
     1
102
RTVSPropertyOp42
 70
     1
102
RTVSPropertyOp43
 70
     1
102
RTVSPropertyOp44
 70
     1
102
RTVSPropertyOp45
 70
     1
102
RTVSPropertyOp46
 70
     1
102
RTVSPropertyOp47
 70
     1
102
RTVSPropertyOp48
 70
     1
102
RTVSPropertyOp49
 70
     1
102
RTVSPropertyOp50
 70
     1
102
RTVSPropertyOp51
 70
     0
102
RTVSPropertyOp52
 70
     0
102
RTVSPropertyOp53
 70
     1
102
RTVSPropertyOp54
 70
     1
102
RTVSPropertyOp55
 70
     1
102
RTVSPropertyOp56
 70
     1
102
RTVSPropertyOp57
 70
     1
102
RTVSPropertyOp58
 70
     1
102
RTVSPropertyOp59
 70
     1
102
RTVSPropertyOp60
 70
     1
102
RTVSPropertyOp61
 70
     1
102
RTVSPropertyOp62
 70
     1
  0
XRECORD
  5
1222
102
{ACAD_REACTORS
330
1221
102
}
330
1221
100
AcDbXrecord
280
     1
102
RTVSPost2010Prop28
280
     0
102
RTVSPost2010PropOp28
 70
     1
102
RTVSPost2010Prop29
280
     1
102
RTVSPost2010PropOp29
 70
     1
102
RTVSPost2010Prop30
280
     1
102
RTVSPost2010PropOp30
 70
     1
102
RTVSPost2010Prop31
280
     0
102
RTVSPost2010PropOp31
 70
     1
102
RTVSPost2010Prop32
280
     0
102
RTVSPost2010PropOp32
 70
     1
102
RTVSPost2010Prop33
280
     0
102
RTVSPost2010PropOp33
 70
     1
102
RTVSPost2010Prop34
280
     0
102
RTVSPost2010PropOp34
 70
     1
102
RTVSPost2010Prop35
280
     0
102
RTVSPost2010PropOp35
 70
     1
102
RTVSPost2010Prop36
280
     0
102
RTVSPost2010PropOp36
 70
     1
102
RTVSPost2010Prop37
 90
       50
102
RTVSPost2010PropOp37
 70
     1
102
RTVSPost2010Prop38
140
0.0
102
RTVSPost2010PropOp38
 70
     1
102
RTVSPost2010Prop39
140
1.0
102
RTVSPost2010PropOp39
 70
     1
102
RTVSPost2010Prop40
 90
        0
102
RTVSPost2010PropOp40
 70
     1
102
RTVSPost2010Prop41ColorIndex
 90
       18
102
RTVSPost2010Prop41ColorRGB
 90
        0
102
RTVSPost2010PropOp41
 70
     1
102
RTVSPost2010Prop42
 90
       50
102
RTVSPost2010PropOp42
 70
     1
102
RTVSPost2010Prop43
 90
        3
102
RTVSPost2010PropOp43
 70
     1
102
RTVSPost2010Prop44ColorIndex
 90
        5
102
RTVSPost2010Prop44ColorRGB
 90
      255
102
RTVSPost2010PropOp44
 70
     1
102
RTVSPost2010Prop45
280
     0
102
RTVSPost2010PropOp45
 70
     1
102
RTVSPost2010Prop46
 90
       50
102
RTVSPost2010PropOp46
 70
     1
102
RTVSPost2010Prop47
 90
       50
102
RTVSPost2010PropOp47
 70
     1
102
RTVSPost2010Prop48
 90
       50
102
RTVSPost2010PropOp48
 70
     1
102
RTVSPost2010Prop49
280
     0
102
RTVSPost2010PropOp49
 70
     1
102
RTVSPost2010Prop50
 90
       50
102
RTVSPost2010PropOp50
 70
     1
102
RTVSPost2010Prop51ColorIndex
 90
      256
102
RTVSPost2010Prop51ColorRGB
 90
-16777216
102
RTVSPost2010PropOp51
 70
     0
102
RTVSPost2010Prop52
140
1.0
102
RTVSPost2010PropOp52
 70
     0
102
RTVSPost2010Prop53
 90
        2
102
RTVSPost2010PropOp53
 70
     1
102
RTVSPost2010Prop54
  1
strokes_ogs.tif
102
RTVSPost2010PropOp54
 70
     1
102
RTVSPost2010Prop55
280
     0
102
RTVSPost2010PropOp55
 70
     1
102
RTVSPost2010Prop56
140
1.0
102
RTVSPost2010PropOp56
 70
     1
102
RTVSPost2010Prop57
140
1.0
102
RTVSPost2010PropOp57
 70
     1
102
RTVSPropertyOp0
 70
     1
102
RTVSPropertyOp1
 70
     1
102
RTVSPropertyOp2
 70
     1
102
RTVSPropertyOp3
 70
     1
102
RTVSPropertyOp4
 70
     1
102
RTVSPropertyOp5
 70
     1
102
RTVSPropertyOp6
 70
     1
102
RTVSPropertyOp7
 70
     1
102
RTVSPropertyOp8
 70
     1
102
RTVSPropertyOp9
 70
     1
102
RTVSPropertyOp10
 70
     1
102
RTVSPropertyOp11
 70
     1
102
RTVSPropertyOp12
 70
     1
102
RTVSPropertyOp13
 70
     1
102
RTVSPropertyOp14
 70
     1
102
RTVSPropertyOp15
 70
     1
102
RTVSPropertyOp16
 70
     1
102
RTVSPropertyOp17
 70
     1
102
RTVSPropertyOp18
 70
     1
102
RTVSPropertyOp19
 70
     1
102
RTVSPropertyOp20
 70
     1
102
RTVSPropertyOp21
 70
     1
102
RTVSPropertyOp22
 70
     1
102
RTVSPropertyOp23
 70
     1
102
RTVSPropertyOp24
 70
     1
102
RTVSPropertyOp25
 70
     1
102
RTVSPropertyOp26
 70
     1
102
RTVSPropertyOp27
 70
     1
102
RTVSPropertyOp28
 70
     1
102
RTVSPropertyOp29
 70
     1
102
RTVSPropertyOp30
 70
     1
102
RTVSPropertyOp31
 70
     1
102
RTVSPropertyOp32
 70
     1
102
RTVSPropertyOp33
 70
     1
102
RTVSPropertyOp34
 70
     1
102
RTVSPropertyOp35
 70
     1
102
RTVSPropertyOp36
 70
     1
102
RTVSPropertyOp37
 70
     1
102
RTVSPropertyOp38
 70
     1
102
RTVSPropertyOp39
 70
     1
102
RTVSPropertyOp40
 70
     1
102
RTVSPropertyOp41
 70
     1
102
RTVSPropertyOp42
 70
     1
102
RTVSPropertyOp43
 70
     1
102
RTVSPropertyOp44
 70
     1
102
RTVSPropertyOp45
 70
     1
102
RTVSPropertyOp46
 70
     1
102
RTVSPropertyOp47
 70
     1
102
RTVSPropertyOp48
 70
     1
102
RTVSPropertyOp49
 70
     1
102
RTVSPropertyOp50
 70
     1
102
RTVSPropertyOp51
 70
     0
102
RTVSPropertyOp52
 70
     0
102
RTVSPropertyOp53
 70
     1
102
RTVSPropertyOp54
 70
     1
102
RTVSPropertyOp55
 70
     1
102
RTVSPropertyOp56
 70
     1
102
RTVSPropertyOp57
 70
     1
102
RTVSPropertyOp58
 70
     1
102
RTVSPropertyOp59
 70
     1
102
RTVSPropertyOp60
 70
     1
102
RTVSPropertyOp61
 70
     1
102
RTVSPropertyOp62
 70
     1
  0
XRECORD
  5
1214
102
{ACAD_REACTORS
330
1213
102
}
330
1213
100
AcDbXrecord
280
     1
102
RTVSPost2010Prop28
280
     0
102
RTVSPost2010PropOp28
 70
     1
102
RTVSPost2010Prop29
280
     1
102
RTVSPost2010PropOp29
 70
     1
102
RTVSPost2010Prop30
280
     1
102
RTVSPost2010PropOp30
 70
     1
102
RTVSPost2010Prop31
280
     0
102
RTVSPost2010PropOp31
 70
     1
102
RTVSPost2010Prop32
280
     0
102
RTVSPost2010PropOp32
 70
     1
102
RTVSPost2010Prop33
280
     0
102
RTVSPost2010PropOp33
 70
     1
102
RTVSPost2010Prop34
280
     0
102
RTVSPost2010PropOp34
 70
     1
102
RTVSPost2010Prop35
280
     0
102
RTVSPost2010PropOp35
 70
     1
102
RTVSPost2010Prop36
280
     0
102
RTVSPost2010PropOp36
 70
     1
102
RTVSPost2010Prop37
 90
       50
102
RTVSPost2010PropOp37
 70
     1
102
RTVSPost2010Prop38
140
0.0
102
RTVSPost2010PropOp38
 70
     1
102
RTVSPost2010Prop39
140
1.0
102
RTVSPost2010PropOp39
 70
     1
102
RTVSPost2010Prop40
 90
        0
102
RTVSPost2010PropOp40
 70
     1
102
RTVSPost2010Prop41ColorIndex
 90
       18
102
RTVSPost2010Prop41ColorRGB
 90
        0
102
RTVSPost2010PropOp41
 70
     1
102
RTVSPost2010Prop42
 90
       50
102
RTVSPost2010PropOp42
 70
     1
102
RTVSPost2010Prop43
 90
        3
102
RTVSPost2010PropOp43
 70
     1
102
RTVSPost2010Prop44ColorIndex
 90
        5
102
RTVSPost2010Prop44ColorRGB
 90
      255
102
RTVSPost2010PropOp44
 70
     1
102
RTVSPost2010Prop45
280
     0
102
RTVSPost2010PropOp45
 70
     1
102
RTVSPost2010Prop46
 90
       50
102
RTVSPost2010PropOp46
 70
     1
102
RTVSPost2010Prop47
 90
       50
102
RTVSPost2010PropOp47
 70
     1
102
RTVSPost2010Prop48
 90
       50
102
RTVSPost2010PropOp48
 70
     1
102
RTVSPost2010Prop49
280
     0
102
RTVSPost2010PropOp49
 70
     1
102
RTVSPost2010Prop50
 90
       50
102
RTVSPost2010PropOp50
 70
     1
102
RTVSPost2010Prop51ColorIndex
 90
      256
102
RTVSPost2010Prop51ColorRGB
 90
-16777216
102
RTVSPost2010PropOp51
 70
     0
102
RTVSPost2010Prop52
140
1.0
102
RTVSPost2010PropOp52
 70
     0
102
RTVSPost2010Prop53
 90
        2
102
RTVSPost2010PropOp53
 70
     1
102
RTVSPost2010Prop54
  1
strokes_ogs.tif
102
RTVSPost2010PropOp54
 70
     1
102
RTVSPost2010Prop55
280
     0
102
RTVSPost2010PropOp55
 70
     1
102
RTVSPost2010Prop56
140
1.0
102
RTVSPost2010PropOp56
 70
     1
102
RTVSPost2010Prop57
140
1.0
102
RTVSPost2010PropOp57
 70
     1
102
RTVSPropertyOp0
 70
     1
102
RTVSPropertyOp1
 70
     1
102
RTVSPropertyOp2
 70
     1
102
RTVSPropertyOp3
 70
     1
102
RTVSPropertyOp4
 70
     1
102
RTVSPropertyOp5
 70
     1
102
RTVSPropertyOp6
 70
     1
102
RTVSPropertyOp7
 70
     1
102
RTVSPropertyOp8
 70
     1
102
RTVSPropertyOp9
 70
     1
102
RTVSPropertyOp10
 70
     1
102
RTVSPropertyOp11
 70
     1
102
RTVSPropertyOp12
 70
     1
102
RTVSPropertyOp13
 70
     1
102
RTVSPropertyOp14
 70
     1
102
RTVSPropertyOp15
 70
     1
102
RTVSPropertyOp16
 70
     1
102
RTVSPropertyOp17
 70
     1
102
RTVSPropertyOp18
 70
     1
102
RTVSPropertyOp19
 70
     1
102
RTVSPropertyOp20
 70
     1
102
RTVSPropertyOp21
 70
     1
102
RTVSPropertyOp22
 70
     1
102
RTVSPropertyOp23
 70
     1
102
RTVSPropertyOp24
 70
     1
102
RTVSPropertyOp25
 70
     1
102
RTVSPropertyOp26
 70
     1
102
RTVSPropertyOp27
 70
     1
102
RTVSPropertyOp28
 70
     1
102
RTVSPropertyOp29
 70
     1
102
RTVSPropertyOp30
 70
     1
102
RTVSPropertyOp31
 70
     1
102
RTVSPropertyOp32
 70
     1
102
RTVSPropertyOp33
 70
     1
102
RTVSPropertyOp34
 70
     1
102
RTVSPropertyOp35
 70
     1
102
RTVSPropertyOp36
 70
     1
102
RTVSPropertyOp37
 70
     1
102
RTVSPropertyOp38
 70
     1
102
RTVSPropertyOp39
 70
     1
102
RTVSPropertyOp40
 70
     1
102
RTVSPropertyOp41
 70
     1
102
RTVSPropertyOp42
 70
     1
102
RTVSPropertyOp43
 70
     1
102
RTVSPropertyOp44
 70
     1
102
RTVSPropertyOp45
 70
     1
102
RTVSPropertyOp46
 70
     1
102
RTVSPropertyOp47
 70
     1
102
RTVSPropertyOp48
 70
     1
102
RTVSPropertyOp49
 70
     1
102
RTVSPropertyOp50
 70
     1
102
RTVSPropertyOp51
 70
     0
102
RTVSPropertyOp52
 70
     0
102
RTVSPropertyOp53
 70
     1
102
RTVSPropertyOp54
 70
     1
102
RTVSPropertyOp55
 70
     1
102
RTVSPropertyOp56
 70
     1
102
RTVSPropertyOp57
 70
     1
102
RTVSPropertyOp58
 70
     1
102
RTVSPropertyOp59
 70
     1
102
RTVSPropertyOp60
 70
     1
102
RTVSPropertyOp61
 70
     1
102
RTVSPropertyOp62
 70
     1
  0
XRECORD
  5
1218
102
{ACAD_REACTORS
330
1217
102
}
330
1217
100
AcDbXrecord
280
     1
102
RTVSPost2010Prop28
280
     0
102
RTVSPost2010PropOp28
 70
     1
102
RTVSPost2010Prop29
280
     1
102
RTVSPost2010PropOp29
 70
     1
102
RTVSPost2010Prop30
280
     1
102
RTVSPost2010PropOp30
 70
     1
102
RTVSPost2010Prop31
280
     0
102
RTVSPost2010PropOp31
 70
     1
102
RTVSPost2010Prop32
280
     0
102
RTVSPost2010PropOp32
 70
     1
102
RTVSPost2010Prop33
280
     0
102
RTVSPost2010PropOp33
 70
     1
102
RTVSPost2010Prop34
280
     0
102
RTVSPost2010PropOp34
 70
     1
102
RTVSPost2010Prop35
280
     0
102
RTVSPost2010PropOp35
 70
     1
102
RTVSPost2010Prop36
280
     0
102
RTVSPost2010PropOp36
 70
     1
102
RTVSPost2010Prop37
 90
       50
102
RTVSPost2010PropOp37
 70
     1
102
RTVSPost2010Prop38
140
0.0
102
RTVSPost2010PropOp38
 70
     1
102
RTVSPost2010Prop39
140
1.0
102
RTVSPost2010PropOp39
 70
     1
102
RTVSPost2010Prop40
 90
        0
102
RTVSPost2010PropOp40
 70
     1
102
RTVSPost2010Prop41ColorIndex
 90
       18
102
RTVSPost2010Prop41ColorRGB
 90
        0
102
RTVSPost2010PropOp41
 70
     1
102
RTVSPost2010Prop42
 90
       50
102
RTVSPost2010PropOp42
 70
     1
102
RTVSPost2010Prop43
 90
        3
102
RTVSPost2010PropOp43
 70
     1
102
RTVSPost2010Prop44ColorIndex
 90
        5
102
RTVSPost2010Prop44ColorRGB
 90
      255
102
RTVSPost2010PropOp44
 70
     1
102
RTVSPost2010Prop45
280
     0
102
RTVSPost2010PropOp45
 70
     1
102
RTVSPost2010Prop46
 90
       50
102
RTVSPost2010PropOp46
 70
     1
102
RTVSPost2010Prop47
 90
       50
102
RTVSPost2010PropOp47
 70
     1
102
RTVSPost2010Prop48
 90
       50
102
RTVSPost2010PropOp48
 70
     1
102
RTVSPost2010Prop49
280
     0
102
RTVSPost2010PropOp49
 70
     1
102
RTVSPost2010Prop50
 90
       50
102
RTVSPost2010PropOp50
 70
     1
102
RTVSPost2010Prop51ColorIndex
 90
      256
102
RTVSPost2010Prop51ColorRGB
 90
-16777216
102
RTVSPost2010PropOp51
 70
     0
102
RTVSPost2010Prop52
140
1.0
102
RTVSPost2010PropOp52
 70
     0
102
RTVSPost2010Prop53
 90
        2
102
RTVSPost2010PropOp53
 70
     1
102
RTVSPost2010Prop54
  1
strokes_ogs.tif
102
RTVSPost2010PropOp54
 70
     1
102
RTVSPost2010Prop55
280
     0
102
RTVSPost2010PropOp55
 70
     1
102
RTVSPost2010Prop56
140
1.0
102
RTVSPost2010PropOp56
 70
     1
102
RTVSPost2010Prop57
140
1.0
102
RTVSPost2010PropOp57
 70
     1
102
RTVSPropertyOp0
 70
     1
102
RTVSPropertyOp1
 70
     1
102
RTVSPropertyOp2
 70
     1
102
RTVSPropertyOp3
 70
     1
102
RTVSPropertyOp4
 70
     1
102
RTVSPropertyOp5
 70
     1
102
RTVSPropertyOp6
 70
     1
102
RTVSPropertyOp7
 70
     1
102
RTVSPropertyOp8
 70
     1
102
RTVSPropertyOp9
 70
     1
102
RTVSPropertyOp10
 70
     1
102
RTVSPropertyOp11
 70
     1
102
RTVSPropertyOp12
 70
     1
102
RTVSPropertyOp13
 70
     1
102
RTVSPropertyOp14
 70
     1
102
RTVSPropertyOp15
 70
     1
102
RTVSPropertyOp16
 70
     1
102
RTVSPropertyOp17
 70
     1
102
RTVSPropertyOp18
 70
     1
102
RTVSPropertyOp19
 70
     1
102
RTVSPropertyOp20
 70
     1
102
RTVSPropertyOp21
 70
     1
102
RTVSPropertyOp22
 70
     1
102
RTVSPropertyOp23
 70
     1
102
RTVSPropertyOp24
 70
     1
102
RTVSPropertyOp25
 70
     1
102
RTVSPropertyOp26
 70
     1
102
RTVSPropertyOp27
 70
     1
102
RTVSPropertyOp28
 70
     1
102
RTVSPropertyOp29
 70
     1
102
RTVSPropertyOp30
 70
     1
102
RTVSPropertyOp31
 70
     1
102
RTVSPropertyOp32
 70
     1
102
RTVSPropertyOp33
 70
     1
102
RTVSPropertyOp34
 70
     1
102
RTVSPropertyOp35
 70
     1
102
RTVSPropertyOp36
 70
     1
102
RTVSPropertyOp37
 70
     1
102
RTVSPropertyOp38
 70
     1
102
RTVSPropertyOp39
 70
     1
102
RTVSPropertyOp40
 70
     1
102
RTVSPropertyOp41
 70
     1
102
RTVSPropertyOp42
 70
     1
102
RTVSPropertyOp43
 70
     1
102
RTVSPropertyOp44
 70
     1
102
RTVSPropertyOp45
 70
     1
102
RTVSPropertyOp46
 70
     1
102
RTVSPropertyOp47
 70
     1
102
RTVSPropertyOp48
 70
     1
102
RTVSPropertyOp49
 70
     1
102
RTVSPropertyOp50
 70
     1
102
RTVSPropertyOp51
 70
     0
102
RTVSPropertyOp52
 70
     0
102
RTVSPropertyOp53
 70
     1
102
RTVSPropertyOp54
 70
     1
102
RTVSPropertyOp55
 70
     1
102
RTVSPropertyOp56
 70
     1
102
RTVSPropertyOp57
 70
     1
102
RTVSPropertyOp58
 70
     1
102
RTVSPropertyOp59
 70
     1
102
RTVSPropertyOp60
 70
     1
102
RTVSPropertyOp61
 70
     1
102
RTVSPropertyOp62
 70
     1
  0
XRECORD
  5
1232
102
{ACAD_REACTORS
330
1231
102
}
330
1231
100
AcDbXrecord
280
     1
102
RTVSPost2010Prop28
280
     0
102
RTVSPost2010PropOp28
 70
     1
102
RTVSPost2010Prop29
280
     1
102
RTVSPost2010PropOp29
 70
     1
102
RTVSPost2010Prop30
280
     1
102
RTVSPost2010PropOp30
 70
     1
102
RTVSPost2010Prop31
280
     0
102
RTVSPost2010PropOp31
 70
     1
102
RTVSPost2010Prop32
280
     0
102
RTVSPost2010PropOp32
 70
     1
102
RTVSPost2010Prop33
280
     0
102
RTVSPost2010PropOp33
 70
     1
102
RTVSPost2010Prop34
280
     0
102
RTVSPost2010PropOp34
 70
     1
102
RTVSPost2010Prop35
280
     0
102
RTVSPost2010PropOp35
 70
     1
102
RTVSPost2010Prop36
280
     0
102
RTVSPost2010PropOp36
 70
     1
102
RTVSPost2010Prop37
 90
       50
102
RTVSPost2010PropOp37
 70
     0
102
RTVSPost2010Prop38
140
0.0
102
RTVSPost2010PropOp38
 70
     0
102
RTVSPost2010Prop39
140
1.0
102
RTVSPost2010PropOp39
 70
     0
102
RTVSPost2010Prop40
 90
        0
102
RTVSPost2010PropOp40
 70
     0
102
RTVSPost2010Prop41ColorIndex
 90
       18
102
RTVSPost2010Prop41ColorRGB
 90
        0
102
RTVSPost2010PropOp41
 70
     0
102
RTVSPost2010Prop42
 90
       50
102
RTVSPost2010PropOp42
 70
     0
102
RTVSPost2010Prop43
 90
        3
102
RTVSPost2010PropOp43
 70
     0
102
RTVSPost2010Prop44ColorIndex
 90
        5
102
RTVSPost2010Prop44ColorRGB
 90
      255
102
RTVSPost2010PropOp44
 70
     0
102
RTVSPost2010Prop45
280
     0
102
RTVSPost2010PropOp45
 70
     1
102
RTVSPost2010Prop46
 90
       50
102
RTVSPost2010PropOp46
 70
     0
102
RTVSPost2010Prop47
 90
       50
102
RTVSPost2010PropOp47
 70
     0
102
RTVSPost2010Prop48
 90
       50
102
RTVSPost2010PropOp48
 70
     0
102
RTVSPost2010Prop49
280
     0
102
RTVSPost2010PropOp49
 70
     1
102
RTVSPost2010Prop50
 90
       50
102
RTVSPost2010PropOp50
 70
     0
102
RTVSPost2010Prop51ColorIndex
 90
      256
102
RTVSPost2010Prop51ColorRGB
 90
-16777216
102
RTVSPost2010PropOp51
 70
     0
102
RTVSPost2010Prop52
140
1.0
102
RTVSPost2010PropOp52
 70
     0
102
RTVSPost2010Prop53
 90
        2
102
RTVSPost2010PropOp53
 70
     0
102
RTVSPost2010Prop54
  1
strokes_ogs.tif
102
RTVSPost2010PropOp54
 70
     0
102
RTVSPost2010Prop55
280
     0
102
RTVSPost2010PropOp55
 70
     1
102
RTVSPost2010Prop56
140
1.0
102
RTVSPost2010PropOp56
 70
     0
102
RTVSPost2010Prop57
140
1.0
102
RTVSPost2010PropOp57
 70
     0
102
RTVSPropertyOp0
 70
     0
102
RTVSPropertyOp1
 70
     0
102
RTVSPropertyOp2
 70
     0
102
RTVSPropertyOp3
 70
     0
102
RTVSPropertyOp4
 70
     0
102
RTVSPropertyOp5
 70
     0
102
RTVSPropertyOp6
 70
     0
102
RTVSPropertyOp7
 70
     0
102
RTVSPropertyOp8
 70
     0
102
RTVSPropertyOp9
 70
     0
102
RTVSPropertyOp10
 70
     0
102
RTVSPropertyOp11
 70
     0
102
RTVSPropertyOp12
 70
     0
102
RTVSPropertyOp13
 70
     0
102
RTVSPropertyOp14
 70
     2
102
RTVSPropertyOp15
 70
     0
102
RTVSPropertyOp16
 70
     0
102
RTVSPropertyOp17
 70
     0
102
RTVSPropertyOp18
 70
     0
102
RTVSPropertyOp19
 70
     0
102
RTVSPropertyOp20
 70
     0
102
RTVSPropertyOp21
 70
     0
102
RTVSPropertyOp22
 70
     0
102
RTVSPropertyOp23
 70
     0
102
RTVSPropertyOp24
 70
     0
102
RTVSPropertyOp25
 70
     0
102
RTVSPropertyOp26
 70
     0
102
RTVSPropertyOp27
 70
     0
102
RTVSPropertyOp28
 70
     1
102
RTVSPropertyOp29
 70
     1
102
RTVSPropertyOp30
 70
     1
102
RTVSPropertyOp31
 70
     1
102
RTVSPropertyOp32
 70
     1
102
RTVSPropertyOp33
 70
     1
102
RTVSPropertyOp34
 70
     1
102
RTVSPropertyOp35
 70
     1
102
RTVSPropertyOp36
 70
     1
102
RTVSPropertyOp37
 70
     0
102
RTVSPropertyOp38
 70
     0
102
RTVSPropertyOp39
 70
     0
102
RTVSPropertyOp40
 70
     0
102
RTVSPropertyOp41
 70
     0
102
RTVSPropertyOp42
 70
     0
102
RTVSPropertyOp43
 70
     0
102
RTVSPropertyOp44
 70
     0
102
RTVSPropertyOp45
 70
     1
102
RTVSPropertyOp46
 70
     0
102
RTVSPropertyOp47
 70
     0
102
RTVSPropertyOp48
 70
     0
102
RTVSPropertyOp49
 70
     1
102
RTVSPropertyOp50
 70
     0
102
RTVSPropertyOp51
 70
     0
102
RTVSPropertyOp52
 70
     0
102
RTVSPropertyOp53
 70
     0
102
RTVSPropertyOp54
 70
     0
102
RTVSPropertyOp55
 70
     1
102
RTVSPropertyOp56
 70
     0
102
RTVSPropertyOp57
 70
     0
102
RTVSPropertyOp58
 70
     0
102
RTVSPropertyOp59
 70
     0
102
RTVSPropertyOp60
 70
     0
102
RTVSPropertyOp61
 70
     0
102
RTVSPropertyOp62
 70
     0
  0
XRECORD
  5
1220
102
{ACAD_REACTORS
330
121F
102
}
330
121F
100
AcDbXrecord
280
     1
102
RTVSPost2010Prop28
280
     0
102
RTVSPost2010PropOp28
 70
     1
102
RTVSPost2010Prop29
280
     1
102
RTVSPost2010PropOp29
 70
     1
102
RTVSPost2010Prop30
280
     1
102
RTVSPost2010PropOp30
 70
     1
102
RTVSPost2010Prop31
280
     0
102
RTVSPost2010PropOp31
 70
     1
102
RTVSPost2010Prop32
280
     0
102
RTVSPost2010PropOp32
 70
     1
102
RTVSPost2010Prop33
280
     0
102
RTVSPost2010PropOp33
 70
     1
102
RTVSPost2010Prop34
280
     0
102
RTVSPost2010PropOp34
 70
     1
102
RTVSPost2010Prop35
280
     0
102
RTVSPost2010PropOp35
 70
     1
102
RTVSPost2010Prop36
280
     0
102
RTVSPost2010PropOp36
 70
     1
102
RTVSPost2010Prop37
 90
       50
102
RTVSPost2010PropOp37
 70
     1
102
RTVSPost2010Prop38
140
0.0
102
RTVSPost2010PropOp38
 70
     1
102
RTVSPost2010Prop39
140
1.0
102
RTVSPost2010PropOp39
 70
     1
102
RTVSPost2010Prop40
 90
        0
102
RTVSPost2010PropOp40
 70
     1
102
RTVSPost2010Prop41ColorIndex
 90
       18
102
RTVSPost2010Prop41ColorRGB
 90
        0
102
RTVSPost2010PropOp41
 70
     1
102
RTVSPost2010Prop42
 90
       50
102
RTVSPost2010PropOp42
 70
     1
102
RTVSPost2010Prop43
 90
        3
102
RTVSPost2010PropOp43
 70
     1
102
RTVSPost2010Prop44ColorIndex
 90
        5
102
RTVSPost2010Prop44ColorRGB
 90
      255
102
RTVSPost2010PropOp44
 70
     1
102
RTVSPost2010Prop45
280
     0
102
RTVSPost2010PropOp45
 70
     1
102
RTVSPost2010Prop46
 90
       50
102
RTVSPost2010PropOp46
 70
     1
102
RTVSPost2010Prop47
 90
       50
102
RTVSPost2010PropOp47
 70
     1
102
RTVSPost2010Prop48
 90
       50
102
RTVSPost2010PropOp48
 70
     1
102
RTVSPost2010Prop49
280
     0
102
RTVSPost2010PropOp49
 70
     1
102
RTVSPost2010Prop50
 90
       50
102
RTVSPost2010PropOp50
 70
     1
102
RTVSPost2010Prop51ColorIndex
 90
      256
102
RTVSPost2010Prop51ColorRGB
 90
-16777216
102
RTVSPost2010PropOp51
 70
     0
102
RTVSPost2010Prop52
140
1.0
102
RTVSPost2010PropOp52
 70
     0
102
RTVSPost2010Prop53
 90
        2
102
RTVSPost2010PropOp53
 70
     1
102
RTVSPost2010Prop54
  1
strokes_ogs.tif
102
RTVSPost2010PropOp54
 70
     1
102
RTVSPost2010Prop55
280
     0
102
RTVSPost2010PropOp55
 70
     1
102
RTVSPost2010Prop56
140
1.0
102
RTVSPost2010PropOp56
 70
     1
102
RTVSPost2010Prop57
140
1.0
102
RTVSPost2010PropOp57
 70
     1
102
RTVSPropertyOp0
 70
     1
102
RTVSPropertyOp1
 70
     1
102
RTVSPropertyOp2
 70
     1
102
RTVSPropertyOp3
 70
     1
102
RTVSPropertyOp4
 70
     1
102
RTVSPropertyOp5
 70
     1
102
RTVSPropertyOp6
 70
     1
102
RTVSPropertyOp7
 70
     1
102
RTVSPropertyOp8
 70
     1
102
RTVSPropertyOp9
 70
     1
102
RTVSPropertyOp10
 70
     1
102
RTVSPropertyOp11
 70
     1
102
RTVSPropertyOp12
 70
     1
102
RTVSPropertyOp13
 70
     1
102
RTVSPropertyOp14
 70
     1
102
RTVSPropertyOp15
 70
     1
102
RTVSPropertyOp16
 70
     1
102
RTVSPropertyOp17
 70
     1
102
RTVSPropertyOp18
 70
     1
102
RTVSPropertyOp19
 70
     1
102
RTVSPropertyOp20
 70
     1
102
RTVSPropertyOp21
 70
     1
102
RTVSPropertyOp22
 70
     1
102
RTVSPropertyOp23
 70
     1
102
RTVSPropertyOp24
 70
     1
102
RTVSPropertyOp25
 70
     1
102
RTVSPropertyOp26
 70
     1
102
RTVSPropertyOp27
 70
     1
102
RTVSPropertyOp28
 70
     1
102
RTVSPropertyOp29
 70
     1
102
RTVSPropertyOp30
 70
     1
102
RTVSPropertyOp31
 70
     1
102
RTVSPropertyOp32
 70
     1
102
RTVSPropertyOp33
 70
     1
102
RTVSPropertyOp34
 70
     1
102
RTVSPropertyOp35
 70
     1
102
RTVSPropertyOp36
 70
     1
102
RTVSPropertyOp37
 70
     1
102
RTVSPropertyOp38
 70
     1
102
RTVSPropertyOp39
 70
     1
102
RTVSPropertyOp40
 70
     1
102
RTVSPropertyOp41
 70
     1
102
RTVSPropertyOp42
 70
     1
102
RTVSPropertyOp43
 70
     1
102
RTVSPropertyOp44
 70
     1
102
RTVSPropertyOp45
 70
     1
102
RTVSPropertyOp46
 70
     1
102
RTVSPropertyOp47
 70
     1
102
RTVSPropertyOp48
 70
     1
102
RTVSPropertyOp49
 70
     1
102
RTVSPropertyOp50
 70
     1
102
RTVSPropertyOp51
 70
     0
102
RTVSPropertyOp52
 70
     0
102
RTVSPropertyOp53
 70
     1
102
RTVSPropertyOp54
 70
     1
102
RTVSPropertyOp55
 70
     1
102
RTVSPropertyOp56
 70
     1
102
RTVSPropertyOp57
 70
     1
102
RTVSPropertyOp58
 70
     1
102
RTVSPropertyOp59
 70
     1
102
RTVSPropertyOp60
 70
     1
102
RTVSPropertyOp61
 70
     1
102
RTVSPropertyOp62
 70
     1
  0
XRECORD
  5
1204
102
{ACAD_REACTORS
330
1203
102
}
330
1203
100
AcDbXrecord
280
     1
102
RTVSPost2010Prop28
280
     0
102
RTVSPost2010PropOp28
 70
     1
102
RTVSPost2010Prop29
280
     1
102
RTVSPost2010PropOp29
 70
     1
102
RTVSPost2010Prop30
280
     1
102
RTVSPost2010PropOp30
 70
     1
102
RTVSPost2010Prop31
280
     0
102
RTVSPost2010PropOp31
 70
     1
102
RTVSPost2010Prop32
280
     0
102
RTVSPost2010PropOp32
 70
     1
102
RTVSPost2010Prop33
280
     0
102
RTVSPost2010PropOp33
 70
     1
102
RTVSPost2010Prop34
280
     0
102
RTVSPost2010PropOp34
 70
     1
102
RTVSPost2010Prop35
280
     0
102
RTVSPost2010PropOp35
 70
     1
102
RTVSPost2010Prop36
280
     0
102
RTVSPost2010PropOp36
 70
     1
102
RTVSPost2010Prop37
 90
       50
102
RTVSPost2010PropOp37
 70
     1
102
RTVSPost2010Prop38
140
0.0
102
RTVSPost2010PropOp38
 70
     1
102
RTVSPost2010Prop39
140
1.0
102
RTVSPost2010PropOp39
 70
     1
102
RTVSPost2010Prop40
 90
        0
102
RTVSPost2010PropOp40
 70
     1
102
RTVSPost2010Prop41ColorIndex
 90
       18
102
RTVSPost2010Prop41ColorRGB
 90
        0
102
RTVSPost2010PropOp41
 70
     1
102
RTVSPost2010Prop42
 90
       50
102
RTVSPost2010PropOp42
 70
     1
102
RTVSPost2010Prop43
 90
        3
102
RTVSPost2010PropOp43
 70
     1
102
RTVSPost2010Prop44ColorIndex
 90
        5
102
RTVSPost2010Prop44ColorRGB
 90
      255
102
RTVSPost2010PropOp44
 70
     1
102
RTVSPost2010Prop45
280
     0
102
RTVSPost2010PropOp45
 70
     1
102
RTVSPost2010Prop46
 90
       50
102
RTVSPost2010PropOp46
 70
     1
102
RTVSPost2010Prop47
 90
       50
102
RTVSPost2010PropOp47
 70
     1
102
RTVSPost2010Prop48
 90
       50
102
RTVSPost2010PropOp48
 70
     1
102
RTVSPost2010Prop49
280
     0
102
RTVSPost2010PropOp49
 70
     1
102
RTVSPost2010Prop50
 90
       50
102
RTVSPost2010PropOp50
 70
     1
102
RTVSPost2010Prop51ColorIndex
 90
      256
102
RTVSPost2010Prop51ColorRGB
 90
-16777216
102
RTVSPost2010PropOp51
 70
     0
102
RTVSPost2010Prop52
140
1.0
102
RTVSPost2010PropOp52
 70
     0
102
RTVSPost2010Prop53
 90
        2
102
RTVSPost2010PropOp53
 70
     1
102
RTVSPost2010Prop54
  1
strokes_ogs.tif
102
RTVSPost2010PropOp54
 70
     1
102
RTVSPost2010Prop55
280
     0
102
RTVSPost2010PropOp55
 70
     1
102
RTVSPost2010Prop56
140
1.0
102
RTVSPost2010PropOp56
 70
     1
102
RTVSPost2010Prop57
140
1.0
102
RTVSPost2010PropOp57
 70
     1
102
RTVSPropertyOp0
 70
     1
102
RTVSPropertyOp1
 70
     1
102
RTVSPropertyOp2
 70
     1
102
RTVSPropertyOp3
 70
     1
102
RTVSPropertyOp4
 70
     1
102
RTVSPropertyOp5
 70
     1
102
RTVSPropertyOp6
 70
     1
102
RTVSPropertyOp7
 70
     1
102
RTVSPropertyOp8
 70
     1
102
RTVSPropertyOp9
 70
     1
102
RTVSPropertyOp10
 70
     1
102
RTVSPropertyOp11
 70
     1
102
RTVSPropertyOp12
 70
     1
102
RTVSPropertyOp13
 70
     1
102
RTVSPropertyOp14
 70
     1
102
RTVSPropertyOp15
 70
     1
102
RTVSPropertyOp16
 70
     1
102
RTVSPropertyOp17
 70
     1
102
RTVSPropertyOp18
 70
     1
102
RTVSPropertyOp19
 70
     1
102
RTVSPropertyOp20
 70
     1
102
RTVSPropertyOp21
 70
     1
102
RTVSPropertyOp22
 70
     1
102
RTVSPropertyOp23
 70
     1
102
RTVSPropertyOp24
 70
     1
102
RTVSPropertyOp25
 70
     1
102
RTVSPropertyOp26
 70
     1
102
RTVSPropertyOp27
 70
     1
102
RTVSPropertyOp28
 70
     1
102
RTVSPropertyOp29
 70
     1
102
RTVSPropertyOp30
 70
     1
102
RTVSPropertyOp31
 70
     1
102
RTVSPropertyOp32
 70
     1
102
RTVSPropertyOp33
 70
     1
102
RTVSPropertyOp34
 70
     1
102
RTVSPropertyOp35
 70
     1
102
RTVSPropertyOp36
 70
     1
102
RTVSPropertyOp37
 70
     1
102
RTVSPropertyOp38
 70
     1
102
RTVSPropertyOp39
 70
     1
102
RTVSPropertyOp40
 70
     1
102
RTVSPropertyOp41
 70
     1
102
RTVSPropertyOp42
 70
     1
102
RTVSPropertyOp43
 70
     1
102
RTVSPropertyOp44
 70
     1
102
RTVSPropertyOp45
 70
     1
102
RTVSPropertyOp46
 70
     1
102
RTVSPropertyOp47
 70
     1
102
RTVSPropertyOp48
 70
     1
102
RTVSPropertyOp49
 70
     1
102
RTVSPropertyOp50
 70
     1
102
RTVSPropertyOp51
 70
     0
102
RTVSPropertyOp52
 70
     0
102
RTVSPropertyOp53
 70
     1
102
RTVSPropertyOp54
 70
     1
102
RTVSPropertyOp55
 70
     1
102
RTVSPropertyOp56
 70
     1
102
RTVSPropertyOp57
 70
     1
102
RTVSPropertyOp58
 70
     1
102
RTVSPropertyOp59
 70
     1
102
RTVSPropertyOp60
 70
     1
102
RTVSPropertyOp61
 70
     1
102
RTVSPropertyOp62
 70
     1
  0
XRECORD
  5
1206
102
{ACAD_REACTORS
330
1205
102
}
330
1205
100
AcDbXrecord
280
     1
102
RTVSPost2010Prop28
280
     0
102
RTVSPost2010PropOp28
 70
     1
102
RTVSPost2010Prop29
280
     1
102
RTVSPost2010PropOp29
 70
     1
102
RTVSPost2010Prop30
280
     1
102
RTVSPost2010PropOp30
 70
     1
102
RTVSPost2010Prop31
280
     0
102
RTVSPost2010PropOp31
 70
     1
102
RTVSPost2010Prop32
280
     0
102
RTVSPost2010PropOp32
 70
     1
102
RTVSPost2010Prop33
280
     0
102
RTVSPost2010PropOp33
 70
     1
102
RTVSPost2010Prop34
280
     0
102
RTVSPost2010PropOp34
 70
     1
102
RTVSPost2010Prop35
280
     0
102
RTVSPost2010PropOp35
 70
     1
102
RTVSPost2010Prop36
280
     0
102
RTVSPost2010PropOp36
 70
     1
102
RTVSPost2010Prop37
 90
       50
102
RTVSPost2010PropOp37
 70
     1
102
RTVSPost2010Prop38
140
0.0
102
RTVSPost2010PropOp38
 70
     1
102
RTVSPost2010Prop39
140
1.0
102
RTVSPost2010PropOp39
 70
     1
102
RTVSPost2010Prop40
 90
        0
102
RTVSPost2010PropOp40
 70
     1
102
RTVSPost2010Prop41ColorIndex
 90
       18
102
RTVSPost2010Prop41ColorRGB
 90
        0
102
RTVSPost2010PropOp41
 70
     1
102
RTVSPost2010Prop42
 90
       50
102
RTVSPost2010PropOp42
 70
     1
102
RTVSPost2010Prop43
 90
        3
102
RTVSPost2010PropOp43
 70
     1
102
RTVSPost2010Prop44ColorIndex
 90
        5
102
RTVSPost2010Prop44ColorRGB
 90
      255
102
RTVSPost2010PropOp44
 70
     1
102
RTVSPost2010Prop45
280
     0
102
RTVSPost2010PropOp45
 70
     1
102
RTVSPost2010Prop46
 90
       50
102
RTVSPost2010PropOp46
 70
     1
102
RTVSPost2010Prop47
 90
       50
102
RTVSPost2010PropOp47
 70
     1
102
RTVSPost2010Prop48
 90
       50
102
RTVSPost2010PropOp48
 70
     1
102
RTVSPost2010Prop49
280
     0
102
RTVSPost2010PropOp49
 70
     1
102
RTVSPost2010Prop50
 90
       50
102
RTVSPost2010PropOp50
 70
     1
102
RTVSPost2010Prop51ColorIndex
 90
      256
102
RTVSPost2010Prop51ColorRGB
 90
-16777216
102
RTVSPost2010PropOp51
 70
     0
102
RTVSPost2010Prop52
140
1.0
102
RTVSPost2010PropOp52
 70
     0
102
RTVSPost2010Prop53
 90
        2
102
RTVSPost2010PropOp53
 70
     1
102
RTVSPost2010Prop54
  1
strokes_ogs.tif
102
RTVSPost2010PropOp54
 70
     1
102
RTVSPost2010Prop55
280
     0
102
RTVSPost2010PropOp55
 70
     1
102
RTVSPost2010Prop56
140
1.0
102
RTVSPost2010PropOp56
 70
     1
102
RTVSPost2010Prop57
140
1.0
102
RTVSPost2010PropOp57
 70
     1
102
RTVSPropertyOp0
 70
     1
102
RTVSPropertyOp1
 70
     1
102
RTVSPropertyOp2
 70
     1
102
RTVSPropertyOp3
 70
     1
102
RTVSPropertyOp4
 70
     1
102
RTVSPropertyOp5
 70
     1
102
RTVSPropertyOp6
 70
     1
102
RTVSPropertyOp7
 70
     1
102
RTVSPropertyOp8
 70
     1
102
RTVSPropertyOp9
 70
     1
102
RTVSPropertyOp10
 70
     1
102
RTVSPropertyOp11
 70
     1
102
RTVSPropertyOp12
 70
     1
102
RTVSPropertyOp13
 70
     1
102
RTVSPropertyOp14
 70
     1
102
RTVSPropertyOp15
 70
     1
102
RTVSPropertyOp16
 70
     1
102
RTVSPropertyOp17
 70
     1
102
RTVSPropertyOp18
 70
     1
102
RTVSPropertyOp19
 70
     1
102
RTVSPropertyOp20
 70
     1
102
RTVSPropertyOp21
 70
     1
102
RTVSPropertyOp22
 70
     1
102
RTVSPropertyOp23
 70
     1
102
RTVSPropertyOp24
 70
     1
102
RTVSPropertyOp25
 70
     1
102
RTVSPropertyOp26
 70
     1
102
RTVSPropertyOp27
 70
     1
102
RTVSPropertyOp28
 70
     1
102
RTVSPropertyOp29
 70
     1
102
RTVSPropertyOp30
 70
     1
102
RTVSPropertyOp31
 70
     1
102
RTVSPropertyOp32
 70
     1
102
RTVSPropertyOp33
 70
     1
102
RTVSPropertyOp34
 70
     1
102
RTVSPropertyOp35
 70
     1
102
RTVSPropertyOp36
 70
     1
102
RTVSPropertyOp37
 70
     1
102
RTVSPropertyOp38
 70
     1
102
RTVSPropertyOp39
 70
     1
102
RTVSPropertyOp40
 70
     1
102
RTVSPropertyOp41
 70
     1
102
RTVSPropertyOp42
 70
     1
102
RTVSPropertyOp43
 70
     1
102
RTVSPropertyOp44
 70
     1
102
RTVSPropertyOp45
 70
     1
102
RTVSPropertyOp46
 70
     1
102
RTVSPropertyOp47
 70
     1
102
RTVSPropertyOp48
 70
     1
102
RTVSPropertyOp49
 70
     1
102
RTVSPropertyOp50
 70
     1
102
RTVSPropertyOp51
 70
     0
102
RTVSPropertyOp52
 70
     0
102
RTVSPropertyOp53
 70
     1
102
RTVSPropertyOp54
 70
     1
102
RTVSPropertyOp55
 70
     1
102
RTVSPropertyOp56
 70
     1
102
RTVSPropertyOp57
 70
     1
102
RTVSPropertyOp58
 70
     1
102
RTVSPropertyOp59
 70
     1
102
RTVSPropertyOp60
 70
     1
102
RTVSPropertyOp61
 70
     1
102
RTVSPropertyOp62
 70
     1
  0
XRECORD
  5
1208
102
{ACAD_REACTORS
330
1207
102
}
330
1207
100
AcDbXrecord
280
     1
102
RTVSPost2010Prop28
280
     0
102
RTVSPost2010PropOp28
 70
     1
102
RTVSPost2010Prop29
280
     1
102
RTVSPost2010PropOp29
 70
     1
102
RTVSPost2010Prop30
280
     1
102
RTVSPost2010PropOp30
 70
     1
102
RTVSPost2010Prop31
280
     0
102
RTVSPost2010PropOp31
 70
     1
102
RTVSPost2010Prop32
280
     0
102
RTVSPost2010PropOp32
 70
     1
102
RTVSPost2010Prop33
280
     0
102
RTVSPost2010PropOp33
 70
     1
102
RTVSPost2010Prop34
280
     0
102
RTVSPost2010PropOp34
 70
     1
102
RTVSPost2010Prop35
280
     0
102
RTVSPost2010PropOp35
 70
     1
102
RTVSPost2010Prop36
280
     0
102
RTVSPost2010PropOp36
 70
     1
102
RTVSPost2010Prop37
 90
       50
102
RTVSPost2010PropOp37
 70
     1
102
RTVSPost2010Prop38
140
0.0
102
RTVSPost2010PropOp38
 70
     1
102
RTVSPost2010Prop39
140
1.0
102
RTVSPost2010PropOp39
 70
     1
102
RTVSPost2010Prop40
 90
        0
102
RTVSPost2010PropOp40
 70
     1
102
RTVSPost2010Prop41ColorIndex
 90
       18
102
RTVSPost2010Prop41ColorRGB
 90
        0
102
RTVSPost2010PropOp41
 70
     1
102
RTVSPost2010Prop42
 90
       50
102
RTVSPost2010PropOp42
 70
     1
102
RTVSPost2010Prop43
 90
        3
102
RTVSPost2010PropOp43
 70
     1
102
RTVSPost2010Prop44ColorIndex
 90
        5
102
RTVSPost2010Prop44ColorRGB
 90
      255
102
RTVSPost2010PropOp44
 70
     1
102
RTVSPost2010Prop45
280
     0
102
RTVSPost2010PropOp45
 70
     1
102
RTVSPost2010Prop46
 90
       50
102
RTVSPost2010PropOp46
 70
     1
102
RTVSPost2010Prop47
 90
       50
102
RTVSPost2010PropOp47
 70
     1
102
RTVSPost2010Prop48
 90
       50
102
RTVSPost2010PropOp48
 70
     1
102
RTVSPost2010Prop49
280
     0
102
RTVSPost2010PropOp49
 70
     1
102
RTVSPost2010Prop50
 90
       50
102
RTVSPost2010PropOp50
 70
     1
102
RTVSPost2010Prop51ColorIndex
 90
      256
102
RTVSPost2010Prop51ColorRGB
 90
-16777216
102
RTVSPost2010PropOp51
 70
     0
102
RTVSPost2010Prop52
140
1.0
102
RTVSPost2010PropOp52
 70
     0
102
RTVSPost2010Prop53
 90
        2
102
RTVSPost2010PropOp53
 70
     1
102
RTVSPost2010Prop54
  1
strokes_ogs.tif
102
RTVSPost2010PropOp54
 70
     1
102
RTVSPost2010Prop55
280
     0
102
RTVSPost2010PropOp55
 70
     1
102
RTVSPost2010Prop56
140
1.0
102
RTVSPost2010PropOp56
 70
     1
102
RTVSPost2010Prop57
140
1.0
102
RTVSPost2010PropOp57
 70
     1
102
RTVSPropertyOp0
 70
     1
102
RTVSPropertyOp1
 70
     1
102
RTVSPropertyOp2
 70
     1
102
RTVSPropertyOp3
 70
     1
102
RTVSPropertyOp4
 70
     1
102
RTVSPropertyOp5
 70
     1
102
RTVSPropertyOp6
 70
     1
102
RTVSPropertyOp7
 70
     1
102
RTVSPropertyOp8
 70
     1
102
RTVSPropertyOp9
 70
     1
102
RTVSPropertyOp10
 70
     1
102
RTVSPropertyOp11
 70
     1
102
RTVSPropertyOp12
 70
     1
102
RTVSPropertyOp13
 70
     1
102
RTVSPropertyOp14
 70
     1
102
RTVSPropertyOp15
 70
     1
102
RTVSPropertyOp16
 70
     1
102
RTVSPropertyOp17
 70
     1
102
RTVSPropertyOp18
 70
     1
102
RTVSPropertyOp19
 70
     1
102
RTVSPropertyOp20
 70
     1
102
RTVSPropertyOp21
 70
     1
102
RTVSPropertyOp22
 70
     1
102
RTVSPropertyOp23
 70
     1
102
RTVSPropertyOp24
 70
     1
102
RTVSPropertyOp25
 70
     1
102
RTVSPropertyOp26
 70
     1
102
RTVSPropertyOp27
 70
     1
102
RTVSPropertyOp28
 70
     1
102
RTVSPropertyOp29
 70
     1
102
RTVSPropertyOp30
 70
     1
102
RTVSPropertyOp31
 70
     1
102
RTVSPropertyOp32
 70
     1
102
RTVSPropertyOp33
 70
     1
102
RTVSPropertyOp34
 70
     1
102
RTVSPropertyOp35
 70
     1
102
RTVSPropertyOp36
 70
     1
102
RTVSPropertyOp37
 70
     1
102
RTVSPropertyOp38
 70
     1
102
RTVSPropertyOp39
 70
     1
102
RTVSPropertyOp40
 70
     1
102
RTVSPropertyOp41
 70
     1
102
RTVSPropertyOp42
 70
     1
102
RTVSPropertyOp43
 70
     1
102
RTVSPropertyOp44
 70
     1
102
RTVSPropertyOp45
 70
     1
102
RTVSPropertyOp46
 70
     1
102
RTVSPropertyOp47
 70
     1
102
RTVSPropertyOp48
 70
     1
102
RTVSPropertyOp49
 70
     1
102
RTVSPropertyOp50
 70
     1
102
RTVSPropertyOp51
 70
     0
102
RTVSPropertyOp52
 70
     0
102
RTVSPropertyOp53
 70
     1
102
RTVSPropertyOp54
 70
     1
102
RTVSPropertyOp55
 70
     1
102
RTVSPropertyOp56
 70
     1
102
RTVSPropertyOp57
 70
     1
102
RTVSPropertyOp58
 70
     1
102
RTVSPropertyOp59
 70
     1
102
RTVSPropertyOp60
 70
     1
102
RTVSPropertyOp61
 70
     1
102
RTVSPropertyOp62
 70
     1
  0
XRECORD
  5
120A
102
{ACAD_REACTORS
330
1209
102
}
330
1209
100
AcDbXrecord
280
     1
102
RTVSPost2010Prop28
280
     0
102
RTVSPost2010PropOp28
 70
     1
102
RTVSPost2010Prop29
280
     1
102
RTVSPost2010PropOp29
 70
     1
102
RTVSPost2010Prop30
280
     1
102
RTVSPost2010PropOp30
 70
     1
102
RTVSPost2010Prop31
280
     0
102
RTVSPost2010PropOp31
 70
     1
102
RTVSPost2010Prop32
280
     0
102
RTVSPost2010PropOp32
 70
     1
102
RTVSPost2010Prop33
280
     0
102
RTVSPost2010PropOp33
 70
     1
102
RTVSPost2010Prop34
280
     0
102
RTVSPost2010PropOp34
 70
     1
102
RTVSPost2010Prop35
280
     0
102
RTVSPost2010PropOp35
 70
     1
102
RTVSPost2010Prop36
280
     0
102
RTVSPost2010PropOp36
 70
     1
102
RTVSPost2010Prop37
 90
       50
102
RTVSPost2010PropOp37
 70
     1
102
RTVSPost2010Prop38
140
0.0
102
RTVSPost2010PropOp38
 70
     1
102
RTVSPost2010Prop39
140
1.0
102
RTVSPost2010PropOp39
 70
     1
102
RTVSPost2010Prop40
 90
        0
102
RTVSPost2010PropOp40
 70
     1
102
RTVSPost2010Prop41ColorIndex
 90
       18
102
RTVSPost2010Prop41ColorRGB
 90
        0
102
RTVSPost2010PropOp41
 70
     1
102
RTVSPost2010Prop42
 90
       50
102
RTVSPost2010PropOp42
 70
     1
102
RTVSPost2010Prop43
 90
        3
102
RTVSPost2010PropOp43
 70
     1
102
RTVSPost2010Prop44ColorIndex
 90
        5
102
RTVSPost2010Prop44ColorRGB
 90
      255
102
RTVSPost2010PropOp44
 70
     1
102
RTVSPost2010Prop45
280
     0
102
RTVSPost2010PropOp45
 70
     1
102
RTVSPost2010Prop46
 90
       50
102
RTVSPost2010PropOp46
 70
     1
102
RTVSPost2010Prop47
 90
       50
102
RTVSPost2010PropOp47
 70
     1
102
RTVSPost2010Prop48
 90
       50
102
RTVSPost2010PropOp48
 70
     1
102
RTVSPost2010Prop49
280
     0
102
RTVSPost2010PropOp49
 70
     1
102
RTVSPost2010Prop50
 90
       50
102
RTVSPost2010PropOp50
 70
     1
102
RTVSPost2010Prop51ColorIndex
 90
      256
102
RTVSPost2010Prop51ColorRGB
 90
-16777216
102
RTVSPost2010PropOp51
 70
     0
102
RTVSPost2010Prop52
140
1.0
102
RTVSPost2010PropOp52
 70
     0
102
RTVSPost2010Prop53
 90
        2
102
RTVSPost2010PropOp53
 70
     1
102
RTVSPost2010Prop54
  1
strokes_ogs.tif
102
RTVSPost2010PropOp54
 70
     1
102
RTVSPost2010Prop55
280
     0
102
RTVSPost2010PropOp55
 70
     1
102
RTVSPost2010Prop56
140
1.0
102
RTVSPost2010PropOp56
 70
     1
102
RTVSPost2010Prop57
140
1.0
102
RTVSPost2010PropOp57
 70
     1
102
RTVSPropertyOp0
 70
     1
102
RTVSPropertyOp1
 70
     1
102
RTVSPropertyOp2
 70
     1
102
RTVSPropertyOp3
 70
     1
102
RTVSPropertyOp4
 70
     1
102
RTVSPropertyOp5
 70
     1
102
RTVSPropertyOp6
 70
     1
102
RTVSPropertyOp7
 70
     1
102
RTVSPropertyOp8
 70
     1
102
RTVSPropertyOp9
 70
     1
102
RTVSPropertyOp10
 70
     1
102
RTVSPropertyOp11
 70
     1
102
RTVSPropertyOp12
 70
     1
102
RTVSPropertyOp13
 70
     1
102
RTVSPropertyOp14
 70
     1
102
RTVSPropertyOp15
 70
     1
102
RTVSPropertyOp16
 70
     1
102
RTVSPropertyOp17
 70
     1
102
RTVSPropertyOp18
 70
     1
102
RTVSPropertyOp19
 70
     1
102
RTVSPropertyOp20
 70
     1
102
RTVSPropertyOp21
 70
     1
102
RTVSPropertyOp22
 70
     1
102
RTVSPropertyOp23
 70
     1
102
RTVSPropertyOp24
 70
     1
102
RTVSPropertyOp25
 70
     1
102
RTVSPropertyOp26
 70
     1
102
RTVSPropertyOp27
 70
     1
102
RTVSPropertyOp28
 70
     1
102
RTVSPropertyOp29
 70
     1
102
RTVSPropertyOp30
 70
     1
102
RTVSPropertyOp31
 70
     1
102
RTVSPropertyOp32
 70
     1
102
RTVSPropertyOp33
 70
     1
102
RTVSPropertyOp34
 70
     1
102
RTVSPropertyOp35
 70
     1
102
RTVSPropertyOp36
 70
     1
102
RTVSPropertyOp37
 70
     1
102
RTVSPropertyOp38
 70
     1
102
RTVSPropertyOp39
 70
     1
102
RTVSPropertyOp40
 70
     1
102
RTVSPropertyOp41
 70
     1
102
RTVSPropertyOp42
 70
     1
102
RTVSPropertyOp43
 70
     1
102
RTVSPropertyOp44
 70
     1
102
RTVSPropertyOp45
 70
     1
102
RTVSPropertyOp46
 70
     1
102
RTVSPropertyOp47
 70
     1
102
RTVSPropertyOp48
 70
     1
102
RTVSPropertyOp49
 70
     1
102
RTVSPropertyOp50
 70
     1
102
RTVSPropertyOp51
 70
     0
102
RTVSPropertyOp52
 70
     0
102
RTVSPropertyOp53
 70
     1
102
RTVSPropertyOp54
 70
     1
102
RTVSPropertyOp55
 70
     1
102
RTVSPropertyOp56
 70
     1
102
RTVSPropertyOp57
 70
     1
102
RTVSPropertyOp58
 70
     1
102
RTVSPropertyOp59
 70
     1
102
RTVSPropertyOp60
 70
     1
102
RTVSPropertyOp61
 70
     1
102
RTVSPropertyOp62
 70
     1
  0
XRECORD
  5
1212
102
{ACAD_REACTORS
330
1211
102
}
330
1211
100
AcDbXrecord
280
     1
102
RTVSPost2010Prop28
280
     0
102
RTVSPost2010PropOp28
 70
     1
102
RTVSPost2010Prop29
280
     1
102
RTVSPost2010PropOp29
 70
     1
102
RTVSPost2010Prop30
280
     1
102
RTVSPost2010PropOp30
 70
     1
102
RTVSPost2010Prop31
280
     0
102
RTVSPost2010PropOp31
 70
     1
102
RTVSPost2010Prop32
280
     0
102
RTVSPost2010PropOp32
 70
     1
102
RTVSPost2010Prop33
280
     0
102
RTVSPost2010PropOp33
 70
     1
102
RTVSPost2010Prop34
280
     0
102
RTVSPost2010PropOp34
 70
     1
102
RTVSPost2010Prop35
280
     0
102
RTVSPost2010PropOp35
 70
     1
102
RTVSPost2010Prop36
280
     0
102
RTVSPost2010PropOp36
 70
     1
102
RTVSPost2010Prop37
 90
       50
102
RTVSPost2010PropOp37
 70
     1
102
RTVSPost2010Prop38
140
0.0
102
RTVSPost2010PropOp38
 70
     1
102
RTVSPost2010Prop39
140
1.0
102
RTVSPost2010PropOp39
 70
     1
102
RTVSPost2010Prop40
 90
        0
102
RTVSPost2010PropOp40
 70
     1
102
RTVSPost2010Prop41ColorIndex
 90
       18
102
RTVSPost2010Prop41ColorRGB
 90
        0
102
RTVSPost2010PropOp41
 70
     1
102
RTVSPost2010Prop42
 90
       50
102
RTVSPost2010PropOp42
 70
     1
102
RTVSPost2010Prop43
 90
        3
102
RTVSPost2010PropOp43
 70
     1
102
RTVSPost2010Prop44ColorIndex
 90
        5
102
RTVSPost2010Prop44ColorRGB
 90
      255
102
RTVSPost2010PropOp44
 70
     1
102
RTVSPost2010Prop45
280
     0
102
RTVSPost2010PropOp45
 70
     1
102
RTVSPost2010Prop46
 90
       50
102
RTVSPost2010PropOp46
 70
     1
102
RTVSPost2010Prop47
 90
       50
102
RTVSPost2010PropOp47
 70
     1
102
RTVSPost2010Prop48
 90
       50
102
RTVSPost2010PropOp48
 70
     1
102
RTVSPost2010Prop49
280
     0
102
RTVSPost2010PropOp49
 70
     1
102
RTVSPost2010Prop50
 90
       50
102
RTVSPost2010PropOp50
 70
     1
102
RTVSPost2010Prop51ColorIndex
 90
      256
102
RTVSPost2010Prop51ColorRGB
 90
-16777216
102
RTVSPost2010PropOp51
 70
     0
102
RTVSPost2010Prop52
140
1.0
102
RTVSPost2010PropOp52
 70
     0
102
RTVSPost2010Prop53
 90
        2
102
RTVSPost2010PropOp53
 70
     1
102
RTVSPost2010Prop54
  1
strokes_ogs.tif
102
RTVSPost2010PropOp54
 70
     1
102
RTVSPost2010Prop55
280
     0
102
RTVSPost2010PropOp55
 70
     1
102
RTVSPost2010Prop56
140
1.0
102
RTVSPost2010PropOp56
 70
     1
102
RTVSPost2010Prop57
140
1.0
102
RTVSPost2010PropOp57
 70
     1
102
RTVSPropertyOp0
 70
     1
102
RTVSPropertyOp1
 70
     1
102
RTVSPropertyOp2
 70
     1
102
RTVSPropertyOp3
 70
     1
102
RTVSPropertyOp4
 70
     1
102
RTVSPropertyOp5
 70
     1
102
RTVSPropertyOp6
 70
     1
102
RTVSPropertyOp7
 70
     1
102
RTVSPropertyOp8
 70
     1
102
RTVSPropertyOp9
 70
     1
102
RTVSPropertyOp10
 70
     1
102
RTVSPropertyOp11
 70
     1
102
RTVSPropertyOp12
 70
     1
102
RTVSPropertyOp13
 70
     1
102
RTVSPropertyOp14
 70
     1
102
RTVSPropertyOp15
 70
     1
102
RTVSPropertyOp16
 70
     1
102
RTVSPropertyOp17
 70
     1
102
RTVSPropertyOp18
 70
     1
102
RTVSPropertyOp19
 70
     1
102
RTVSPropertyOp20
 70
     1
102
RTVSPropertyOp21
 70
     1
102
RTVSPropertyOp22
 70
     1
102
RTVSPropertyOp23
 70
     1
102
RTVSPropertyOp24
 70
     1
102
RTVSPropertyOp25
 70
     1
102
RTVSPropertyOp26
 70
     1
102
RTVSPropertyOp27
 70
     1
102
RTVSPropertyOp28
 70
     1
102
RTVSPropertyOp29
 70
     1
102
RTVSPropertyOp30
 70
     1
102
RTVSPropertyOp31
 70
     1
102
RTVSPropertyOp32
 70
     1
102
RTVSPropertyOp33
 70
     1
102
RTVSPropertyOp34
 70
     1
102
RTVSPropertyOp35
 70
     1
102
RTVSPropertyOp36
 70
     1
102
RTVSPropertyOp37
 70
     1
102
RTVSPropertyOp38
 70
     1
102
RTVSPropertyOp39
 70
     1
102
RTVSPropertyOp40
 70
     1
102
RTVSPropertyOp41
 70
     1
102
RTVSPropertyOp42
 70
     1
102
RTVSPropertyOp43
 70
     1
102
RTVSPropertyOp44
 70
     1
102
RTVSPropertyOp45
 70
     1
102
RTVSPropertyOp46
 70
     1
102
RTVSPropertyOp47
 70
     1
102
RTVSPropertyOp48
 70
     1
102
RTVSPropertyOp49
 70
     1
102
RTVSPropertyOp50
 70
     1
102
RTVSPropertyOp51
 70
     0
102
RTVSPropertyOp52
 70
     0
102
RTVSPropertyOp53
 70
     1
102
RTVSPropertyOp54
 70
     1
102
RTVSPropertyOp55
 70
     1
102
RTVSPropertyOp56
 70
     1
102
RTVSPropertyOp57
 70
     1
102
RTVSPropertyOp58
 70
     1
102
RTVSPropertyOp59
 70
     1
102
RTVSPropertyOp60
 70
     1
102
RTVSPropertyOp61
 70
     1
102
RTVSPropertyOp62
 70
     1
  0
XRECORD
  5
122E
102
{ACAD_REACTORS
330
122D
102
}
330
122D
100
AcDbXrecord
280
     1
102
RTVSPost2010Prop28
280
     0
102
RTVSPost2010PropOp28
 70
     1
102
RTVSPost2010Prop29
280
     1
102
RTVSPost2010PropOp29
 70
     1
102
RTVSPost2010Prop30
280
     1
102
RTVSPost2010PropOp30
 70
     1
102
RTVSPost2010Prop31
280
     0
102
RTVSPost2010PropOp31
 70
     1
102
RTVSPost2010Prop32
280
     0
102
RTVSPost2010PropOp32
 70
     1
102
RTVSPost2010Prop33
280
     0
102
RTVSPost2010PropOp33
 70
     1
102
RTVSPost2010Prop34
280
     0
102
RTVSPost2010PropOp34
 70
     1
102
RTVSPost2010Prop35
280
     0
102
RTVSPost2010PropOp35
 70
     1
102
RTVSPost2010Prop36
280
     0
102
RTVSPost2010PropOp36
 70
     1
102
RTVSPost2010Prop37
 90
       50
102
RTVSPost2010PropOp37
 70
     0
102
RTVSPost2010Prop38
140
0.0
102
RTVSPost2010PropOp38
 70
     0
102
RTVSPost2010Prop39
140
1.0
102
RTVSPost2010PropOp39
 70
     0
102
RTVSPost2010Prop40
 90
        0
102
RTVSPost2010PropOp40
 70
     0
102
RTVSPost2010Prop41ColorIndex
 90
       18
102
RTVSPost2010Prop41ColorRGB
 90
        0
102
RTVSPost2010PropOp41
 70
     0
102
RTVSPost2010Prop42
 90
       50
102
RTVSPost2010PropOp42
 70
     0
102
RTVSPost2010Prop43
 90
        3
102
RTVSPost2010PropOp43
 70
     0
102
RTVSPost2010Prop44ColorIndex
 90
        5
102
RTVSPost2010Prop44ColorRGB
 90
      255
102
RTVSPost2010PropOp44
 70
     0
102
RTVSPost2010Prop45
280
     0
102
RTVSPost2010PropOp45
 70
     1
102
RTVSPost2010Prop46
 90
       50
102
RTVSPost2010PropOp46
 70
     0
102
RTVSPost2010Prop47
 90
       50
102
RTVSPost2010PropOp47
 70
     0
102
RTVSPost2010Prop48
 90
       50
102
RTVSPost2010PropOp48
 70
     0
102
RTVSPost2010Prop49
280
     0
102
RTVSPost2010PropOp49
 70
     1
102
RTVSPost2010Prop50
 90
       50
102
RTVSPost2010PropOp50
 70
     0
102
RTVSPost2010Prop51ColorIndex
 90
      256
102
RTVSPost2010Prop51ColorRGB
 90
-16777216
102
RTVSPost2010PropOp51
 70
     0
102
RTVSPost2010Prop52
140
1.0
102
RTVSPost2010PropOp52
 70
     0
102
RTVSPost2010Prop53
 90
        2
102
RTVSPost2010PropOp53
 70
     0
102
RTVSPost2010Prop54
  1
strokes_ogs.tif
102
RTVSPost2010PropOp54
 70
     0
102
RTVSPost2010Prop55
280
     0
102
RTVSPost2010PropOp55
 70
     1
102
RTVSPost2010Prop56
140
1.0
102
RTVSPost2010PropOp56
 70
     0
102
RTVSPost2010Prop57
140
1.0
102
RTVSPost2010PropOp57
 70
     0
102
RTVSPropertyOp0
 70
     0
102
RTVSPropertyOp1
 70
     0
102
RTVSPropertyOp2
 70
     0
102
RTVSPropertyOp3
 70
     0
102
RTVSPropertyOp4
 70
     0
102
RTVSPropertyOp5
 70
     0
102
RTVSPropertyOp6
 70
     0
102
RTVSPropertyOp7
 70
     0
102
RTVSPropertyOp8
 70
     0
102
RTVSPropertyOp9
 70
     0
102
RTVSPropertyOp10
 70
     0
102
RTVSPropertyOp11
 70
     0
102
RTVSPropertyOp12
 70
     0
102
RTVSPropertyOp13
 70
     0
102
RTVSPropertyOp14
 70
     2
102
RTVSPropertyOp15
 70
     0
102
RTVSPropertyOp16
 70
     0
102
RTVSPropertyOp17
 70
     0
102
RTVSPropertyOp18
 70
     0
102
RTVSPropertyOp19
 70
     0
102
RTVSPropertyOp20
 70
     0
102
RTVSPropertyOp21
 70
     0
102
RTVSPropertyOp22
 70
     0
102
RTVSPropertyOp23
 70
     0
102
RTVSPropertyOp24
 70
     0
102
RTVSPropertyOp25
 70
     0
102
RTVSPropertyOp26
 70
     0
102
RTVSPropertyOp27
 70
     0
102
RTVSPropertyOp28
 70
     1
102
RTVSPropertyOp29
 70
     1
102
RTVSPropertyOp30
 70
     1
102
RTVSPropertyOp31
 70
     1
102
RTVSPropertyOp32
 70
     1
102
RTVSPropertyOp33
 70
     1
102
RTVSPropertyOp34
 70
     1
102
RTVSPropertyOp35
 70
     1
102
RTVSPropertyOp36
 70
     1
102
RTVSPropertyOp37
 70
     0
102
RTVSPropertyOp38
 70
     0
102
RTVSPropertyOp39
 70
     0
102
RTVSPropertyOp40
 70
     0
102
RTVSPropertyOp41
 70
     0
102
RTVSPropertyOp42
 70
     0
102
RTVSPropertyOp43
 70
     0
102
RTVSPropertyOp44
 70
     0
102
RTVSPropertyOp45
 70
     1
102
RTVSPropertyOp46
 70
     0
102
RTVSPropertyOp47
 70
     0
102
RTVSPropertyOp48
 70
     0
102
RTVSPropertyOp49
 70
     1
102
RTVSPropertyOp50
 70
     0
102
RTVSPropertyOp51
 70
     0
102
RTVSPropertyOp52
 70
     0
102
RTVSPropertyOp53
 70
     0
102
RTVSPropertyOp54
 70
     0
102
RTVSPropertyOp55
 70
     1
102
RTVSPropertyOp56
 70
     0
102
RTVSPropertyOp57
 70
     0
102
RTVSPropertyOp58
 70
     0
102
RTVSPropertyOp59
 70
     0
102
RTVSPropertyOp60
 70
     0
102
RTVSPropertyOp61
 70
     0
102
RTVSPropertyOp62
 70
     0
  0
XRECORD
  5
121E
102
{ACAD_REACTORS
330
121D
102
}
330
121D
100
AcDbXrecord
280
     1
102
RTVSPost2010Prop28
280
     0
102
RTVSPost2010PropOp28
 70
     1
102
RTVSPost2010Prop29
280
     1
102
RTVSPost2010PropOp29
 70
     1
102
RTVSPost2010Prop30
280
     1
102
RTVSPost2010PropOp30
 70
     1
102
RTVSPost2010Prop31
280
     0
102
RTVSPost2010PropOp31
 70
     1
102
RTVSPost2010Prop32
280
     0
102
RTVSPost2010PropOp32
 70
     1
102
RTVSPost2010Prop33
280
     0
102
RTVSPost2010PropOp33
 70
     1
102
RTVSPost2010Prop34
280
     0
102
RTVSPost2010PropOp34
 70
     1
102
RTVSPost2010Prop35
280
     0
102
RTVSPost2010PropOp35
 70
     1
102
RTVSPost2010Prop36
280
     0
102
RTVSPost2010PropOp36
 70
     1
102
RTVSPost2010Prop37
 90
       50
102
RTVSPost2010PropOp37
 70
     1
102
RTVSPost2010Prop38
140
0.0
102
RTVSPost2010PropOp38
 70
     1
102
RTVSPost2010Prop39
140
1.0
102
RTVSPost2010PropOp39
 70
     1
102
RTVSPost2010Prop40
 90
        0
102
RTVSPost2010PropOp40
 70
     1
102
RTVSPost2010Prop41ColorIndex
 90
       18
102
RTVSPost2010Prop41ColorRGB
 90
        0
102
RTVSPost2010PropOp41
 70
     1
102
RTVSPost2010Prop42
 90
       50
102
RTVSPost2010PropOp42
 70
     1
102
RTVSPost2010Prop43
 90
        3
102
RTVSPost2010PropOp43
 70
     1
102
RTVSPost2010Prop44ColorIndex
 90
        5
102
RTVSPost2010Prop44ColorRGB
 90
      255
102
RTVSPost2010PropOp44
 70
     1
102
RTVSPost2010Prop45
280
     0
102
RTVSPost2010PropOp45
 70
     1
102
RTVSPost2010Prop46
 90
       50
102
RTVSPost2010PropOp46
 70
     1
102
RTVSPost2010Prop47
 90
       50
102
RTVSPost2010PropOp47
 70
     1
102
RTVSPost2010Prop48
 90
       50
102
RTVSPost2010PropOp48
 70
     1
102
RTVSPost2010Prop49
280
     0
102
RTVSPost2010PropOp49
 70
     1
102
RTVSPost2010Prop50
 90
       50
102
RTVSPost2010PropOp50
 70
     1
102
RTVSPost2010Prop51ColorIndex
 90
      256
102
RTVSPost2010Prop51ColorRGB
 90
-16777216
102
RTVSPost2010PropOp51
 70
     0
102
RTVSPost2010Prop52
140
1.0
102
RTVSPost2010PropOp52
 70
     0
102
RTVSPost2010Prop53
 90
        2
102
RTVSPost2010PropOp53
 70
     1
102
RTVSPost2010Prop54
  1
strokes_ogs.tif
102
RTVSPost2010PropOp54
 70
     1
102
RTVSPost2010Prop55
280
     0
102
RTVSPost2010PropOp55
 70
     1
102
RTVSPost2010Prop56
140
1.0
102
RTVSPost2010PropOp56
 70
     1
102
RTVSPost2010Prop57
140
1.0
102
RTVSPost2010PropOp57
 70
     1
102
RTVSPropertyOp0
 70
     1
102
RTVSPropertyOp1
 70
     1
102
RTVSPropertyOp2
 70
     1
102
RTVSPropertyOp3
 70
     1
102
RTVSPropertyOp4
 70
     1
102
RTVSPropertyOp5
 70
     1
102
RTVSPropertyOp6
 70
     1
102
RTVSPropertyOp7
 70
     1
102
RTVSPropertyOp8
 70
     1
102
RTVSPropertyOp9
 70
     1
102
RTVSPropertyOp10
 70
     1
102
RTVSPropertyOp11
 70
     1
102
RTVSPropertyOp12
 70
     1
102
RTVSPropertyOp13
 70
     1
102
RTVSPropertyOp14
 70
     1
102
RTVSPropertyOp15
 70
     1
102
RTVSPropertyOp16
 70
     1
102
RTVSPropertyOp17
 70
     1
102
RTVSPropertyOp18
 70
     1
102
RTVSPropertyOp19
 70
     1
102
RTVSPropertyOp20
 70
     1
102
RTVSPropertyOp21
 70
     1
102
RTVSPropertyOp22
 70
     1
102
RTVSPropertyOp23
 70
     1
102
RTVSPropertyOp24
 70
     1
102
RTVSPropertyOp25
 70
     1
102
RTVSPropertyOp26
 70
     1
102
RTVSPropertyOp27
 70
     1
102
RTVSPropertyOp28
 70
     1
102
RTVSPropertyOp29
 70
     1
102
RTVSPropertyOp30
 70
     1
102
RTVSPropertyOp31
 70
     1
102
RTVSPropertyOp32
 70
     1
102
RTVSPropertyOp33
 70
     1
102
RTVSPropertyOp34
 70
     1
102
RTVSPropertyOp35
 70
     1
102
RTVSPropertyOp36
 70
     1
102
RTVSPropertyOp37
 70
     1
102
RTVSPropertyOp38
 70
     1
102
RTVSPropertyOp39
 70
     1
102
RTVSPropertyOp40
 70
     1
102
RTVSPropertyOp41
 70
     1
102
RTVSPropertyOp42
 70
     1
102
RTVSPropertyOp43
 70
     1
102
RTVSPropertyOp44
 70
     1
102
RTVSPropertyOp45
 70
     1
102
RTVSPropertyOp46
 70
     1
102
RTVSPropertyOp47
 70
     1
102
RTVSPropertyOp48
 70
     1
102
RTVSPropertyOp49
 70
     1
102
RTVSPropertyOp50
 70
     1
102
RTVSPropertyOp51
 70
     0
102
RTVSPropertyOp52
 70
     0
102
RTVSPropertyOp53
 70
     1
102
RTVSPropertyOp54
 70
     1
102
RTVSPropertyOp55
 70
     1
102
RTVSPropertyOp56
 70
     1
102
RTVSPropertyOp57
 70
     1
102
RTVSPropertyOp58
 70
     1
102
RTVSPropertyOp59
 70
     1
102
RTVSPropertyOp60
 70
     1
102
RTVSPropertyOp61
 70
     1
102
RTVSPropertyOp62
 70
     1
  0
XRECORD
  5
1230
102
{ACAD_REACTORS
330
122F
102
}
330
122F
100
AcDbXrecord
280
     1
102
RTVSPost2010Prop28
280
     0
102
RTVSPost2010PropOp28
 70
     1
102
RTVSPost2010Prop29
280
     1
102
RTVSPost2010PropOp29
 70
     1
102
RTVSPost2010Prop30
280
     1
102
RTVSPost2010PropOp30
 70
     1
102
RTVSPost2010Prop31
280
     0
102
RTVSPost2010PropOp31
 70
     1
102
RTVSPost2010Prop32
280
     0
102
RTVSPost2010PropOp32
 70
     1
102
RTVSPost2010Prop33
280
     0
102
RTVSPost2010PropOp33
 70
     1
102
RTVSPost2010Prop34
280
     0
102
RTVSPost2010PropOp34
 70
     1
102
RTVSPost2010Prop35
280
     0
102
RTVSPost2010PropOp35
 70
     1
102
RTVSPost2010Prop36
280
     0
102
RTVSPost2010PropOp36
 70
     1
102
RTVSPost2010Prop37
 90
       50
102
RTVSPost2010PropOp37
 70
     0
102
RTVSPost2010Prop38
140
0.0
102
RTVSPost2010PropOp38
 70
     0
102
RTVSPost2010Prop39
140
1.0
102
RTVSPost2010PropOp39
 70
     0
102
RTVSPost2010Prop40
 90
        0
102
RTVSPost2010PropOp40
 70
     0
102
RTVSPost2010Prop41ColorIndex
 90
       18
102
RTVSPost2010Prop41ColorRGB
 90
        0
102
RTVSPost2010PropOp41
 70
     0
102
RTVSPost2010Prop42
 90
       50
102
RTVSPost2010PropOp42
 70
     0
102
RTVSPost2010Prop43
 90
        3
102
RTVSPost2010PropOp43
 70
     0
102
RTVSPost2010Prop44ColorIndex
 90
        5
102
RTVSPost2010Prop44ColorRGB
 90
      255
102
RTVSPost2010PropOp44
 70
     0
102
RTVSPost2010Prop45
280
     0
102
RTVSPost2010PropOp45
 70
     1
102
RTVSPost2010Prop46
 90
       50
102
RTVSPost2010PropOp46
 70
     0
102
RTVSPost2010Prop47
 90
       50
102
RTVSPost2010PropOp47
 70
     0
102
RTVSPost2010Prop48
 90
       50
102
RTVSPost2010PropOp48
 70
     0
102
RTVSPost2010Prop49
280
     0
102
RTVSPost2010PropOp49
 70
     1
102
RTVSPost2010Prop50
 90
       50
102
RTVSPost2010PropOp50
 70
     0
102
RTVSPost2010Prop51ColorIndex
 90
      256
102
RTVSPost2010Prop51ColorRGB
 90
-16777216
102
RTVSPost2010PropOp51
 70
     0
102
RTVSPost2010Prop52
140
1.0
102
RTVSPost2010PropOp52
 70
     0
102
RTVSPost2010Prop53
 90
        2
102
RTVSPost2010PropOp53
 70
     0
102
RTVSPost2010Prop54
  1
strokes_ogs.tif
102
RTVSPost2010PropOp54
 70
     0
102
RTVSPost2010Prop55
280
     0
102
RTVSPost2010PropOp55
 70
     1
102
RTVSPost2010Prop56
140
1.0
102
RTVSPost2010PropOp56
 70
     0
102
RTVSPost2010Prop57
140
1.0
102
RTVSPost2010PropOp57
 70
     0
102
RTVSPropertyOp0
 70
     0
102
RTVSPropertyOp1
 70
     0
102
RTVSPropertyOp2
 70
     0
102
RTVSPropertyOp3
 70
     0
102
RTVSPropertyOp4
 70
     0
102
RTVSPropertyOp5
 70
     0
102
RTVSPropertyOp6
 70
     0
102
RTVSPropertyOp7
 70
     0
102
RTVSPropertyOp8
 70
     0
102
RTVSPropertyOp9
 70
     0
102
RTVSPropertyOp10
 70
     0
102
RTVSPropertyOp11
 70
     0
102
RTVSPropertyOp12
 70
     0
102
RTVSPropertyOp13
 70
     0
102
RTVSPropertyOp14
 70
     2
102
RTVSPropertyOp15
 70
     0
102
RTVSPropertyOp16
 70
     0
102
RTVSPropertyOp17
 70
     0
102
RTVSPropertyOp18
 70
     0
102
RTVSPropertyOp19
 70
     0
102
RTVSPropertyOp20
 70
     0
102
RTVSPropertyOp21
 70
     0
102
RTVSPropertyOp22
 70
     0
102
RTVSPropertyOp23
 70
     0
102
RTVSPropertyOp24
 70
     0
102
RTVSPropertyOp25
 70
     0
102
RTVSPropertyOp26
 70
     0
102
RTVSPropertyOp27
 70
     0
102
RTVSPropertyOp28
 70
     1
102
RTVSPropertyOp29
 70
     1
102
RTVSPropertyOp30
 70
     1
102
RTVSPropertyOp31
 70
     1
102
RTVSPropertyOp32
 70
     1
102
RTVSPropertyOp33
 70
     1
102
RTVSPropertyOp34
 70
     1
102
RTVSPropertyOp35
 70
     1
102
RTVSPropertyOp36
 70
     1
102
RTVSPropertyOp37
 70
     0
102
RTVSPropertyOp38
 70
     0
102
RTVSPropertyOp39
 70
     0
102
RTVSPropertyOp40
 70
     0
102
RTVSPropertyOp41
 70
     0
102
RTVSPropertyOp42
 70
     0
102
RTVSPropertyOp43
 70
     0
102
RTVSPropertyOp44
 70
     0
102
RTVSPropertyOp45
 70
     1
102
RTVSPropertyOp46
 70
     0
102
RTVSPropertyOp47
 70
     0
102
RTVSPropertyOp48
 70
     0
102
RTVSPropertyOp49
 70
     1
102
RTVSPropertyOp50
 70
     0
102
RTVSPropertyOp51
 70
     0
102
RTVSPropertyOp52
 70
     0
102
RTVSPropertyOp53
 70
     0
102
RTVSPropertyOp54
 70
     0
102
RTVSPropertyOp55
 70
     1
102
RTVSPropertyOp56
 70
     0
102
RTVSPropertyOp57
 70
     0
102
RTVSPropertyOp58
 70
     0
102
RTVSPropertyOp59
 70
     0
102
RTVSPropertyOp60
 70
     0
102
RTVSPropertyOp61
 70
     0
102
RTVSPropertyOp62
 70
     0
  0
XRECORD
  5
1216
102
{ACAD_REACTORS
330
1215
102
}
330
1215
100
AcDbXrecord
280
     1
102
RTVSPost2010Prop28
280
     0
102
RTVSPost2010PropOp28
 70
     1
102
RTVSPost2010Prop29
280
     1
102
RTVSPost2010PropOp29
 70
     1
102
RTVSPost2010Prop30
280
     1
102
RTVSPost2010PropOp30
 70
     1
102
RTVSPost2010Prop31
280
     0
102
RTVSPost2010PropOp31
 70
     1
102
RTVSPost2010Prop32
280
     0
102
RTVSPost2010PropOp32
 70
     1
102
RTVSPost2010Prop33
280
     0
102
RTVSPost2010PropOp33
 70
     1
102
RTVSPost2010Prop34
280
     0
102
RTVSPost2010PropOp34
 70
     1
102
RTVSPost2010Prop35
280
     0
102
RTVSPost2010PropOp35
 70
     1
102
RTVSPost2010Prop36
280
     0
102
RTVSPost2010PropOp36
 70
     1
102
RTVSPost2010Prop37
 90
       50
102
RTVSPost2010PropOp37
 70
     1
102
RTVSPost2010Prop38
140
0.0
102
RTVSPost2010PropOp38
 70
     1
102
RTVSPost2010Prop39
140
1.0
102
RTVSPost2010PropOp39
 70
     1
102
RTVSPost2010Prop40
 90
        0
102
RTVSPost2010PropOp40
 70
     1
102
RTVSPost2010Prop41ColorIndex
 90
       18
102
RTVSPost2010Prop41ColorRGB
 90
        0
102
RTVSPost2010PropOp41
 70
     1
102
RTVSPost2010Prop42
 90
       50
102
RTVSPost2010PropOp42
 70
     1
102
RTVSPost2010Prop43
 90
        3
102
RTVSPost2010PropOp43
 70
     1
102
RTVSPost2010Prop44ColorIndex
 90
        5
102
RTVSPost2010Prop44ColorRGB
 90
      255
102
RTVSPost2010PropOp44
 70
     1
102
RTVSPost2010Prop45
280
     0
102
RTVSPost2010PropOp45
 70
     1
102
RTVSPost2010Prop46
 90
       50
102
RTVSPost2010PropOp46
 70
     1
102
RTVSPost2010Prop47
 90
       50
102
RTVSPost2010PropOp47
 70
     1
102
RTVSPost2010Prop48
 90
       50
102
RTVSPost2010PropOp48
 70
     1
102
RTVSPost2010Prop49
280
     0
102
RTVSPost2010PropOp49
 70
     1
102
RTVSPost2010Prop50
 90
       50
102
RTVSPost2010PropOp50
 70
     1
102
RTVSPost2010Prop51ColorIndex
 90
      256
102
RTVSPost2010Prop51ColorRGB
 90
-16777216
102
RTVSPost2010PropOp51
 70
     0
102
RTVSPost2010Prop52
140
1.0
102
RTVSPost2010PropOp52
 70
     0
102
RTVSPost2010Prop53
 90
        2
102
RTVSPost2010PropOp53
 70
     1
102
RTVSPost2010Prop54
  1
strokes_ogs.tif
102
RTVSPost2010PropOp54
 70
     1
102
RTVSPost2010Prop55
280
     0
102
RTVSPost2010PropOp55
 70
     1
102
RTVSPost2010Prop56
140
1.0
102
RTVSPost2010PropOp56
 70
     1
102
RTVSPost2010Prop57
140
1.0
102
RTVSPost2010PropOp57
 70
     1
102
RTVSPropertyOp0
 70
     1
102
RTVSPropertyOp1
 70
     1
102
RTVSPropertyOp2
 70
     1
102
RTVSPropertyOp3
 70
     1
102
RTVSPropertyOp4
 70
     1
102
RTVSPropertyOp5
 70
     1
102
RTVSPropertyOp6
 70
     1
102
RTVSPropertyOp7
 70
     1
102
RTVSPropertyOp8
 70
     1
102
RTVSPropertyOp9
 70
     1
102
RTVSPropertyOp10
 70
     1
102
RTVSPropertyOp11
 70
     1
102
RTVSPropertyOp12
 70
     1
102
RTVSPropertyOp13
 70
     1
102
RTVSPropertyOp14
 70
     1
102
RTVSPropertyOp15
 70
     1
102
RTVSPropertyOp16
 70
     1
102
RTVSPropertyOp17
 70
     1
102
RTVSPropertyOp18
 70
     1
102
RTVSPropertyOp19
 70
     1
102
RTVSPropertyOp20
 70
     1
102
RTVSPropertyOp21
 70
     1
102
RTVSPropertyOp22
 70
     1
102
RTVSPropertyOp23
 70
     1
102
RTVSPropertyOp24
 70
     1
102
RTVSPropertyOp25
 70
     1
102
RTVSPropertyOp26
 70
     1
102
RTVSPropertyOp27
 70
     1
102
RTVSPropertyOp28
 70
     1
102
RTVSPropertyOp29
 70
     1
102
RTVSPropertyOp30
 70
     1
102
RTVSPropertyOp31
 70
     1
102
RTVSPropertyOp32
 70
     1
102
RTVSPropertyOp33
 70
     1
102
RTVSPropertyOp34
 70
     1
102
RTVSPropertyOp35
 70
     1
102
RTVSPropertyOp36
 70
     1
102
RTVSPropertyOp37
 70
     1
102
RTVSPropertyOp38
 70
     1
102
RTVSPropertyOp39
 70
     1
102
RTVSPropertyOp40
 70
     1
102
RTVSPropertyOp41
 70
     1
102
RTVSPropertyOp42
 70
     1
102
RTVSPropertyOp43
 70
     1
102
RTVSPropertyOp44
 70
     1
102
RTVSPropertyOp45
 70
     1
102
RTVSPropertyOp46
 70
     1
102
RTVSPropertyOp47
 70
     1
102
RTVSPropertyOp48
 70
     1
102
RTVSPropertyOp49
 70
     1
102
RTVSPropertyOp50
 70
     1
102
RTVSPropertyOp51
 70
     0
102
RTVSPropertyOp52
 70
     0
102
RTVSPropertyOp53
 70
     1
102
RTVSPropertyOp54
 70
     1
102
RTVSPropertyOp55
 70
     1
102
RTVSPropertyOp56
 70
     1
102
RTVSPropertyOp57
 70
     1
102
RTVSPropertyOp58
 70
     1
102
RTVSPropertyOp59
 70
     1
102
RTVSPropertyOp60
 70
     1
102
RTVSPropertyOp61
 70
     1
102
RTVSPropertyOp62
 70
     1
  0
XRECORD
  5
122C
102
{ACAD_REACTORS
330
122B
102
}
330
122B
100
AcDbXrecord
280
     1
102
RTVSPost2010Prop28
280
     0
102
RTVSPost2010PropOp28
 70
     1
102
RTVSPost2010Prop29
280
     1
102
RTVSPost2010PropOp29
 70
     1
102
RTVSPost2010Prop30
280
     1
102
RTVSPost2010PropOp30
 70
     1
102
RTVSPost2010Prop31
280
     0
102
RTVSPost2010PropOp31
 70
     1
102
RTVSPost2010Prop32
280
     0
102
RTVSPost2010PropOp32
 70
     1
102
RTVSPost2010Prop33
280
     0
102
RTVSPost2010PropOp33
 70
     1
102
RTVSPost2010Prop34
280
     0
102
RTVSPost2010PropOp34
 70
     1
102
RTVSPost2010Prop35
280
     0
102
RTVSPost2010PropOp35
 70
     1
102
RTVSPost2010Prop36
280
     0
102
RTVSPost2010PropOp36
 70
     1
102
RTVSPost2010Prop37
 90
       50
102
RTVSPost2010PropOp37
 70
     1
102
RTVSPost2010Prop38
140
0.0
102
RTVSPost2010PropOp38
 70
     1
102
RTVSPost2010Prop39
140
1.0
102
RTVSPost2010PropOp39
 70
     1
102
RTVSPost2010Prop40
 90
        0
102
RTVSPost2010PropOp40
 70
     1
102
RTVSPost2010Prop41ColorIndex
 90
       18
102
RTVSPost2010Prop41ColorRGB
 90
        0
102
RTVSPost2010PropOp41
 70
     1
102
RTVSPost2010Prop42
 90
       50
102
RTVSPost2010PropOp42
 70
     1
102
RTVSPost2010Prop43
 90
        3
102
RTVSPost2010PropOp43
 70
     1
102
RTVSPost2010Prop44ColorIndex
 90
        5
102
RTVSPost2010Prop44ColorRGB
 90
      255
102
RTVSPost2010PropOp44
 70
     1
102
RTVSPost2010Prop45
280
     0
102
RTVSPost2010PropOp45
 70
     1
102
RTVSPost2010Prop46
 90
       50
102
RTVSPost2010PropOp46
 70
     1
102
RTVSPost2010Prop47
 90
       50
102
RTVSPost2010PropOp47
 70
     1
102
RTVSPost2010Prop48
 90
       50
102
RTVSPost2010PropOp48
 70
     1
102
RTVSPost2010Prop49
280
     0
102
RTVSPost2010PropOp49
 70
     1
102
RTVSPost2010Prop50
 90
       50
102
RTVSPost2010PropOp50
 70
     1
102
RTVSPost2010Prop51ColorIndex
 90
      256
102
RTVSPost2010Prop51ColorRGB
 90
-16777216
102
RTVSPost2010PropOp51
 70
     0
102
RTVSPost2010Prop52
140
1.0
102
RTVSPost2010PropOp52
 70
     0
102
RTVSPost2010Prop53
 90
        2
102
RTVSPost2010PropOp53
 70
     1
102
RTVSPost2010Prop54
  1
strokes_ogs.tif
102
RTVSPost2010PropOp54
 70
     1
102
RTVSPost2010Prop55
280
     0
102
RTVSPost2010PropOp55
 70
     1
102
RTVSPost2010Prop56
140
1.0
102
RTVSPost2010PropOp56
 70
     1
102
RTVSPost2010Prop57
140
1.0
102
RTVSPost2010PropOp57
 70
     1
102
RTVSPropertyOp0
 70
     1
102
RTVSPropertyOp1
 70
     1
102
RTVSPropertyOp2
 70
     1
102
RTVSPropertyOp3
 70
     1
102
RTVSPropertyOp4
 70
     1
102
RTVSPropertyOp5
 70
     1
102
RTVSPropertyOp6
 70
     1
102
RTVSPropertyOp7
 70
     1
102
RTVSPropertyOp8
 70
     1
102
RTVSPropertyOp9
 70
     1
102
RTVSPropertyOp10
 70
     1
102
RTVSPropertyOp11
 70
     1
102
RTVSPropertyOp12
 70
     1
102
RTVSPropertyOp13
 70
     1
102
RTVSPropertyOp14
 70
     1
102
RTVSPropertyOp15
 70
     1
102
RTVSPropertyOp16
 70
     1
102
RTVSPropertyOp17
 70
     1
102
RTVSPropertyOp18
 70
     1
102
RTVSPropertyOp19
 70
     1
102
RTVSPropertyOp20
 70
     1
102
RTVSPropertyOp21
 70
     1
102
RTVSPropertyOp22
 70
     1
102
RTVSPropertyOp23
 70
     1
102
RTVSPropertyOp24
 70
     1
102
RTVSPropertyOp25
 70
     1
102
RTVSPropertyOp26
 70
     1
102
RTVSPropertyOp27
 70
     1
102
RTVSPropertyOp28
 70
     1
102
RTVSPropertyOp29
 70
     1
102
RTVSPropertyOp30
 70
     1
102
RTVSPropertyOp31
 70
     1
102
RTVSPropertyOp32
 70
     1
102
RTVSPropertyOp33
 70
     1
102
RTVSPropertyOp34
 70
     1
102
RTVSPropertyOp35
 70
     1
102
RTVSPropertyOp36
 70
     1
102
RTVSPropertyOp37
 70
     1
102
RTVSPropertyOp38
 70
     1
102
RTVSPropertyOp39
 70
     1
102
RTVSPropertyOp40
 70
     1
102
RTVSPropertyOp41
 70
     1
102
RTVSPropertyOp42
 70
     1
102
RTVSPropertyOp43
 70
     1
102
RTVSPropertyOp44
 70
     1
102
RTVSPropertyOp45
 70
     1
102
RTVSPropertyOp46
 70
     1
102
RTVSPropertyOp47
 70
     1
102
RTVSPropertyOp48
 70
     1
102
RTVSPropertyOp49
 70
     1
102
RTVSPropertyOp50
 70
     1
102
RTVSPropertyOp51
 70
     0
102
RTVSPropertyOp52
 70
     0
102
RTVSPropertyOp53
 70
     1
102
RTVSPropertyOp54
 70
     1
102
RTVSPropertyOp55
 70
     1
102
RTVSPropertyOp56
 70
     1
102
RTVSPropertyOp57
 70
     1
102
RTVSPropertyOp58
 70
     1
102
RTVSPropertyOp59
 70
     1
102
RTVSPropertyOp60
 70
     1
102
RTVSPropertyOp61
 70
     1
102
RTVSPropertyOp62
 70
     1
  0
XRECORD
  5
122A
102
{ACAD_REACTORS
330
1229
102
}
330
1229
100
AcDbXrecord
280
     1
102
RTVSPost2010Prop28
280
     0
102
RTVSPost2010PropOp28
 70
     1
102
RTVSPost2010Prop29
280
     1
102
RTVSPost2010PropOp29
 70
     1
102
RTVSPost2010Prop30
280
     1
102
RTVSPost2010PropOp30
 70
     1
102
RTVSPost2010Prop31
280
     0
102
RTVSPost2010PropOp31
 70
     1
102
RTVSPost2010Prop32
280
     0
102
RTVSPost2010PropOp32
 70
     1
102
RTVSPost2010Prop33
280
     0
102
RTVSPost2010PropOp33
 70
     1
102
RTVSPost2010Prop34
280
     0
102
RTVSPost2010PropOp34
 70
     1
102
RTVSPost2010Prop35
280
     0
102
RTVSPost2010PropOp35
 70
     1
102
RTVSPost2010Prop36
280
     0
102
RTVSPost2010PropOp36
 70
     1
102
RTVSPost2010Prop37
 90
       50
102
RTVSPost2010PropOp37
 70
     1
102
RTVSPost2010Prop38
140
0.0
102
RTVSPost2010PropOp38
 70
     1
102
RTVSPost2010Prop39
140
1.0
102
RTVSPost2010PropOp39
 70
     1
102
RTVSPost2010Prop40
 90
        0
102
RTVSPost2010PropOp40
 70
     1
102
RTVSPost2010Prop41ColorIndex
 90
       18
102
RTVSPost2010Prop41ColorRGB
 90
        0
102
RTVSPost2010PropOp41
 70
     1
102
RTVSPost2010Prop42
 90
       50
102
RTVSPost2010PropOp42
 70
     1
102
RTVSPost2010Prop43
 90
        3
102
RTVSPost2010PropOp43
 70
     1
102
RTVSPost2010Prop44ColorIndex
 90
        5
102
RTVSPost2010Prop44ColorRGB
 90
      255
102
RTVSPost2010PropOp44
 70
     1
102
RTVSPost2010Prop45
280
     0
102
RTVSPost2010PropOp45
 70
     1
102
RTVSPost2010Prop46
 90
       50
102
RTVSPost2010PropOp46
 70
     1
102
RTVSPost2010Prop47
 90
       50
102
RTVSPost2010PropOp47
 70
     1
102
RTVSPost2010Prop48
 90
       50
102
RTVSPost2010PropOp48
 70
     1
102
RTVSPost2010Prop49
280
     0
102
RTVSPost2010PropOp49
 70
     1
102
RTVSPost2010Prop50
 90
       50
102
RTVSPost2010PropOp50
 70
     1
102
RTVSPost2010Prop51ColorIndex
 90
      256
102
RTVSPost2010Prop51ColorRGB
 90
-16777216
102
RTVSPost2010PropOp51
 70
     0
102
RTVSPost2010Prop52
140
1.0
102
RTVSPost2010PropOp52
 70
     0
102
RTVSPost2010Prop53
 90
        2
102
RTVSPost2010PropOp53
 70
     1
102
RTVSPost2010Prop54
  1
strokes_ogs.tif
102
RTVSPost2010PropOp54
 70
     1
102
RTVSPost2010Prop55
280
     0
102
RTVSPost2010PropOp55
 70
     1
102
RTVSPost2010Prop56
140
1.0
102
RTVSPost2010PropOp56
 70
     1
102
RTVSPost2010Prop57
140
1.0
102
RTVSPost2010PropOp57
 70
     1
102
RTVSPropertyOp0
 70
     1
102
RTVSPropertyOp1
 70
     1
102
RTVSPropertyOp2
 70
     1
102
RTVSPropertyOp3
 70
     1
102
RTVSPropertyOp4
 70
     1
102
RTVSPropertyOp5
 70
     1
102
RTVSPropertyOp6
 70
     1
102
RTVSPropertyOp7
 70
     1
102
RTVSPropertyOp8
 70
     1
102
RTVSPropertyOp9
 70
     1
102
RTVSPropertyOp10
 70
     1
102
RTVSPropertyOp11
 70
     1
102
RTVSPropertyOp12
 70
     1
102
RTVSPropertyOp13
 70
     1
102
RTVSPropertyOp14
 70
     1
102
RTVSPropertyOp15
 70
     1
102
RTVSPropertyOp16
 70
     1
102
RTVSPropertyOp17
 70
     1
102
RTVSPropertyOp18
 70
     1
102
RTVSPropertyOp19
 70
     1
102
RTVSPropertyOp20
 70
     1
102
RTVSPropertyOp21
 70
     1
102
RTVSPropertyOp22
 70
     1
102
RTVSPropertyOp23
 70
     1
102
RTVSPropertyOp24
 70
     1
102
RTVSPropertyOp25
 70
     1
102
RTVSPropertyOp26
 70
     1
102
RTVSPropertyOp27
 70
     1
102
RTVSPropertyOp28
 70
     1
102
RTVSPropertyOp29
 70
     1
102
RTVSPropertyOp30
 70
     1
102
RTVSPropertyOp31
 70
     1
102
RTVSPropertyOp32
 70
     1
102
RTVSPropertyOp33
 70
     1
102
RTVSPropertyOp34
 70
     1
102
RTVSPropertyOp35
 70
     1
102
RTVSPropertyOp36
 70
     1
102
RTVSPropertyOp37
 70
     1
102
RTVSPropertyOp38
 70
     1
102
RTVSPropertyOp39
 70
     1
102
RTVSPropertyOp40
 70
     1
102
RTVSPropertyOp41
 70
     1
102
RTVSPropertyOp42
 70
     1
102
RTVSPropertyOp43
 70
     1
102
RTVSPropertyOp44
 70
     1
102
RTVSPropertyOp45
 70
     1
102
RTVSPropertyOp46
 70
     1
102
RTVSPropertyOp47
 70
     1
102
RTVSPropertyOp48
 70
     1
102
RTVSPropertyOp49
 70
     1
102
RTVSPropertyOp50
 70
     1
102
RTVSPropertyOp51
 70
     0
102
RTVSPropertyOp52
 70
     0
102
RTVSPropertyOp53
 70
     1
102
RTVSPropertyOp54
 70
     1
102
RTVSPropertyOp55
 70
     1
102
RTVSPropertyOp56
 70
     1
102
RTVSPropertyOp57
 70
     1
102
RTVSPropertyOp58
 70
     1
102
RTVSPropertyOp59
 70
     1
102
RTVSPropertyOp60
 70
     1
102
RTVSPropertyOp61
 70
     1
102
RTVSPropertyOp62
 70
     1
  0
XRECORD
  5
1224
102
{ACAD_REACTORS
330
1223
102
}
330
1223
100
AcDbXrecord
280
     1
102
RTVSPost2010Prop28
280
     0
102
RTVSPost2010PropOp28
 70
     1
102
RTVSPost2010Prop29
280
     1
102
RTVSPost2010PropOp29
 70
     1
102
RTVSPost2010Prop30
280
     1
102
RTVSPost2010PropOp30
 70
     1
102
RTVSPost2010Prop31
280
     0
102
RTVSPost2010PropOp31
 70
     1
102
RTVSPost2010Prop32
280
     0
102
RTVSPost2010PropOp32
 70
     1
102
RTVSPost2010Prop33
280
     0
102
RTVSPost2010PropOp33
 70
     1
102
RTVSPost2010Prop34
280
     0
102
RTVSPost2010PropOp34
 70
     1
102
RTVSPost2010Prop35
280
     0
102
RTVSPost2010PropOp35
 70
     1
102
RTVSPost2010Prop36
280
     0
102
RTVSPost2010PropOp36
 70
     1
102
RTVSPost2010Prop37
 90
       50
102
RTVSPost2010PropOp37
 70
     1
102
RTVSPost2010Prop38
140
0.0
102
RTVSPost2010PropOp38
 70
     1
102
RTVSPost2010Prop39
140
1.0
102
RTVSPost2010PropOp39
 70
     1
102
RTVSPost2010Prop40
 90
        0
102
RTVSPost2010PropOp40
 70
     1
102
RTVSPost2010Prop41ColorIndex
 90
       18
102
RTVSPost2010Prop41ColorRGB
 90
        0
102
RTVSPost2010PropOp41
 70
     1
102
RTVSPost2010Prop42
 90
       50
102
RTVSPost2010PropOp42
 70
     1
102
RTVSPost2010Prop43
 90
        3
102
RTVSPost2010PropOp43
 70
     1
102
RTVSPost2010Prop44ColorIndex
 90
        5
102
RTVSPost2010Prop44ColorRGB
 90
      255
102
RTVSPost2010PropOp44
 70
     1
102
RTVSPost2010Prop45
280
     0
102
RTVSPost2010PropOp45
 70
     1
102
RTVSPost2010Prop46
 90
       50
102
RTVSPost2010PropOp46
 70
     1
102
RTVSPost2010Prop47
 90
       50
102
RTVSPost2010PropOp47
 70
     1
102
RTVSPost2010Prop48
 90
       50
102
RTVSPost2010PropOp48
 70
     1
102
RTVSPost2010Prop49
280
     0
102
RTVSPost2010PropOp49
 70
     1
102
RTVSPost2010Prop50
 90
       50
102
RTVSPost2010PropOp50
 70
     1
102
RTVSPost2010Prop51ColorIndex
 90
      256
102
RTVSPost2010Prop51ColorRGB
 90
-16777216
102
RTVSPost2010PropOp51
 70
     0
102
RTVSPost2010Prop52
140
1.0
102
RTVSPost2010PropOp52
 70
     0
102
RTVSPost2010Prop53
 90
        2
102
RTVSPost2010PropOp53
 70
     1
102
RTVSPost2010Prop54
  1
strokes_ogs.tif
102
RTVSPost2010PropOp54
 70
     1
102
RTVSPost2010Prop55
280
     0
102
RTVSPost2010PropOp55
 70
     1
102
RTVSPost2010Prop56
140
1.0
102
RTVSPost2010PropOp56
 70
     1
102
RTVSPost2010Prop57
140
1.0
102
RTVSPost2010PropOp57
 70
     1
102
RTVSPropertyOp0
 70
     1
102
RTVSPropertyOp1
 70
     1
102
RTVSPropertyOp2
 70
     1
102
RTVSPropertyOp3
 70
     1
102
RTVSPropertyOp4
 70
     1
102
RTVSPropertyOp5
 70
     1
102
RTVSPropertyOp6
 70
     1
102
RTVSPropertyOp7
 70
     1
102
RTVSPropertyOp8
 70
     1
102
RTVSPropertyOp9
 70
     1
102
RTVSPropertyOp10
 70
     1
102
RTVSPropertyOp11
 70
     1
102
RTVSPropertyOp12
 70
     1
102
RTVSPropertyOp13
 70
     1
102
RTVSPropertyOp14
 70
     1
102
RTVSPropertyOp15
 70
     1
102
RTVSPropertyOp16
 70
     1
102
RTVSPropertyOp17
 70
     1
102
RTVSPropertyOp18
 70
     1
102
RTVSPropertyOp19
 70
     1
102
RTVSPropertyOp20
 70
     1
102
RTVSPropertyOp21
 70
     1
102
RTVSPropertyOp22
 70
     1
102
RTVSPropertyOp23
 70
     1
102
RTVSPropertyOp24
 70
     1
102
RTVSPropertyOp25
 70
     1
102
RTVSPropertyOp26
 70
     1
102
RTVSPropertyOp27
 70
     1
102
RTVSPropertyOp28
 70
     1
102
RTVSPropertyOp29
 70
     1
102
RTVSPropertyOp30
 70
     1
102
RTVSPropertyOp31
 70
     1
102
RTVSPropertyOp32
 70
     1
102
RTVSPropertyOp33
 70
     1
102
RTVSPropertyOp34
 70
     1
102
RTVSPropertyOp35
 70
     1
102
RTVSPropertyOp36
 70
     1
102
RTVSPropertyOp37
 70
     1
102
RTVSPropertyOp38
 70
     1
102
RTVSPropertyOp39
 70
     1
102
RTVSPropertyOp40
 70
     1
102
RTVSPropertyOp41
 70
     1
102
RTVSPropertyOp42
 70
     1
102
RTVSPropertyOp43
 70
     1
102
RTVSPropertyOp44
 70
     1
102
RTVSPropertyOp45
 70
     1
102
RTVSPropertyOp46
 70
     1
102
RTVSPropertyOp47
 70
     1
102
RTVSPropertyOp48
 70
     1
102
RTVSPropertyOp49
 70
     1
102
RTVSPropertyOp50
 70
     1
102
RTVSPropertyOp51
 70
     0
102
RTVSPropertyOp52
 70
     0
102
RTVSPropertyOp53
 70
     1
102
RTVSPropertyOp54
 70
     1
102
RTVSPropertyOp55
 70
     1
102
RTVSPropertyOp56
 70
     1
102
RTVSPropertyOp57
 70
     1
102
RTVSPropertyOp58
 70
     1
102
RTVSPropertyOp59
 70
     1
102
RTVSPropertyOp60
 70
     1
102
RTVSPropertyOp61
 70
     1
102
RTVSPropertyOp62
 70
     1
  0
XRECORD
  5
1226
102
{ACAD_REACTORS
330
1225
102
}
330
1225
100
AcDbXrecord
280
     1
102
RTVSPost2010Prop28
280
     0
102
RTVSPost2010PropOp28
 70
     1
102
RTVSPost2010Prop29
280
     1
102
RTVSPost2010PropOp29
 70
     1
102
RTVSPost2010Prop30
280
     1
102
RTVSPost2010PropOp30
 70
     1
102
RTVSPost2010Prop31
280
     0
102
RTVSPost2010PropOp31
 70
     1
102
RTVSPost2010Prop32
280
     0
102
RTVSPost2010PropOp32
 70
     1
102
RTVSPost2010Prop33
280
     0
102
RTVSPost2010PropOp33
 70
     1
102
RTVSPost2010Prop34
280
     0
102
RTVSPost2010PropOp34
 70
     1
102
RTVSPost2010Prop35
280
     0
102
RTVSPost2010PropOp35
 70
     1
102
RTVSPost2010Prop36
280
     0
102
RTVSPost2010PropOp36
 70
     1
102
RTVSPost2010Prop37
 90
       50
102
RTVSPost2010PropOp37
 70
     1
102
RTVSPost2010Prop38
140
0.0
102
RTVSPost2010PropOp38
 70
     1
102
RTVSPost2010Prop39
140
1.0
102
RTVSPost2010PropOp39
 70
     1
102
RTVSPost2010Prop40
 90
        0
102
RTVSPost2010PropOp40
 70
     1
102
RTVSPost2010Prop41ColorIndex
 90
       18
102
RTVSPost2010Prop41ColorRGB
 90
        0
102
RTVSPost2010PropOp41
 70
     1
102
RTVSPost2010Prop42
 90
       50
102
RTVSPost2010PropOp42
 70
     1
102
RTVSPost2010Prop43
 90
        3
102
RTVSPost2010PropOp43
 70
     1
102
RTVSPost2010Prop44ColorIndex
 90
        5
102
RTVSPost2010Prop44ColorRGB
 90
      255
102
RTVSPost2010PropOp44
 70
     1
102
RTVSPost2010Prop45
280
     0
102
RTVSPost2010PropOp45
 70
     1
102
RTVSPost2010Prop46
 90
       50
102
RTVSPost2010PropOp46
 70
     1
102
RTVSPost2010Prop47
 90
       50
102
RTVSPost2010PropOp47
 70
     1
102
RTVSPost2010Prop48
 90
       50
102
RTVSPost2010PropOp48
 70
     1
102
RTVSPost2010Prop49
280
     0
102
RTVSPost2010PropOp49
 70
     1
102
RTVSPost2010Prop50
 90
       50
102
RTVSPost2010PropOp50
 70
     1
102
RTVSPost2010Prop51ColorIndex
 90
      256
102
RTVSPost2010Prop51ColorRGB
 90
-16777216
102
RTVSPost2010PropOp51
 70
     0
102
RTVSPost2010Prop52
140
1.0
102
RTVSPost2010PropOp52
 70
     0
102
RTVSPost2010Prop53
 90
        2
102
RTVSPost2010PropOp53
 70
     1
102
RTVSPost2010Prop54
  1
strokes_ogs.tif
102
RTVSPost2010PropOp54
 70
     1
102
RTVSPost2010Prop55
280
     0
102
RTVSPost2010PropOp55
 70
     1
102
RTVSPost2010Prop56
140
1.0
102
RTVSPost2010PropOp56
 70
     1
102
RTVSPost2010Prop57
140
1.0
102
RTVSPost2010PropOp57
 70
     1
102
RTVSPropertyOp0
 70
     1
102
RTVSPropertyOp1
 70
     1
102
RTVSPropertyOp2
 70
     1
102
RTVSPropertyOp3
 70
     1
102
RTVSPropertyOp4
 70
     1
102
RTVSPropertyOp5
 70
     1
102
RTVSPropertyOp6
 70
     1
102
RTVSPropertyOp7
 70
     1
102
RTVSPropertyOp8
 70
     1
102
RTVSPropertyOp9
 70
     1
102
RTVSPropertyOp10
 70
     1
102
RTVSPropertyOp11
 70
     1
102
RTVSPropertyOp12
 70
     1
102
RTVSPropertyOp13
 70
     1
102
RTVSPropertyOp14
 70
     1
102
RTVSPropertyOp15
 70
     1
102
RTVSPropertyOp16
 70
     1
102
RTVSPropertyOp17
 70
     1
102
RTVSPropertyOp18
 70
     1
102
RTVSPropertyOp19
 70
     1
102
RTVSPropertyOp20
 70
     1
102
RTVSPropertyOp21
 70
     1
102
RTVSPropertyOp22
 70
     1
102
RTVSPropertyOp23
 70
     1
102
RTVSPropertyOp24
 70
     1
102
RTVSPropertyOp25
 70
     1
102
RTVSPropertyOp26
 70
     1
102
RTVSPropertyOp27
 70
     1
102
RTVSPropertyOp28
 70
     1
102
RTVSPropertyOp29
 70
     1
102
RTVSPropertyOp30
 70
     1
102
RTVSPropertyOp31
 70
     1
102
RTVSPropertyOp32
 70
     1
102
RTVSPropertyOp33
 70
     1
102
RTVSPropertyOp34
 70
     1
102
RTVSPropertyOp35
 70
     1
102
RTVSPropertyOp36
 70
     1
102
RTVSPropertyOp37
 70
     1
102
RTVSPropertyOp38
 70
     1
102
RTVSPropertyOp39
 70
     1
102
RTVSPropertyOp40
 70
     1
102
RTVSPropertyOp41
 70
     1
102
RTVSPropertyOp42
 70
     1
102
RTVSPropertyOp43
 70
     1
102
RTVSPropertyOp44
 70
     1
102
RTVSPropertyOp45
 70
     1
102
RTVSPropertyOp46
 70
     1
102
RTVSPropertyOp47
 70
     1
102
RTVSPropertyOp48
 70
     1
102
RTVSPropertyOp49
 70
     1
102
RTVSPropertyOp50
 70
     1
102
RTVSPropertyOp51
 70
     0
102
RTVSPropertyOp52
 70
     0
102
RTVSPropertyOp53
 70
     1
102
RTVSPropertyOp54
 70
     1
102
RTVSPropertyOp55
 70
     1
102
RTVSPropertyOp56
 70
     1
102
RTVSPropertyOp57
 70
     1
102
RTVSPropertyOp58
 70
     1
102
RTVSPropertyOp59
 70
     1
102
RTVSPropertyOp60
 70
     1
102
RTVSPropertyOp61
 70
     1
102
RTVSPropertyOp62
 70
     1
  0
XRECORD
  5
121C
102
{ACAD_REACTORS
330
121B
102
}
330
121B
100
AcDbXrecord
280
     1
102
RTVSPost2010Prop28
280
     0
102
RTVSPost2010PropOp28
 70
     1
102
RTVSPost2010Prop29
280
     1
102
RTVSPost2010PropOp29
 70
     1
102
RTVSPost2010Prop30
280
     1
102
RTVSPost2010PropOp30
 70
     1
102
RTVSPost2010Prop31
280
     0
102
RTVSPost2010PropOp31
 70
     1
102
RTVSPost2010Prop32
280
     0
102
RTVSPost2010PropOp32
 70
     1
102
RTVSPost2010Prop33
280
     0
102
RTVSPost2010PropOp33
 70
     1
102
RTVSPost2010Prop34
280
     0
102
RTVSPost2010PropOp34
 70
     1
102
RTVSPost2010Prop35
280
     0
102
RTVSPost2010PropOp35
 70
     1
102
RTVSPost2010Prop36
280
     0
102
RTVSPost2010PropOp36
 70
     1
102
RTVSPost2010Prop37
 90
       50
102
RTVSPost2010PropOp37
 70
     1
102
RTVSPost2010Prop38
140
0.0
102
RTVSPost2010PropOp38
 70
     1
102
RTVSPost2010Prop39
140
1.0
102
RTVSPost2010PropOp39
 70
     1
102
RTVSPost2010Prop40
 90
        0
102
RTVSPost2010PropOp40
 70
     1
102
RTVSPost2010Prop41ColorIndex
 90
       18
102
RTVSPost2010Prop41ColorRGB
 90
        0
102
RTVSPost2010PropOp41
 70
     1
102
RTVSPost2010Prop42
 90
       50
102
RTVSPost2010PropOp42
 70
     1
102
RTVSPost2010Prop43
 90
        3
102
RTVSPost2010PropOp43
 70
     1
102
RTVSPost2010Prop44ColorIndex
 90
        5
102
RTVSPost2010Prop44ColorRGB
 90
      255
102
RTVSPost2010PropOp44
 70
     1
102
RTVSPost2010Prop45
280
     0
102
RTVSPost2010PropOp45
 70
     1
102
RTVSPost2010Prop46
 90
       50
102
RTVSPost2010PropOp46
 70
     1
102
RTVSPost2010Prop47
 90
       50
102
RTVSPost2010PropOp47
 70
     1
102
RTVSPost2010Prop48
 90
       50
102
RTVSPost2010PropOp48
 70
     1
102
RTVSPost2010Prop49
280
     0
102
RTVSPost2010PropOp49
 70
     1
102
RTVSPost2010Prop50
 90
       50
102
RTVSPost2010PropOp50
 70
     1
102
RTVSPost2010Prop51ColorIndex
 90
      256
102
RTVSPost2010Prop51ColorRGB
 90
-16777216
102
RTVSPost2010PropOp51
 70
     0
102
RTVSPost2010Prop52
140
1.0
102
RTVSPost2010PropOp52
 70
     0
102
RTVSPost2010Prop53
 90
        2
102
RTVSPost2010PropOp53
 70
     1
102
RTVSPost2010Prop54
  1
strokes_ogs.tif
102
RTVSPost2010PropOp54
 70
     1
102
RTVSPost2010Prop55
280
     0
102
RTVSPost2010PropOp55
 70
     1
102
RTVSPost2010Prop56
140
1.0
102
RTVSPost2010PropOp56
 70
     1
102
RTVSPost2010Prop57
140
1.0
102
RTVSPost2010PropOp57
 70
     1
102
RTVSPropertyOp0
 70
     1
102
RTVSPropertyOp1
 70
     1
102
RTVSPropertyOp2
 70
     1
102
RTVSPropertyOp3
 70
     1
102
RTVSPropertyOp4
 70
     1
102
RTVSPropertyOp5
 70
     1
102
RTVSPropertyOp6
 70
     1
102
RTVSPropertyOp7
 70
     1
102
RTVSPropertyOp8
 70
     1
102
RTVSPropertyOp9
 70
     1
102
RTVSPropertyOp10
 70
     1
102
RTVSPropertyOp11
 70
     1
102
RTVSPropertyOp12
 70
     1
102
RTVSPropertyOp13
 70
     1
102
RTVSPropertyOp14
 70
     1
102
RTVSPropertyOp15
 70
     1
102
RTVSPropertyOp16
 70
     1
102
RTVSPropertyOp17
 70
     1
102
RTVSPropertyOp18
 70
     1
102
RTVSPropertyOp19
 70
     1
102
RTVSPropertyOp20
 70
     1
102
RTVSPropertyOp21
 70
     1
102
RTVSPropertyOp22
 70
     1
102
RTVSPropertyOp23
 70
     1
102
RTVSPropertyOp24
 70
     1
102
RTVSPropertyOp25
 70
     1
102
RTVSPropertyOp26
 70
     1
102
RTVSPropertyOp27
 70
     1
102
RTVSPropertyOp28
 70
     1
102
RTVSPropertyOp29
 70
     1
102
RTVSPropertyOp30
 70
     1
102
RTVSPropertyOp31
 70
     1
102
RTVSPropertyOp32
 70
     1
102
RTVSPropertyOp33
 70
     1
102
RTVSPropertyOp34
 70
     1
102
RTVSPropertyOp35
 70
     1
102
RTVSPropertyOp36
 70
     1
102
RTVSPropertyOp37
 70
     1
102
RTVSPropertyOp38
 70
     1
102
RTVSPropertyOp39
 70
     1
102
RTVSPropertyOp40
 70
     1
102
RTVSPropertyOp41
 70
     1
102
RTVSPropertyOp42
 70
     1
102
RTVSPropertyOp43
 70
     1
102
RTVSPropertyOp44
 70
     1
102
RTVSPropertyOp45
 70
     1
102
RTVSPropertyOp46
 70
     1
102
RTVSPropertyOp47
 70
     1
102
RTVSPropertyOp48
 70
     1
102
RTVSPropertyOp49
 70
     1
102
RTVSPropertyOp50
 70
     1
102
RTVSPropertyOp51
 70
     0
102
RTVSPropertyOp52
 70
     0
102
RTVSPropertyOp53
 70
     1
102
RTVSPropertyOp54
 70
     1
102
RTVSPropertyOp55
 70
     1
102
RTVSPropertyOp56
 70
     1
102
RTVSPropertyOp57
 70
     1
102
RTVSPropertyOp58
 70
     1
102
RTVSPropertyOp59
 70
     1
102
RTVSPropertyOp60
 70
     1
102
RTVSPropertyOp61
 70
     1
102
RTVSPropertyOp62
 70
     1
  0
XRECORD
  5
1210
102
{ACAD_REACTORS
330
120F
102
}
330
120F
100
AcDbXrecord
280
     1
102
RTVSPost2010Prop28
280
     0
102
RTVSPost2010PropOp28
 70
     1
102
RTVSPost2010Prop29
280
     1
102
RTVSPost2010PropOp29
 70
     1
102
RTVSPost2010Prop30
280
     1
102
RTVSPost2010PropOp30
 70
     1
102
RTVSPost2010Prop31
280
     0
102
RTVSPost2010PropOp31
 70
     1
102
RTVSPost2010Prop32
280
     0
102
RTVSPost2010PropOp32
 70
     1
102
RTVSPost2010Prop33
280
     0
102
RTVSPost2010PropOp33
 70
     1
102
RTVSPost2010Prop34
280
     0
102
RTVSPost2010PropOp34
 70
     1
102
RTVSPost2010Prop35
280
     0
102
RTVSPost2010PropOp35
 70
     1
102
RTVSPost2010Prop36
280
     0
102
RTVSPost2010PropOp36
 70
     1
102
RTVSPost2010Prop37
 90
       50
102
RTVSPost2010PropOp37
 70
     1
102
RTVSPost2010Prop38
140
0.0
102
RTVSPost2010PropOp38
 70
     1
102
RTVSPost2010Prop39
140
1.0
102
RTVSPost2010PropOp39
 70
     1
102
RTVSPost2010Prop40
 90
        0
102
RTVSPost2010PropOp40
 70
     1
102
RTVSPost2010Prop41ColorIndex
 90
       18
102
RTVSPost2010Prop41ColorRGB
 90
        0
102
RTVSPost2010PropOp41
 70
     1
102
RTVSPost2010Prop42
 90
       50
102
RTVSPost2010PropOp42
 70
     1
102
RTVSPost2010Prop43
 90
        3
102
RTVSPost2010PropOp43
 70
     1
102
RTVSPost2010Prop44ColorIndex
 90
        5
102
RTVSPost2010Prop44ColorRGB
 90
      255
102
RTVSPost2010PropOp44
 70
     1
102
RTVSPost2010Prop45
280
     0
102
RTVSPost2010PropOp45
 70
     1
102
RTVSPost2010Prop46
 90
       50
102
RTVSPost2010PropOp46
 70
     1
102
RTVSPost2010Prop47
 90
       50
102
RTVSPost2010PropOp47
 70
     1
102
RTVSPost2010Prop48
 90
       50
102
RTVSPost2010PropOp48
 70
     1
102
RTVSPost2010Prop49
280
     0
102
RTVSPost2010PropOp49
 70
     1
102
RTVSPost2010Prop50
 90
       50
102
RTVSPost2010PropOp50
 70
     1
102
RTVSPost2010Prop51ColorIndex
 90
      256
102
RTVSPost2010Prop51ColorRGB
 90
-16777216
102
RTVSPost2010PropOp51
 70
     0
102
RTVSPost2010Prop52
140
1.0
102
RTVSPost2010PropOp52
 70
     0
102
RTVSPost2010Prop53
 90
        2
102
RTVSPost2010PropOp53
 70
     1
102
RTVSPost2010Prop54
  1
strokes_ogs.tif
102
RTVSPost2010PropOp54
 70
     1
102
RTVSPost2010Prop55
280
     0
102
RTVSPost2010PropOp55
 70
     1
102
RTVSPost2010Prop56
140
1.0
102
RTVSPost2010PropOp56
 70
     1
102
RTVSPost2010Prop57
140
1.0
102
RTVSPost2010PropOp57
 70
     1
102
RTVSPropertyOp0
 70
     1
102
RTVSPropertyOp1
 70
     1
102
RTVSPropertyOp2
 70
     1
102
RTVSPropertyOp3
 70
     1
102
RTVSPropertyOp4
 70
     1
102
RTVSPropertyOp5
 70
     1
102
RTVSPropertyOp6
 70
     1
102
RTVSPropertyOp7
 70
     1
102
RTVSPropertyOp8
 70
     1
102
RTVSPropertyOp9
 70
     1
102
RTVSPropertyOp10
 70
     1
102
RTVSPropertyOp11
 70
     1
102
RTVSPropertyOp12
 70
     1
102
RTVSPropertyOp13
 70
     1
102
RTVSPropertyOp14
 70
     1
102
RTVSPropertyOp15
 70
     1
102
RTVSPropertyOp16
 70
     1
102
RTVSPropertyOp17
 70
     1
102
RTVSPropertyOp18
 70
     1
102
RTVSPropertyOp19
 70
     1
102
RTVSPropertyOp20
 70
     1
102
RTVSPropertyOp21
 70
     1
102
RTVSPropertyOp22
 70
     1
102
RTVSPropertyOp23
 70
     1
102
RTVSPropertyOp24
 70
     1
102
RTVSPropertyOp25
 70
     1
102
RTVSPropertyOp26
 70
     1
102
RTVSPropertyOp27
 70
     1
102
RTVSPropertyOp28
 70
     1
102
RTVSPropertyOp29
 70
     1
102
RTVSPropertyOp30
 70
     1
102
RTVSPropertyOp31
 70
     1
102
RTVSPropertyOp32
 70
     1
102
RTVSPropertyOp33
 70
     1
102
RTVSPropertyOp34
 70
     1
102
RTVSPropertyOp35
 70
     1
102
RTVSPropertyOp36
 70
     1
102
RTVSPropertyOp37
 70
     1
102
RTVSPropertyOp38
 70
     1
102
RTVSPropertyOp39
 70
     1
102
RTVSPropertyOp40
 70
     1
102
RTVSPropertyOp41
 70
     1
102
RTVSPropertyOp42
 70
     1
102
RTVSPropertyOp43
 70
     1
102
RTVSPropertyOp44
 70
     1
102
RTVSPropertyOp45
 70
     1
102
RTVSPropertyOp46
 70
     1
102
RTVSPropertyOp47
 70
     1
102
RTVSPropertyOp48
 70
     1
102
RTVSPropertyOp49
 70
     1
102
RTVSPropertyOp50
 70
     1
102
RTVSPropertyOp51
 70
     0
102
RTVSPropertyOp52
 70
     0
102
RTVSPropertyOp53
 70
     1
102
RTVSPropertyOp54
 70
     1
102
RTVSPropertyOp55
 70
     1
102
RTVSPropertyOp56
 70
     1
102
RTVSPropertyOp57
 70
     1
102
RTVSPropertyOp58
 70
     1
102
RTVSPropertyOp59
 70
     1
102
RTVSPropertyOp60
 70
     1
102
RTVSPropertyOp61
 70
     1
102
RTVSPropertyOp62
 70
     1
  0
XRECORD
  5
1228
102
{ACAD_REACTORS
330
1227
102
}
330
1227
100
AcDbXrecord
280
     1
102
RTVSPost2010Prop28
280
     0
102
RTVSPost2010PropOp28
 70
     1
102
RTVSPost2010Prop29
280
     1
102
RTVSPost2010PropOp29
 70
     1
102
RTVSPost2010Prop30
280
     1
102
RTVSPost2010PropOp30
 70
     1
102
RTVSPost2010Prop31
280
     0
102
RTVSPost2010PropOp31
 70
     1
102
RTVSPost2010Prop32
280
     0
102
RTVSPost2010PropOp32
 70
     1
102
RTVSPost2010Prop33
280
     0
102
RTVSPost2010PropOp33
 70
     1
102
RTVSPost2010Prop34
280
     0
102
RTVSPost2010PropOp34
 70
     1
102
RTVSPost2010Prop35
280
     0
102
RTVSPost2010PropOp35
 70
     1
102
RTVSPost2010Prop36
280
     0
102
RTVSPost2010PropOp36
 70
     1
102
RTVSPost2010Prop37
 90
       50
102
RTVSPost2010PropOp37
 70
     1
102
RTVSPost2010Prop38
140
0.0
102
RTVSPost2010PropOp38
 70
     1
102
RTVSPost2010Prop39
140
1.0
102
RTVSPost2010PropOp39
 70
     1
102
RTVSPost2010Prop40
 90
        0
102
RTVSPost2010PropOp40
 70
     1
102
RTVSPost2010Prop41ColorIndex
 90
       18
102
RTVSPost2010Prop41ColorRGB
 90
        0
102
RTVSPost2010PropOp41
 70
     1
102
RTVSPost2010Prop42
 90
       50
102
RTVSPost2010PropOp42
 70
     1
102
RTVSPost2010Prop43
 90
        3
102
RTVSPost2010PropOp43
 70
     1
102
RTVSPost2010Prop44ColorIndex
 90
        5
102
RTVSPost2010Prop44ColorRGB
 90
      255
102
RTVSPost2010PropOp44
 70
     1
102
RTVSPost2010Prop45
280
     0
102
RTVSPost2010PropOp45
 70
     1
102
RTVSPost2010Prop46
 90
       50
102
RTVSPost2010PropOp46
 70
     1
102
RTVSPost2010Prop47
 90
       50
102
RTVSPost2010PropOp47
 70
     1
102
RTVSPost2010Prop48
 90
       50
102
RTVSPost2010PropOp48
 70
     1
102
RTVSPost2010Prop49
280
     0
102
RTVSPost2010PropOp49
 70
     1
102
RTVSPost2010Prop50
 90
       50
102
RTVSPost2010PropOp50
 70
     1
102
RTVSPost2010Prop51ColorIndex
 90
      256
102
RTVSPost2010Prop51ColorRGB
 90
-16777216
102
RTVSPost2010PropOp51
 70
     0
102
RTVSPost2010Prop52
140
1.0
102
RTVSPost2010PropOp52
 70
     0
102
RTVSPost2010Prop53
 90
        2
102
RTVSPost2010PropOp53
 70
     1
102
RTVSPost2010Prop54
  1
strokes_ogs.tif
102
RTVSPost2010PropOp54
 70
     1
102
RTVSPost2010Prop55
280
     0
102
RTVSPost2010PropOp55
 70
     1
102
RTVSPost2010Prop56
140
1.0
102
RTVSPost2010PropOp56
 70
     1
102
RTVSPost2010Prop57
140
1.0
102
RTVSPost2010PropOp57
 70
     1
102
RTVSPropertyOp0
 70
     1
102
RTVSPropertyOp1
 70
     1
102
RTVSPropertyOp2
 70
     1
102
RTVSPropertyOp3
 70
     1
102
RTVSPropertyOp4
 70
     1
102
RTVSPropertyOp5
 70
     1
102
RTVSPropertyOp6
 70
     1
102
RTVSPropertyOp7
 70
     1
102
RTVSPropertyOp8
 70
     1
102
RTVSPropertyOp9
 70
     1
102
RTVSPropertyOp10
 70
     1
102
RTVSPropertyOp11
 70
     1
102
RTVSPropertyOp12
 70
     1
102
RTVSPropertyOp13
 70
     1
102
RTVSPropertyOp14
 70
     1
102
RTVSPropertyOp15
 70
     1
102
RTVSPropertyOp16
 70
     1
102
RTVSPropertyOp17
 70
     1
102
RTVSPropertyOp18
 70
     1
102
RTVSPropertyOp19
 70
     1
102
RTVSPropertyOp20
 70
     1
102
RTVSPropertyOp21
 70
     1
102
RTVSPropertyOp22
 70
     1
102
RTVSPropertyOp23
 70
     1
102
RTVSPropertyOp24
 70
     1
102
RTVSPropertyOp25
 70
     1
102
RTVSPropertyOp26
 70
     1
102
RTVSPropertyOp27
 70
     1
102
RTVSPropertyOp28
 70
     1
102
RTVSPropertyOp29
 70
     1
102
RTVSPropertyOp30
 70
     1
102
RTVSPropertyOp31
 70
     1
102
RTVSPropertyOp32
 70
     1
102
RTVSPropertyOp33
 70
     1
102
RTVSPropertyOp34
 70
     1
102
RTVSPropertyOp35
 70
     1
102
RTVSPropertyOp36
 70
     1
102
RTVSPropertyOp37
 70
     1
102
RTVSPropertyOp38
 70
     1
102
RTVSPropertyOp39
 70
     1
102
RTVSPropertyOp40
 70
     1
102
RTVSPropertyOp41
 70
     1
102
RTVSPropertyOp42
 70
     1
102
RTVSPropertyOp43
 70
     1
102
RTVSPropertyOp44
 70
     1
102
RTVSPropertyOp45
 70
     1
102
RTVSPropertyOp46
 70
     1
102
RTVSPropertyOp47
 70
     1
102
RTVSPropertyOp48
 70
     1
102
RTVSPropertyOp49
 70
     1
102
RTVSPropertyOp50
 70
     1
102
RTVSPropertyOp51
 70
     0
102
RTVSPropertyOp52
 70
     0
102
RTVSPropertyOp53
 70
     1
102
RTVSPropertyOp54
 70
     1
102
RTVSPropertyOp55
 70
     1
102
RTVSPropertyOp56
 70
     1
102
RTVSPropertyOp57
 70
     1
102
RTVSPropertyOp58
 70
     1
102
RTVSPropertyOp59
 70
     1
102
RTVSPropertyOp60
 70
     1
102
RTVSPropertyOp61
 70
     1
102
RTVSPropertyOp62
 70
     1
  0
ENDSEC
  0
EOF
