  0
SECTION
  2
HEADER
  9
$ACADVER
  1
AC1015
  9
$ACADMAINTVER
 70
    20
  9
$DWGCODEPAGE
  3
ANSI_932
  9
$INSBASE
 10
0.0
 20
0.0
 30
0.0
  9
$EXTMIN
 10
5.499996999999998
 20
9.999999999999998
 30
0.0
  9
$EXTMAX
 10
307.047562
 20
329.76474
 30
0.0
  9
$LIMMIN
 10
0.0
 20
0.0
  9
$LIMMAX
 10
495.0
 20
341.25
  9
$ORTHOMODE
 70
     1
  9
$REGENMODE
 70
     1
  9
$FILLMODE
 70
     1
  9
$QTEXTMODE
 70
     0
  9
$MIRRTEXT
 70
     1
  9
$LTSCALE
 40
20.0
  9
$ATTMODE
 70
     1
  9
$TEXTSIZE
 40
5.0
  9
$TRACEWID
 40
1.0
  9
$TEXTSTYLE
  7
STANDARD
  9
$CLAYER
  8
0
  9
$CELTYPE
  6
BYLAYER
  9
$CECOLOR
 62
   256
  9
$CELTSCALE
 40
1.0
  9
$DISPSILH
 70
     0
  9
$DIMSCALE
 40
1.0
  9
$DIMASZ
 40
3.0
  9
$DIMEXO
 40
1.0
  9
$DIMDLI
 40
10.0
  9
$DIMRND
 40
0.0
  9
$DIMDLE
 40
0.0
  9
$DIMEXE
 40
1.0
  9
$DIMTP
 40
0.0
  9
$DIMTM
 40
0.0
  9
$DIMTXT
 40
3.2
  9
$DIMCEN
 40
0.0
  9
$DIMTSZ
 40
0.0
  9
$DIMTOL
 70
     0
  9
$DIMLIM
 70
     0
  9
$DIMTIH
 70
     0
  9
$DIMTOH
 70
     0
  9
$DIMSE1
 70
     0
  9
$DIMSE2
 70
     0
  9
$DIMTAD
 70
     3
  9
$DIMZIN
 70
     8
  9
$DIMBLK
  1

  9
$DIMASO
 70
     1
  9
$DIMSHO
 70
     1
  9
$DIMPOST
  1

  9
$DIMAPOST
  1

  9
$DIMALT
 70
     0
  9
$DIMALTD
 70
     2
  9
$DIMALTF
 40
25.4
  9
$DIMLFAC
 40
1.0
  9
$DIMTOFL
 70
     1
  9
$DIMTVP
 40
0.0
  9
$DIMTIX
 70
     0
  9
$DIMSOXD
 70
     0
  9
$DIMSAH
 70
     1
  9
$DIMBLK1
  1

  9
$DIMBLK2
  1

  9
$DIMSTYLE
  2
STANDARD
  9
$DIMCLRD
 70
     0
  9
$DIMCLRE
 70
     0
  9
$DIMCLRT
 70
     0
  9
$DIMTFAC
 40
1.0
  9
$DIMGAP
 40
1.0
  9
$DIMJUST
 70
     0
  9
$DIMSD1
 70
     0
  9
$DIMSD2
 70
     0
  9
$DIMTOLJ
 70
     1
  9
$DIMTZIN
 70
     0
  9
$DIMALTZ
 70
     0
  9
$DIMALTTZ
 70
     0
  9
$DIMUPT
 70
     0
  9
$DIMDEC
 70
     4
  9
$DIMTDEC
 70
     4
  9
$DIMALTU
 70
     2
  9
$DIMALTTD
 70
     2
  9
$DIMTXSTY
  7
STANDARD
  9
$DIMAUNIT
 70
     0
  9
$DIMADEC
 70
     0
  9
$DIMALTRND
 40
0.0
  9
$DIMAZIN
 70
     0
  9
$DIMDSEP
 70
    46
  9
$DIMATFIT
 70
     3
  9
$DIMFRAC
 70
     0
  9
$DIMLDRBLK
  1

  9
$DIMLUNIT
 70
     2
  9
$DIMLWD
 70
    -2
  9
$DIMLWE
 70
    -2
  9
$DIMTMOVE
 70
     0
  9
$LUNITS
 70
     2
  9
$LUPREC
 70
     4
  9
$SKETCHINC
 40
1.0
  9
$FILLETRAD
 40
0.0
  9
$AUNITS
 70
     0
  9
$AUPREC
 70
     2
  9
$MENU
  1
.
  9
$ELEVATION
 40
0.0
  9
$PELEVATION
 40
0.0
  9
$THICKNESS
 40
0.0
  9
$LIMCHECK
 70
     0
  9
$CHAMFERA
 40
10.0
  9
$CHAMFERB
 40
10.0
  9
$CHAMFERC
 40
0.0
  9
$CHAMFERD
 40
0.0
  9
$SKPOLY
 70
     0
  9
$TDCREATE
 40
2451073.575598727
  9
$TDUCREATE
 40
2451073.200598727
  9
$TDUPDATE
 40
2457192.622589849
  9
$TDUUPDATE
 40
2457192.247589849
  9
$TDINDWG
 40
0.0000146759
  9
$TDUSRTIMER
 40
0.0000141667
  9
$USRTIMER
 70
     1
  9
$ANGBASE
 50
0.0
  9
$ANGDIR
 70
     0
  9
$PDMODE
 70
     0
  9
$PDSIZE
 40
0.0
  9
$PLINEWID
 40
0.0
  9
$SPLFRAME
 70
     0
  9
$SPLINETYPE
 70
     6
  9
$SPLINESEGS
 70
     8
  9
$HANDSEED
  5
A2BE
  9
$SURFTAB1
 70
     6
  9
$SURFTAB2
 70
     6
  9
$SURFTYPE
 70
     6
  9
$SURFU
 70
     6
  9
$SURFV
 70
     6
  9
$UCSBASE
  2

  9
$UCSNAME
  2

  9
$UCSORG
 10
0.0
 20
0.0
 30
0.0
  9
$UCSXDIR
 10
1.0
 20
0.0
 30
0.0
  9
$UCSYDIR
 10
0.0
 20
1.0
 30
0.0
  9
$UCSORTHOREF
  2

  9
$UCSORTHOVIEW
 70
     0
  9
$UCSORGTOP
 10
0.0
 20
0.0
 30
0.0
  9
$UCSORGBOTTOM
 10
0.0
 20
0.0
 30
0.0
  9
$UCSORGLEFT
 10
0.0
 20
0.0
 30
0.0
  9
$UCSORGRIGHT
 10
0.0
 20
0.0
 30
0.0
  9
$UCSORGFRONT
 10
0.0
 20
0.0
 30
0.0
  9
$UCSORGBACK
 10
0.0
 20
0.0
 30
0.0
  9
$PUCSBASE
  2

  9
$PUCSNAME
  2

  9
$PUCSORG
 10
0.0
 20
0.0
 30
0.0
  9
$PUCSXDIR
 10
1.0
 20
0.0
 30
0.0
  9
$PUCSYDIR
 10
0.0
 20
1.0
 30
0.0
  9
$PUCSORTHOREF
  2

  9
$PUCSORTHOVIEW
 70
     0
  9
$PUCSORGTOP
 10
0.0
 20
0.0
 30
0.0
  9
$PUCSORGBOTTOM
 10
0.0
 20
0.0
 30
0.0
  9
$PUCSORGLEFT
 10
0.0
 20
0.0
 30
0.0
  9
$PUCSORGRIGHT
 10
0.0
 20
0.0
 30
0.0
  9
$PUCSORGFRONT
 10
0.0
 20
0.0
 30
0.0
  9
$PUCSORGBACK
 10
0.0
 20
0.0
 30
0.0
  9
$USERI1
 70
     0
  9
$USERI2
 70
     0
  9
$USERI3
 70
     0
  9
$USERI4
 70
     0
  9
$USERI5
 70
     0
  9
$USERR1
 40
0.0
  9
$USERR2
 40
0.0
  9
$USERR3
 40
0.0
  9
$USERR4
 40
0.0
  9
$USERR5
 40
0.0
  9
$WORLDVIEW
 70
     1
  9
$SHADEDGE
 70
     3
  9
$SHADEDIF
 70
    70
  9
$TILEMODE
 70
     1
  9
$MAXACTVP
 70
    16
  9
$PINSBASE
 10
0.0
 20
0.0
 30
0.0
  9
$PLIMCHECK
 70
     0
  9
$PEXTMIN
 10
1.000000000000000E+20
 20
1.000000000000000E+20
 30
1.000000000000000E+20
  9
$PEXTMAX
 10
-1.000000000000000E+20
 20
-1.000000000000000E+20
 30
-1.000000000000000E+20
  9
$PLIMMIN
 10
0.0
 20
0.0
  9
$PLIMMAX
 10
420.0
 20
297.0
  9
$UNITMODE
 70
     0
  9
$VISRETAIN
 70
     0
  9
$PLINEGEN
 70
     0
  9
$PSLTSCALE
 70
     0
  9
$TREEDEPTH
 70
  3020
  9
$CMLSTYLE
  2
STANDARD
  9
$CMLJUST
 70
     0
  9
$CMLSCALE
 40
1.0
  9
$PROXYGRAPHICS
 70
     1
  9
$MEASUREMENT
 70
     0
  9
$CELWEIGHT
370
    -1
  9
$ENDCAPS
280
     0
  9
$JOINSTYLE
280
     0
  9
$LWDISPLAY
290
     0
  9
$INSUNITS
 70
     0
  9
$HYPERLINKBASE
  1

  9
$STYLESHEET
  1

  9
$XEDIT
290
     1
  9
$CEPSNTYPE
380
     0
  9
$PSTYLEMODE
290
     1
  9
$FINGERPRINTGUID
  2
{6402D7A3-7BC9-4F7A-8ECA-F21D0694ABA2}
  9
$VERSIONGUID
  2
{9FD62213-6164-416C-B132-145905C9F642}
  9
$EXTNAMES
290
     1
  9
$PSVPSCALE
 40
0.0
  9
$OLESTARTUP
290
     0
  0
ENDSEC
  0
SECTION
  2
CLASSES
  0
CLASS
  1
ACDBDICTIONARYWDFLT
  2
AcDbDictionaryWithDefault
  3
ObjectDBX Classes
 90
        0
280
     0
281
     0
  0
CLASS
  1
ACDBPLACEHOLDER
  2
AcDbPlaceHolder
  3
ObjectDBX Classes
 90
        0
280
     0
281
     0
  0
CLASS
  1
LAYOUT
  2
AcDbLayout
  3
ObjectDBX Classes
 90
        0
280
     0
281
     0
  0
CLASS
  1
DICTIONARYVAR
  2
AcDbDictionaryVar
  3
ObjectDBX Classes
 90
        0
280
     0
281
     0
  0
CLASS
  1
MATERIAL
  2
AcDbMaterial
  3
ObjectDBX Classes
 90
     1153
280
     0
281
     0
  0
CLASS
  1
VISUALSTYLE
  2
AcDbVisualStyle
  3
ObjectDBX Classes
 90
     4095
280
     0
281
     0
  0
CLASS
  1
TABLESTYLE
  2
AcDbTableStyle
  3
ObjectDBX Classes
 90
     4095
280
     0
281
     0
  0
CLASS
  1
SCALE
  2
AcDbScale
  3
ObjectDBX Classes
 90
     1153
280
     0
281
     0
  0
CLASS
  1
MLEADERSTYLE
  2
AcDbMLeaderStyle
  3
ACDB_MLEADERSTYLE_CLASS
 90
     4095
280
     0
281
     0
  0
CLASS
  1
ACDBSECTIONVIEWSTYLE
  2
AcDbSectionViewStyle
  3
ObjectDBX Classes
 90
     1025
280
     0
281
     0
  0
CLASS
  1
ACDBDETAILVIEWSTYLE
  2
AcDbDetailViewStyle
  3
ObjectDBX Classes
 90
     1025
280
     0
281
     0
  0
CLASS
  1
CELLSTYLEMAP
  2
AcDbCellStyleMap
  3
ObjectDBX Classes
 90
     1152
280
     0
281
     0
  0
ENDSEC
  0
SECTION
  2
TABLES
  0
TABLE
  2
VPORT
  5
A030
330
0
100
AcDbSymbolTable
 70
     1
  0
VPORT
  5
A207
330
A030
100
AcDbSymbolTableRecord
100
AcDbViewportTableRecord
  2
*ACTIVE
 70
     0
 10
0.0
 20
0.0
 11
1.0
 21
1.0
 12
253.1365637876362
 22
169.8829944917908
 13
0.0
 23
0.0
 14
10.0
 24
10.0
 15
10.0
 25
10.0
 16
0.0
 26
0.0
 36
1.0
 17
0.0
 27
0.0
 37
0.0
 40
323.3683823569883
 41
1.899603698811096
 42
50.0
 43
0.0
 44
0.0
 50
0.0
 51
0.0
 71
     0
 72
   100
 73
     1
 74
     0
 75
     0
 76
     0
 77
     0
 78
     0
281
     0
 65
     1
110
0.0
120
0.0
130
0.0
111
1.0
121
0.0
131
0.0
112
0.0
122
1.0
132
0.0
 79
     0
146
0.0
1001
ACAD_NAV_VCDISPLAY
1070
     3
  0
ENDTAB
  0
TABLE
  2
LTYPE
  5
A02D
330
0
100
AcDbSymbolTable
 70
     4
  0
LTYPE
  5
A03B
330
A02D
100
AcDbSymbolTableRecord
100
AcDbLinetypeTableRecord
  2
BYBLOCK
 70
     0
  3

 72
    65
 73
     0
 40
0.0
  0
LTYPE
  5
A03C
330
A02D
100
AcDbSymbolTableRecord
100
AcDbLinetypeTableRecord
  2
BYLAYER
 70
     0
  3

 72
    65
 73
     0
 40
0.0
  0
LTYPE
  5
A03D
330
A02D
100
AcDbSymbolTableRecord
100
AcDbLinetypeTableRecord
  2
CONTINUOUS
 70
     0
  3
Solid line
 72
    65
 73
     0
 40
0.0
  0
LTYPE
  5
A04B
330
A02D
100
AcDbSymbolTableRecord
100
AcDbLinetypeTableRecord
  2
DASHED
 70
     0
  3
__ __ __ __ __ __ __ __ __ __ __ __ __ __ __ __
 72
    65
 73
     2
 40
0.75
 49
0.5
 74
     0
 49
-0.25
 74
     0
  0
LTYPE
  5
A04C
330
A02D
100
AcDbSymbolTableRecord
100
AcDbLinetypeTableRecord
  2
CENTER
 70
     0
  3
____ _ ____ _ ____ _ ____ _ ____ _ ____ _ ____ 
 72
    65
 73
     4
 40
2.0
 49
1.25
 74
     0
 49
-0.25
 74
     0
 49
0.25
 74
     0
 49
-0.25
 74
     0
  0
LTYPE
  5
A04D
330
A02D
100
AcDbSymbolTableRecord
100
AcDbLinetypeTableRecord
  2
PHANTOM
 70
     0
  3
______  __  __  ______  __  __  ______  __  __ 
 72
    65
 73
     6
 40
2.5
 49
1.25
 74
     0
 49
-0.25
 74
     0
 49
0.25
 74
     0
 49
-0.25
 74
     0
 49
0.25
 74
     0
 49
-0.25
 74
     0
  0
ENDTAB
  0
TABLE
  2
LAYER
  5
A02A
330
0
100
AcDbSymbolTable
 70
     8
  0
LAYER
  5
A038
102
{ACAD_XDICTIONARY
360
A262
102
}
330
A02A
100
AcDbSymbolTableRecord
100
AcDbLayerTableRecord
  2
0
 70
     0
 62
     7
  6
CONTINUOUS
370
    -3
390
A210
  0
LAYER
  5
A04E
102
{ACAD_XDICTIONARY
360
A264
102
}
330
A02A
100
AcDbSymbolTableRecord
100
AcDbLayerTableRecord
  2
4
 70
     0
 62
     1
  6
CENTER
370
    -3
390
A210
  0
LAYER
  5
A04F
102
{ACAD_XDICTIONARY
360
A266
102
}
330
A02A
100
AcDbSymbolTableRecord
100
AcDbLayerTableRecord
  2
5
 70
     0
 62
     6
  6
PHANTOM
370
    -3
390
A210
  0
LAYER
  5
A050
102
{ACAD_XDICTIONARY
360
A268
102
}
330
A02A
100
AcDbSymbolTableRecord
100
AcDbLayerTableRecord
  2
1
 70
     0
 62
     7
  6
CONTINUOUS
370
    -3
390
A210
  0
LAYER
  5
A051
102
{ACAD_XDICTIONARY
360
A26A
102
}
330
A02A
100
AcDbSymbolTableRecord
100
AcDbLayerTableRecord
  2
2
 70
     0
 62
     4
  6
CONTINUOUS
370
    -3
390
A210
  0
LAYER
  5
A052
102
{ACAD_XDICTIONARY
360
A26C
102
}
330
A02A
100
AcDbSymbolTableRecord
100
AcDbLayerTableRecord
  2
3
 70
     0
 62
     2
  6
DASHED
370
    -3
390
A210
  0
LAYER
  5
A053
102
{ACAD_XDICTIONARY
360
A26E
102
}
330
A02A
100
AcDbSymbolTableRecord
100
AcDbLayerTableRecord
  2
6
 70
     0
 62
     5
  6
CONTINUOUS
370
    -3
390
A210
  0
LAYER
  5
A054
102
{ACAD_XDICTIONARY
360
A270
102
}
330
A02A
100
AcDbSymbolTableRecord
100
AcDbLayerTableRecord
  2
7
 70
     0
 62
     3
  6
CONTINUOUS
370
    -3
390
A210
  0
ENDTAB
  0
TABLE
  2
STYLE
  5
A02B
330
0
100
AcDbSymbolTable
 70
     1
  0
STYLE
  5
A039
330
A02B
100
AcDbSymbolTableRecord
100
AcDbTextStyleTableRecord
  2
STANDARD
 70
     0
 40
0.0
 41
1.0
 50
0.0
 71
     0
 42
5.0
  3
txt
  4

  0
ENDTAB
  0
TABLE
  2
VIEW
  5
A02E
330
0
100
AcDbSymbolTable
 70
     0
  0
ENDTAB
  0
TABLE
  2
UCS
  5
A02F
330
0
100
AcDbSymbolTable
 70
     0
  0
ENDTAB
  0
TABLE
  2
APPID
  5
A031
330
0
100
AcDbSymbolTable
 70
     3
  0
APPID
  5
A03A
330
A031
100
AcDbSymbolTableRecord
100
AcDbRegAppTableRecord
  2
ACAD
 70
     0
  0
APPID
  5
A27C
330
A031
100
AcDbSymbolTableRecord
100
AcDbRegAppTableRecord
  2
ACAD_NAV_VCDISPLAY
 70
     0
  0
APPID
  5
A2B5
330
A031
100
AcDbSymbolTableRecord
100
AcDbRegAppTableRecord
  2
ACAD_MLEADERVER
 70
     0
  0
ENDTAB
  0
TABLE
  2
DIMSTYLE
  5
A032
330
0
100
AcDbSymbolTable
 70
     1
100
AcDbDimStyleTable
 71
     0
  0
DIMSTYLE
105
A056
330
A032
100
AcDbSymbolTableRecord
100
AcDbDimStyleTableRecord
  2
STANDARD
 70
     0
 41
3.0
 42
1.0
 43
10.0
 44
1.0
 73
     0
 74
     0
 77
     3
 78
     8
140
3.2
141
0.0
147
1.0
172
     1
173
     1
284
     8
285
     8
286
     8
340
A039
  0
ENDTAB
  0
TABLE
  2
BLOCK_RECORD
  5
A029
330
0
100
AcDbSymbolTable
 70
     0
  0
BLOCK_RECORD
  5
A046
102
{ACAD_XDICTIONARY
360
A20A
102
}
330
A029
100
AcDbSymbolTableRecord
100
AcDbBlockTableRecord
  2
*MODEL_SPACE
340
A25E
  0
BLOCK_RECORD
  5
A042
102
{ACAD_XDICTIONARY
360
A208
102
}
330
A029
100
AcDbSymbolTableRecord
100
AcDbBlockTableRecord
  2
*PAPER_SPACE
340
A25F
  0
ENDTAB
  0
ENDSEC
  0
SECTION
  2
BLOCKS
  0
BLOCK
  5
A047
330
A046
100
AcDbEntity
  8
0
100
AcDbBlockBegin
  2
*MODEL_SPACE
 70
     0
 10
0.0
 20
0.0
 30
0.0
  3
*MODEL_SPACE
  1

  0
ENDBLK
  5
A048
330
A046
100
AcDbEntity
  8
0
100
AcDbBlockEnd
  0
BLOCK
  5
A043
330
A042
100
AcDbEntity
 67
     1
  8
0
100
AcDbBlockBegin
  2
*PAPER_SPACE
 70
     0
 10
0.0
 20
0.0
 30
0.0
  3
*PAPER_SPACE
  1

  0
ENDBLK
  5
A044
330
A042
100
AcDbEntity
 67
     1
  8
0
100
AcDbBlockEnd
  0
ENDSEC
  0
SECTION
  2
ENTITIES
  0
LINE
  5
A05E
330
A046
100
AcDbEntity
  8
1
  6
Continuous
100
AcDbLine
 10
122.649109
 20
254.9641109999999
 30
0.0
 11
122.649109
 21
166.382355
 31
0.0
  0
LINE
  5
A05F
330
A046
100
AcDbEntity
  8
1
  6
Continuous
100
AcDbLine
 10
121.04911
 20
254.9641109999999
 30
0.0
 11
121.04911
 21
166.382355
 31
0.0
  0
LINE
  5
A060
330
A046
100
AcDbEntity
  8
1
  6
Continuous
100
AcDbLine
 10
121.04911
 20
166.382355
 30
0.0
 11
122.649109
 21
166.382355
 31
0.0
  0
LINE
  5
A061
330
A046
100
AcDbEntity
  8
1
  6
Continuous
100
AcDbLine
 10
120.749107
 20
182.8823549999999
 30
0.0
 11
120.749107
 21
166.8823549999999
 31
0.0
  0
LINE
  5
A062
330
A046
100
AcDbEntity
  8
1
  6
Continuous
100
AcDbLine
 10
120.749107
 20
166.8823549999999
 30
0.0
 11
121.04911
 21
166.8823549999999
 31
0.0
  0
LINE
  5
A063
330
A046
100
AcDbEntity
  8
1
  6
Continuous
100
AcDbLine
 10
120.749107
 20
182.8823549999999
 30
0.0
 11
121.04911
 21
182.8823549999999
 31
0.0
  0
LINE
  5
A064
330
A046
100
AcDbEntity
  8
1
  6
Continuous
100
AcDbLine
 10
115.3491129999999
 20
104.9641269999999
 30
0.0
 11
116.949112
 21
104.9641269999999
 31
0.0
  0
LINE
  5
A065
330
A046
100
AcDbEntity
  8
1
  6
Continuous
100
AcDbLine
 10
106.7491149999999
 20
93.964127
 30
0.0
 11
115.3491129999999
 21
93.964127
 31
0.0
  0
LINE
  5
A066
330
A046
100
AcDbEntity
  8
1
  6
Continuous
100
AcDbLine
 10
106.7491149999999
 20
92.36411999999999
 30
0.0
 11
115.3491129999999
 21
92.36411999999999
 31
0.0
  0
LINE
  5
A067
330
A046
100
AcDbEntity
  8
1
  6
Continuous
100
AcDbLine
 10
117.449112
 20
95.072662
 30
0.0
 11
117.449112
 21
183.720704
 31
0.0
  0
LINE
  5
A068
330
A046
100
AcDbEntity
  8
1
  6
Continuous
100
AcDbLine
 10
119.0491179999998
 20
95.072662
 30
0.0
 11
119.0491179999998
 21
184.516581
 31
0.0
  0
LINE
  5
A069
330
A046
100
AcDbEntity
  8
1
  6
Continuous
100
AcDbLine
 10
119.04911
 20
95.07267799999999
 30
0.0
 11
117.449112
 21
95.07267799999999
 31
0.0
  0
LINE
  5
A06A
330
A046
100
AcDbEntity
  8
1
  6
Continuous
100
AcDbLine
 10
116.949112
 20
93.964127
 30
0.0
 11
116.949112
 21
104.9641269999999
 31
0.0
  0
LINE
  5
A06B
330
A046
100
AcDbEntity
  8
1
  6
Continuous
100
AcDbLine
 10
115.3491129999999
 20
92.36411999999999
 30
0.0
 11
115.3491129999999
 21
104.9641269999999
 31
0.0
  0
LINE
  5
A06C
330
A046
100
AcDbEntity
  8
1
  6
Continuous
100
AcDbLine
 10
113.849113
 20
103.463989
 30
0.0
 11
115.3491129999999
 21
103.463989
 31
0.0
  0
LINE
  5
A06D
330
A046
100
AcDbEntity
  8
1
  6
Continuous
100
AcDbLine
 10
113.849113
 20
96.46398900000001
 30
0.0
 11
113.849113
 21
103.463989
 31
0.0
  0
LINE
  5
A06E
330
A046
100
AcDbEntity
  8
1
  6
Continuous
100
AcDbLine
 10
113.849113
 20
96.46398900000001
 30
0.0
 11
115.3491129999999
 21
96.46398900000001
 31
0.0
  0
LINE
  5
A06F
330
A046
100
AcDbEntity
  8
1
  6
Continuous
100
AcDbLine
 10
116.949112
 20
95.964127
 30
0.0
 11
117.44912
 21
95.964127
 31
0.0
  0
LINE
  5
A070
330
A046
100
AcDbEntity
  8
1
  6
Continuous
100
AcDbLine
 10
116.949112
 20
103.964127
 30
0.0
 11
117.44912
 21
103.964127
 31
0.0
  0
LINE
  5
A071
330
A046
100
AcDbEntity
  8
4
  6
CENTER
100
AcDbLine
 10
111.04911
 20
89.36412
 30
0.0
 11
111.04911
 21
96.96412700000001
 31
0.0
  0
LINE
  5
A072
330
A046
100
AcDbEntity
  8
1
  6
Continuous
100
AcDbLine
 10
106.7491149999999
 20
92.36411999999999
 30
0.0
 11
106.7491149999999
 21
93.964127
 31
0.0
  0
LINE
  5
A073
330
A046
100
AcDbEntity
  8
4
  6
CENTER
100
AcDbLine
 10
111.04911
 20
99.964127
 30
0.0
 11
123.04911
 21
99.964127
 31
0.0
  0
LINE
  5
A074
330
A046
100
AcDbEntity
  8
1
  6
Continuous
100
AcDbLine
 10
119.049133
 20
101.964165
 30
0.0
 11
120.049133
 21
101.4641649999999
 31
0.0
  0
LINE
  5
A075
330
A046
100
AcDbEntity
  8
1
  6
Continuous
100
AcDbLine
 10
120.0491179999998
 20
98.46412700000001
 30
0.0
 11
120.0491179999998
 21
101.464127
 31
0.0
  0
LINE
  5
A076
330
A046
100
AcDbEntity
  8
1
  6
Continuous
100
AcDbLine
 10
119.04911
 20
97.964134
 30
0.0
 11
120.0491179999998
 21
98.46414199999999
 31
0.0
  0
LINE
  5
A077
330
A046
100
AcDbEntity
  8
4
  6
CENTER
100
AcDbLine
 10
202.9477689999999
 20
260.964111
 30
0.0
 11
202.9477689999999
 21
238.9641109999999
 31
0.0
  0
LINE
  5
A078
330
A046
100
AcDbEntity
  8
4
  6
CENTER
100
AcDbLine
 10
218.9478139999999
 20
249.9641109999998
 30
0.0
 11
186.947814
 21
249.9641109999998
 31
0.0
  0
LINE
  5
A079
330
A046
100
AcDbEntity
  8
4
  6
CENTER
100
AcDbLine
 10
212.9477529999999
 20
255.9641109999998
 30
0.0
 11
212.9477529999999
 21
243.9641109999998
 31
0.0
  0
LINE
  5
A07A
330
A046
100
AcDbEntity
  8
4
  6
CENTER
100
AcDbLine
 10
192.9477689999999
 20
255.9641109999998
 30
0.0
 11
192.9477689999999
 21
243.9641109999998
 31
0.0
  0
LINE
  5
A07B
330
A046
100
AcDbEntity
  8
1
  6
Continuous
100
AcDbLine
 10
216.9478089999998
 20
93.964066
 30
0.0
 11
216.9478089999998
 21
92.36404400000001
 31
0.0
  0
LINE
  5
A07C
330
A046
100
AcDbEntity
  8
1
  6
Continuous
100
AcDbLine
 10
188.947824
 20
93.96404999999999
 30
0.0
 11
188.947824
 21
92.36402899999999
 31
0.0
  0
LINE
  5
A07D
330
A046
100
AcDbEntity
  8
4
  6
CENTER
100
AcDbLine
 10
212.947794
 20
96.96405
 30
0.0
 11
212.947794
 21
89.364029
 31
0.0
  0
LINE
  5
A07E
330
A046
100
AcDbEntity
  8
4
  6
CENTER
100
AcDbLine
 10
192.947824
 20
96.96405
 30
0.0
 11
192.947824
 21
89.36404399999997
 31
0.0
  0
LINE
  5
A07F
330
A046
100
AcDbEntity
  8
1
  6
Continuous
100
AcDbLine
 10
216.947839
 20
92.36411999999999
 30
0.0
 11
188.9478389999999
 21
92.36411999999999
 31
0.0
  0
LINE
  5
A080
330
A046
100
AcDbEntity
  8
1
  6
Continuous
100
AcDbLine
 10
216.947839
 20
93.96411099999999
 30
0.0
 11
207.947809
 21
93.96411099999999
 31
0.0
  0
LINE
  5
A081
330
A046
100
AcDbEntity
  8
1
  6
Continuous
100
AcDbLine
 10
207.947809
 20
99.96405000000001
 30
0.0
 11
207.947809
 21
92.36411999999999
 31
0.0
  0
LINE
  5
A082
330
A046
100
AcDbEntity
  8
1
  6
Continuous
100
AcDbLine
 10
197.947809
 20
99.730988
 30
0.0
 11
197.947809
 21
92.36411999999999
 31
0.0
  0
LINE
  5
A083
330
A046
100
AcDbEntity
  8
1
  6
Continuous
100
AcDbLine
 10
197.947809
 20
93.96411099999999
 30
0.0
 11
188.947824
 21
93.96411099999999
 31
0.0
  0
LINE
  5
A084
330
A046
100
AcDbEntity
  8
1
  6
Continuous
100
AcDbLine
 10
209.947812
 20
172.943375
 30
0.0
 11
209.947812
 21
176.9848179999999
 31
0.0
  0
LINE
  5
A085
330
A046
100
AcDbEntity
  8
1
  6
Continuous
100
AcDbLine
 10
209.9477959999999
 20
176.984833
 30
0.0
 11
206.4478119999999
 21
179.005554
 31
0.0
  0
LINE
  5
A086
330
A046
100
AcDbEntity
  8
1
  6
Continuous
100
AcDbLine
 10
202.9478269999999
 20
176.9848179999999
 30
0.0
 11
202.9478269999999
 21
172.943375
 31
0.0
  0
LINE
  5
A087
330
A046
100
AcDbEntity
  8
1
  6
Continuous
100
AcDbLine
 10
206.4478119999999
 20
179.005554
 30
0.0
 11
202.9478269999999
 21
176.984833
 31
0.0
  0
LINE
  5
A088
330
A046
100
AcDbEntity
  8
1
  6
Continuous
100
AcDbLine
 10
202.9478119999999
 20
172.943375
 30
0.0
 11
206.4478119999999
 21
170.922653
 31
0.0
  0
LINE
  5
A089
330
A046
100
AcDbEntity
  8
1
  6
Continuous
100
AcDbLine
 10
206.4478269999999
 20
170.922653
 30
0.0
 11
209.947812
 21
172.943375
 31
0.0
  0
LINE
  5
A08A
330
A046
100
AcDbEntity
  8
4
  6
CENTER
100
AcDbLine
 10
282.6475679999999
 20
249.9641109999998
 30
0.0
 11
298.3475799999999
 21
249.9641109999998
 31
0.0
  0
LINE
  5
A08B
330
A046
100
AcDbEntity
  8
1
  6
Continuous
100
AcDbLine
 10
291.1475679999999
 20
254.9641109999999
 30
0.0
 11
291.1475679999999
 21
166.4641109999998
 31
0.0
  0
LINE
  5
A08C
330
A046
100
AcDbEntity
  8
1
  6
Continuous
100
AcDbLine
 10
292.7475739999999
 20
254.9641109999999
 30
0.0
 11
291.1475679999999
 21
254.9641109999999
 31
0.0
  0
LINE
  5
A08D
330
A046
100
AcDbEntity
  8
1
  6
Continuous
100
AcDbLine
 10
291.1475679999999
 20
253.9641109999998
 30
0.0
 11
290.6475679999999
 21
253.9641109999998
 31
0.0
  0
LINE
  5
A08E
330
A046
100
AcDbEntity
  8
1
  6
Continuous
100
AcDbLine
 10
291.1475679999999
 20
245.9641109999998
 30
0.0
 11
290.6475679999999
 21
245.9641109999998
 31
0.0
  0
LINE
  5
A08F
330
A046
100
AcDbEntity
  8
1
  6
Continuous
100
AcDbLine
 10
292.7475739999999
 20
254.9641109999999
 30
0.0
 11
292.7475739999999
 21
184.720704
 31
0.0
  0
LINE
  5
A090
330
A046
100
AcDbEntity
  8
1
  6
Continuous
100
AcDbLine
 10
293.047577
 20
180.531587
 30
0.0
 11
293.047577
 21
166.8823549999999
 31
0.0
  0
LINE
  5
A091
330
A046
100
AcDbEntity
  8
1
  6
Continuous
100
AcDbLine
 10
293.047577
 20
166.8823549999999
 30
0.0
 11
292.7475739999999
 21
166.8823549999999
 31
0.0
  0
LINE
  5
A092
330
A046
100
AcDbEntity
  8
1
  6
Continuous
100
AcDbLine
 10
294.5676569999998
 20
169.814178
 30
0.0
 11
293.047577
 21
168.964111
 31
0.0
  0
LINE
  5
A093
330
A046
100
AcDbEntity
  8
1
  6
Continuous
100
AcDbLine
 10
298.4475709999999
 20
104.9641269999999
 30
0.0
 11
296.8475649999998
 21
104.9641269999999
 31
0.0
  0
LINE
  5
A094
330
A046
100
AcDbEntity
  8
1
  6
Continuous
100
AcDbLine
 10
307.047562
 20
93.964127
 30
0.0
 11
298.4475709999999
 21
93.964127
 31
0.0
  0
LINE
  5
A095
330
A046
100
AcDbEntity
  8
1
  6
Continuous
100
AcDbLine
 10
307.047562
 20
92.36411999999999
 30
0.0
 11
298.4475709999999
 21
92.36411999999999
 31
0.0
  0
LINE
  5
A096
330
A046
100
AcDbEntity
  8
1
  6
Continuous
100
AcDbLine
 10
296.3475649999999
 20
95.072662
 30
0.0
 11
296.3475649999999
 21
184.720704
 31
0.0
  0
LINE
  5
A097
330
A046
100
AcDbEntity
  8
1
  6
Continuous
100
AcDbLine
 10
294.7475589999999
 20
95.072662
 30
0.0
 11
294.7475589999999
 21
180.531587
 31
0.0
  0
LINE
  5
A098
330
A046
100
AcDbEntity
  8
1
  6
Continuous
100
AcDbLine
 10
294.7475739999999
 20
95.07267799999999
 30
0.0
 11
296.3475649999999
 21
95.07267799999999
 31
0.0
  0
LINE
  5
A099
330
A046
100
AcDbEntity
  8
1
  6
Continuous
100
AcDbLine
 10
296.8475649999998
 20
93.964127
 30
0.0
 11
296.8475649999998
 21
104.9641269999999
 31
0.0
  0
LINE
  5
A09A
330
A046
100
AcDbEntity
  8
1
  6
Continuous
100
AcDbLine
 10
298.4475709999999
 20
92.36411999999999
 30
0.0
 11
298.4475709999999
 21
104.9641269999999
 31
0.0
  0
LINE
  5
A09B
330
A046
100
AcDbEntity
  8
1
  6
Continuous
100
AcDbLine
 10
299.947571
 20
103.463989
 30
0.0
 11
298.4475709999999
 21
103.463989
 31
0.0
  0
LINE
  5
A09C
330
A046
100
AcDbEntity
  8
1
  6
Continuous
100
AcDbLine
 10
299.947571
 20
96.46398900000001
 30
0.0
 11
299.947571
 21
103.463989
 31
0.0
  0
LINE
  5
A09D
330
A046
100
AcDbEntity
  8
1
  6
Continuous
100
AcDbLine
 10
299.947571
 20
96.46398900000001
 30
0.0
 11
298.4475709999999
 21
96.46398900000001
 31
0.0
  0
LINE
  5
A09E
330
A046
100
AcDbEntity
  8
1
  6
Continuous
100
AcDbLine
 10
296.8475649999998
 20
95.964127
 30
0.0
 11
296.3475649999999
 21
95.964127
 31
0.0
  0
LINE
  5
A09F
330
A046
100
AcDbEntity
  8
1
  6
Continuous
100
AcDbLine
 10
296.8475649999998
 20
103.964127
 30
0.0
 11
296.3475649999999
 21
103.964127
 31
0.0
  0
LINE
  5
A0A0
330
A046
100
AcDbEntity
  8
4
  6
CENTER
100
AcDbLine
 10
302.7475739999999
 20
89.36412
 30
0.0
 11
302.7475739999999
 21
96.96412700000001
 31
0.0
  0
LINE
  5
A0A1
330
A046
100
AcDbEntity
  8
1
  6
Continuous
100
AcDbLine
 10
307.047562
 20
92.36411999999999
 30
0.0
 11
307.047562
 21
93.964127
 31
0.0
  0
LINE
  5
A0A2
330
A046
100
AcDbEntity
  8
4
  6
CENTER
100
AcDbLine
 10
302.7475739999999
 20
99.964127
 30
0.0
 11
290.7475739999999
 21
99.964127
 31
0.0
  0
LINE
  5
A0A3
330
A046
100
AcDbEntity
  8
1
  6
Continuous
100
AcDbLine
 10
294.747543
 20
101.964165
 30
0.0
 11
293.747543
 21
101.4641649999999
 31
0.0
  0
LINE
  5
A0A4
330
A046
100
AcDbEntity
  8
1
  6
Continuous
100
AcDbLine
 10
293.7475589999999
 20
98.46412700000001
 30
0.0
 11
293.7475589999999
 21
101.464127
 31
0.0
  0
LINE
  5
A0A5
330
A046
100
AcDbEntity
  8
1
  6
Continuous
100
AcDbLine
 10
294.7475739999999
 20
97.964134
 30
0.0
 11
293.7475589999999
 21
98.46414199999999
 31
0.0
  0
LINE
  5
A0A6
330
A046
100
AcDbEntity
  8
4
  6
CENTER
100
AcDbLine
 10
301.3475649999999
 20
174.9641109999998
 30
0.0
 11
285.1475679999999
 21
174.9641109999998
 31
0.0
  0
LINE
  5
A0A7
330
A046
100
AcDbEntity
  8
1
  6
Continuous
100
AcDbLine
 10
288.2475739999999
 20
178.3641049999999
 30
0.0
 11
288.2475739999999
 21
171.5641019999999
 31
0.0
  0
LINE
  5
A0A8
330
A046
100
AcDbEntity
  8
1
  6
Continuous
100
AcDbLine
 10
288.6228489999999
 20
170.914108
 30
0.0
 11
290.2722929999999
 21
170.914108
 31
0.0
  0
LINE
  5
A0A9
330
A046
100
AcDbEntity
  8
1
  6
Continuous
100
AcDbLine
 10
288.6228489999999
 20
179.0141139999998
 30
0.0
 11
290.2722929999999
 21
179.0141139999998
 31
0.0
  0
LINE
  5
A0AA
330
A046
100
AcDbEntity
  8
1
  6
Continuous
100
AcDbLine
 10
288.6228489999999
 20
172.926346
 30
0.0
 11
290.2722929999999
 21
172.926346
 31
0.0
  0
LINE
  5
A0AB
330
A046
100
AcDbEntity
  8
1
  6
Continuous
100
AcDbLine
 10
288.6228489999999
 20
177.001877
 30
0.0
 11
290.2722929999999
 21
177.001877
 31
0.0
  0
LINE
  5
A0AC
330
A046
100
AcDbEntity
  8
1
  6
Continuous
100
AcDbLine
 10
288.2475739999999
 20
178.3641049999999
 30
0.0
 11
288.6228489999999
 21
179.0140989999999
 31
0.0
  0
LINE
  5
A0AD
330
A046
100
AcDbEntity
  8
1
  6
Continuous
100
AcDbLine
 10
288.2475739999999
 20
171.5641019999999
 30
0.0
 11
288.6228489999999
 21
170.914108
 31
0.0
  0
LINE
  5
A0AE
330
A046
100
AcDbEntity
  8
1
  6
Continuous
100
AcDbLine
 10
290.6475679999999
 20
178.3641049999999
 30
0.0
 11
290.2722929999999
 21
179.0141139999998
 31
0.0
  0
LINE
  5
A0AF
330
A046
100
AcDbEntity
  8
1
  6
Continuous
100
AcDbLine
 10
290.6475679999999
 20
171.5641169999998
 30
0.0
 11
290.2722929999999
 21
170.914108
 31
0.0
  0
LINE
  5
A0B0
330
A046
100
AcDbEntity
  8
1
  6
Continuous
100
AcDbLine
 10
287.647568
 20
172.964111
 30
0.0
 11
287.647568
 21
176.964111
 31
0.0
  0
LINE
  5
A0B1
330
A046
100
AcDbEntity
  8
1
  6
Continuous
100
AcDbLine
 10
290.6475679999999
 20
178.9641109999998
 30
0.0
 11
290.6475679999999
 21
170.9641109999998
 31
0.0
  0
LINE
  5
A0B2
330
A046
100
AcDbEntity
  8
1
  6
Continuous
100
AcDbLine
 10
291.1475679999999
 20
178.9641109999998
 30
0.0
 11
290.6475679999999
 21
178.9641109999998
 31
0.0
  0
LINE
  5
A0B3
330
A046
100
AcDbEntity
  8
1
  6
Continuous
100
AcDbLine
 10
291.1475679999999
 20
170.9641109999998
 30
0.0
 11
290.6475679999999
 21
170.9641109999998
 31
0.0
  0
LINE
  5
A0B4
330
A046
100
AcDbEntity
  8
1
  6
Continuous
100
AcDbLine
 10
287.647568
 20
172.964111
 30
0.0
 11
288.2475739999999
 21
172.3641049999999
 31
0.0
  0
LINE
  5
A0B5
330
A046
100
AcDbEntity
  8
1
  6
Continuous
100
AcDbLine
 10
287.647568
 20
176.964111
 30
0.0
 11
288.2475739999999
 21
177.5641019999999
 31
0.0
  0
LINE
  5
A0B6
330
A046
100
AcDbEntity
  8
1
  6
Continuous
100
AcDbLine
 10
294.2475739999999
 20
246.463989
 30
0.0
 11
292.7475739999999
 21
246.463989
 31
0.0
  0
LINE
  5
A0B7
330
A046
100
AcDbEntity
  8
1
  6
Continuous
100
AcDbLine
 10
294.2475739999999
 20
246.463989
 30
0.0
 11
294.2475739999999
 21
253.463989
 31
0.0
  0
LINE
  5
A0B8
330
A046
100
AcDbEntity
  8
1
  6
Continuous
100
AcDbLine
 10
294.2475739999999
 20
253.463989
 30
0.0
 11
292.7475739999999
 21
253.463989
 31
0.0
  0
LINE
  5
A0B9
330
A046
100
AcDbEntity
  8
1
  6
Continuous
100
AcDbLine
 10
297.84758
 20
179.964111
 30
0.0
 11
296.3475649999999
 21
179.964111
 31
0.0
  0
LINE
  5
A0BA
330
A046
100
AcDbEntity
  8
1
  6
Continuous
100
AcDbLine
 10
296.8475649999998
 20
169.9641109999998
 30
0.0
 11
296.8475649999998
 21
179.964111
 31
0.0
  0
LINE
  5
A0BB
330
A046
100
AcDbEntity
  8
1
  6
Continuous
100
AcDbLine
 10
297.8475649999999
 20
169.9641109999998
 30
0.0
 11
297.8475649999999
 21
179.964111
 31
0.0
  0
LINE
  5
A0BC
330
A046
100
AcDbEntity
  8
1
  6
Continuous
100
AcDbLine
 10
298.3475649999999
 20
179.464111
 30
0.0
 11
297.84758
 21
179.964111
 31
0.0
  0
LINE
  5
A0BD
330
A046
100
AcDbEntity
  8
1
  6
Continuous
100
AcDbLine
 10
298.3475649999999
 20
170.464111
 30
0.0
 11
298.3475649999999
 21
179.464111
 31
0.0
  0
LINE
  5
A0BE
330
A046
100
AcDbEntity
  8
1
  6
Continuous
100
AcDbLine
 10
297.8475649999999
 20
169.9641109999998
 30
0.0
 11
296.3475649999999
 21
169.9641109999998
 31
0.0
  0
LINE
  5
A0BF
330
A046
100
AcDbEntity
  8
1
  6
Continuous
100
AcDbLine
 10
298.3475649999999
 20
170.464111
 30
0.0
 11
297.8475649999999
 21
169.9641109999998
 31
0.0
  0
LINE
  5
A0C0
330
A046
100
AcDbEntity
  8
1
  6
Continuous
100
AcDbLine
 10
292.7475739999999
 20
180.531587
 30
0.0
 11
292.7475739999999
 21
166.4641109999998
 31
0.0
  0
LINE
  5
A0C1
330
A046
100
AcDbEntity
  8
1
  6
Continuous
100
AcDbLine
 10
115.349182
 20
318.764709
 30
0.0
 11
115.4490889999999
 21
318.764709
 31
0.0
  0
LINE
  5
A0C2
330
A046
100
AcDbEntity
  8
4
  6
CENTER
100
AcDbLine
 10
101.8601709999998
 20
313.7647089999999
 30
0.0
 11
132.992487
 21
313.7647089999999
 31
0.0
  0
LINE
  5
A0C3
330
A046
100
AcDbEntity
  8
1
  6
Continuous
100
AcDbLine
 10
106.7491149999999
 20
325.316212
 30
0.0
 11
106.7491149999999
 21
302.2132379999998
 31
0.0
  0
LINE
  5
A0C4
330
A046
100
AcDbEntity
  8
1
  6
Continuous
100
AcDbLine
 10
115.349106
 20
325.3161859999999
 30
0.0
 11
115.349106
 21
302.2132639999999
 31
0.0
  0
LINE
  5
A0C5
330
A046
100
AcDbEntity
  8
4
  6
CENTER
100
AcDbLine
 10
111.049103
 20
329.76474
 30
0.0
 11
111.049103
 21
297.76474
 31
0.0
  0
LINE
  5
A0C6
330
A046
100
AcDbEntity
  8
4
  6
CENTER
100
AcDbLine
 10
105.049179
 20
303.764709
 30
0.0
 11
117.049179
 21
303.764709
 31
0.0
  0
LINE
  5
A0C7
330
A046
100
AcDbEntity
  8
1
  6
Continuous
100
AcDbLine
 10
116.949097
 20
322.2647119999999
 30
0.0
 11
116.949097
 21
308.7647089999999
 31
0.0
  0
LINE
  5
A0C8
330
A046
100
AcDbEntity
  8
4
  6
CENTER
100
AcDbLine
 10
105.049179
 20
323.7647089999999
 30
0.0
 11
117.049179
 21
323.7647089999999
 31
0.0
  0
LINE
  5
A0C9
330
A046
100
AcDbEntity
  8
1
  6
Continuous
100
AcDbLine
 10
113.8491059999999
 20
317.2647089999999
 30
0.0
 11
113.8491059999999
 21
310.264709
 31
0.0
  0
LINE
  5
A0CA
330
A046
100
AcDbEntity
  8
1
  6
Continuous
100
AcDbLine
 10
113.8491059999999
 20
317.2647089999999
 30
0.0
 11
115.349106
 21
317.2647089999999
 31
0.0
  0
LINE
  5
A0CB
330
A046
100
AcDbEntity
  8
1
  6
Continuous
100
AcDbLine
 10
113.8491059999999
 20
310.264709
 30
0.0
 11
115.349106
 21
310.264709
 31
0.0
  0
LINE
  5
A0CC
330
A046
100
AcDbEntity
  8
1
  6
Continuous
100
AcDbLine
 10
11.896321
 20
180.735705
 30
0.0
 11
13.484213
 21
180.531587
 31
0.0
  0
LINE
  5
A0CD
330
A046
100
AcDbEntity
  8
1
  6
Continuous
100
AcDbLine
 10
13.037011
 20
174.1716539999999
 30
0.0
 11
20.0
 21
99.72945300000001
 31
0.0
  0
LINE
  5
A0CE
330
A046
100
AcDbEntity
  8
1
  6
Continuous
100
AcDbLine
 10
29.99999000000001
 20
174.964102
 30
0.0
 11
29.99995099999999
 21
99.96411100000001
 31
0.0
  0
LINE
  5
A0CF
330
A046
100
AcDbEntity
  8
4
  6
CENTER
100
AcDbLine
 10
25.00004
 20
260.964111
 30
0.0
 11
25.00004
 21
238.9641109999999
 31
0.0
  0
LINE
  5
A0D0
330
A046
100
AcDbEntity
  8
4
  6
CENTER
100
AcDbLine
 10
8.999992
 20
249.9641109999998
 30
0.0
 11
40.99999799999999
 21
249.9641109999998
 31
0.0
  0
LINE
  5
A0D1
330
A046
100
AcDbEntity
  8
4
  6
CENTER
100
AcDbLine
 10
15.000046
 20
255.9641109999998
 30
0.0
 11
15.000046
 21
243.9641109999998
 31
0.0
  0
LINE
  5
A0D2
330
A046
100
AcDbEntity
  8
4
  6
CENTER
100
AcDbLine
 10
35.000032
 20
255.9641109999998
 30
0.0
 11
35.000032
 21
243.9641109999998
 31
0.0
  0
LINE
  5
A0D3
330
A046
100
AcDbEntity
  8
1
  6
Continuous
100
AcDbLine
 10
10.999992
 20
93.964066
 30
0.0
 11
10.999992
 21
92.36404400000001
 31
0.0
  0
LINE
  5
A0D4
330
A046
100
AcDbEntity
  8
1
  6
Continuous
100
AcDbLine
 10
38.99998499999997
 20
93.96404999999999
 30
0.0
 11
38.99998499999997
 21
92.36402899999999
 31
0.0
  0
LINE
  5
A0D5
330
A046
100
AcDbEntity
  8
4
  6
CENTER
100
AcDbLine
 10
15.00001499999999
 20
96.96405
 30
0.0
 11
15.00001499999999
 21
89.364029
 31
0.0
  0
LINE
  5
A0D6
330
A046
100
AcDbEntity
  8
4
  6
CENTER
100
AcDbLine
 10
34.99998499999998
 20
96.96405
 30
0.0
 11
34.99998499999998
 21
89.36404399999997
 31
0.0
  0
LINE
  5
A0D7
330
A046
100
AcDbEntity
  8
1
  6
Continuous
100
AcDbLine
 10
10.999962
 20
92.36411999999999
 30
0.0
 11
38.999966
 21
92.36411999999999
 31
0.0
  0
LINE
  5
A0D8
330
A046
100
AcDbEntity
  8
1
  6
Continuous
100
AcDbLine
 10
10.999969
 20
93.96411099999999
 30
0.0
 11
38.99998099999999
 21
93.96411099999999
 31
0.0
  0
LINE
  5
A0D9
330
A046
100
AcDbEntity
  8
1
  6
Continuous
100
AcDbLine
 10
20.0
 20
99.96405000000001
 30
0.0
 11
20.0
 21
93.964066
 31
0.0
  0
LINE
  5
A0DA
330
A046
100
AcDbEntity
  8
1
  6
Continuous
100
AcDbLine
 10
30.0
 20
99.96405000000001
 30
0.0
 11
30.0
 21
93.96403499999999
 31
0.0
  0
LINE
  5
A0DB
330
A046
100
AcDbEntity
  8
4
  6
CENTER
100
AcDbLine
 10
16.999969
 20
99.96411100000001
 30
0.0
 11
32.999969
 21
99.96411100000001
 31
0.0
  0
LINE
  5
A0DC
330
A046
100
AcDbEntity
  8
4
  6
CENTER
100
AcDbLine
 10
25.0
 20
107.9640659999999
 30
0.0
 11
25.0
 21
89.36404399999997
 31
0.0
  0
LINE
  5
A0DD
330
A046
100
AcDbEntity
  8
1
  6
Continuous
100
AcDbLine
 10
12.269034
 20
184.720704
 30
0.0
 11
22.58376399999999
 21
183.394747
 31
0.0
  0
LINE
  5
A0DE
330
A046
100
AcDbEntity
  8
1
  6
Continuous
100
AcDbLine
 10
29.99999000000001
 20
249.9641109999998
 30
0.0
 11
29.99999499999999
 21
175.1173879999998
 31
0.0
  0
LINE
  5
A0DF
330
A046
100
AcDbEntity
  8
1
  6
Continuous
100
AcDbLine
 10
20.02175199999999
 20
250.4300669999998
 30
0.0
 11
13.856926
 21
184.516581
 31
0.0
  0
ARC
  5
A0E0
330
A046
100
AcDbEntity
  8
1
  6
Continuous
100
AcDbCircle
 10
115.3491129999999
 20
93.964127
 30
0.0
 40
1.6
100
AcDbArc
 50
269.9999969999999
 51
359.9999819999999
  0
ARC
  5
A0E1
330
A046
100
AcDbEntity
  8
1
  6
Continuous
100
AcDbCircle
 10
206.4478119999999
 20
174.9641109999998
 30
0.0
 40
8.5
100
AcDbArc
 50
187.4178129999999
 51
6.017811
  0
ARC
  5
A0E2
330
A046
100
AcDbEntity
  8
1
  6
Continuous
100
AcDbCircle
 10
212.9478139999999
 20
249.9641109999998
 30
0.0
 40
4.0
100
AcDbArc
 50
313.602805
 51
46.39721199999998
  0
ARC
  5
A0E3
330
A046
100
AcDbEntity
  8
1
  6
Continuous
100
AcDbCircle
 10
202.947814
 20
260.464111
 30
0.0
 40
18.5
100
AcDbArc
 50
226.3971689999999
 51
313.222121
  0
ARC
  5
A0E4
330
A046
100
AcDbEntity
  8
1
  6
Continuous
100
AcDbCircle
 10
192.947799
 20
249.9641109999998
 30
0.0
 40
4.0
100
AcDbArc
 50
133.6027899999999
 51
226.39718
  0
ARC
  5
A0E5
330
A046
100
AcDbEntity
  8
1
  6
Continuous
100
AcDbCircle
 10
202.947814
 20
249.9641109999998
 30
0.0
 40
6.0
100
AcDbArc
 50
359.999927
 51
357.9849129999999
  0
CIRCLE
  5
A0E6
330
A046
100
AcDbEntity
  8
1
  6
Continuous
100
AcDbCircle
 10
192.947799
 20
249.9641109999998
 30
0.0
 40
1.8
  0
CIRCLE
  5
A0E7
330
A046
100
AcDbEntity
  8
1
  6
Continuous
100
AcDbCircle
 10
212.9478139999999
 20
249.9641109999998
 30
0.0
 40
1.8
  0
ARC
  5
A0E8
330
A046
100
AcDbEntity
  8
1
  6
Continuous
100
AcDbCircle
 10
202.947799
 20
239.4641109999998
 30
0.0
 40
18.5
100
AcDbArc
 50
46.39719799999999
 51
133.602803
  0
CIRCLE
  5
A0E9
330
A046
100
AcDbEntity
  8
1
  6
Continuous
100
AcDbCircle
 10
202.947809
 20
99.96411100000001
 30
0.0
 40
1.5
  0
CIRCLE
  5
A0EA
330
A046
100
AcDbEntity
  8
1
  6
Continuous
100
AcDbCircle
 10
202.947809
 20
99.96411100000001
 30
0.0
 40
2.0
  0
CIRCLE
  5
A0EB
330
A046
100
AcDbEntity
  8
1
  6
Continuous
100
AcDbCircle
 10
206.4478119999999
 20
174.9641109999998
 30
0.0
 40
4.0
  0
CIRCLE
  5
A0EC
330
A046
100
AcDbEntity
  8
1
  6
Continuous
100
AcDbCircle
 10
206.4478119999999
 20
174.9641109999998
 30
0.0
 40
3.499998999999998
  0
CIRCLE
  5
A0ED
330
A046
100
AcDbEntity
  8
1
  6
Continuous
100
AcDbCircle
 10
206.4478119999999
 20
174.9641109999998
 30
0.0
 40
2.0
  0
CIRCLE
  5
A0EE
330
A046
100
AcDbEntity
  8
1
  6
Continuous
100
AcDbCircle
 10
206.4478119999999
 20
174.9641109999998
 30
0.0
 40
2.6
  0
CIRCLE
  5
A0EF
330
A046
100
AcDbEntity
  8
1
  6
Continuous
100
AcDbCircle
 10
202.9477689999999
 20
249.9641109999998
 30
0.0
 40
1.5
  0
CIRCLE
  5
A0F0
330
A046
100
AcDbEntity
  8
1
  6
Continuous
100
AcDbCircle
 10
202.9477689999999
 20
249.9641109999998
 30
0.0
 40
2.0
  0
CIRCLE
  5
A0F1
330
A046
100
AcDbEntity
  8
1
  6
Continuous
100
AcDbCircle
 10
202.9477689999999
 20
249.9641109999998
 30
0.0
 40
3.0
  0
ARC
  5
A0F2
330
A046
100
AcDbEntity
  8
1
  6
Continuous
100
AcDbCircle
 10
284.9273679999999
 20
174.9641109999998
 30
0.0
 40
5.720210999999999
100
AcDbArc
 50
339.1305019999999
 51
20.869453
  0
ARC
  5
A0F3
330
A046
100
AcDbEntity
  8
1
  6
Continuous
100
AcDbCircle
 10
289.280212
 20
178.0079959999999
 30
0.0
 40
1.412978
100
AcDbArc
 50
314.597776
 51
345.4022
  0
ARC
  5
A0F4
330
A046
100
AcDbEntity
  8
1
  6
Continuous
100
AcDbCircle
 10
289.280212
 20
171.920227
 30
0.0
 40
1.412978
100
AcDbArc
 50
14.597762
 51
45.40218999999999
  0
ARC
  5
A0F5
330
A046
100
AcDbEntity
  8
1
  6
Continuous
100
AcDbCircle
 10
294.2475739999999
 20
170.1982879999999
 30
0.0
 40
0.5
100
AcDbArc
 50
309.8056129999998
 51
359.9999819999999
  0
ARC
  5
A0F6
330
A046
100
AcDbEntity
  8
1
  6
Continuous
100
AcDbCircle
 10
298.4475709999999
 20
93.964127
 30
0.0
 40
1.6
100
AcDbArc
 50
180.000022
 51
269.9999969999999
  0
ARC
  5
A0F7
330
A046
100
AcDbEntity
  8
1
  6
Continuous
100
AcDbCircle
 10
289.6149439999998
 20
178.0079959999999
 30
0.0
 40
1.412978
100
AcDbArc
 50
194.5977349999998
 51
225.402189
  0
ARC
  5
A0F8
330
A046
100
AcDbEntity
  8
1
  6
Continuous
100
AcDbCircle
 10
293.967789
 20
174.9641109999998
 30
0.0
 40
5.720209999999998
100
AcDbArc
 50
159.1305399999999
 51
200.8694429999999
  0
ARC
  5
A0F9
330
A046
100
AcDbEntity
  8
1
  6
Continuous
100
AcDbCircle
 10
289.614929
 20
171.920227
 30
0.0
 40
1.412978
100
AcDbArc
 50
134.597798
 51
165.4022649999998
  0
CIRCLE
  5
A0FA
330
A046
100
AcDbEntity
  8
1
  6
Continuous
100
AcDbCircle
 10
111.049149
 20
303.76474
 30
0.0
 40
1.649999999999999
  0
CIRCLE
  5
A0FB
330
A046
100
AcDbEntity
  8
1
  6
Continuous
100
AcDbCircle
 10
111.049149
 20
323.7647089999999
 30
0.0
 40
1.649999999999999
  0
CIRCLE
  5
A0FC
330
A046
100
AcDbEntity
  8
1
  6
Continuous
100
AcDbCircle
 10
111.049103
 20
323.7647089999999
 30
0.0
 40
3.0
  0
CIRCLE
  5
A0FD
330
A046
100
AcDbEntity
  8
1
  6
Continuous
100
AcDbCircle
 10
111.049103
 20
303.764709
 30
0.0
 40
3.0
  0
ARC
  5
A0FE
330
A046
100
AcDbEntity
  8
1
  6
Continuous
100
AcDbCircle
 10
21.49999699999999
 20
174.9641109999998
 30
0.0
 40
8.5
100
AcDbArc
 50
359.99997
 51
82.67474099999999
  0
ARC
  5
A0FF
330
A046
100
AcDbEntity
  8
1
  6
Continuous
100
AcDbCircle
 10
24.999994
 20
249.96411
 30
0.0
 40
5.0
100
AcDbArc
 50
0.000011
 51
174.6527519999999
  0
CIRCLE
  5
A100
330
A046
100
AcDbEntity
  8
1
  6
Continuous
100
AcDbCircle
 10
21.49999699999999
 20
174.9641109999998
 30
0.0
 40
5.0
  0
CIRCLE
  5
A101
330
A046
100
AcDbEntity
  8
1
  6
Continuous
100
AcDbCircle
 10
21.49999699999999
 20
174.9641109999998
 30
0.0
 40
4.5
  0
ARC
  5
A102
330
A046
100
AcDbEntity
  8
1
  6
Continuous
100
AcDbCircle
 10
14.999992
 20
249.9641109999998
 30
0.0
 40
4.0
100
AcDbArc
 50
133.6027899999999
 51
226.3971929999999
  0
ARC
  5
A103
330
A046
100
AcDbEntity
  8
1
  6
Continuous
100
AcDbCircle
 10
24.999987
 20
260.464111
 30
0.0
 40
18.5
100
AcDbArc
 50
285.6803629999999
 51
313.6028249999998
  0
ARC
  5
A104
330
A046
100
AcDbEntity
  8
1
  6
Continuous
100
AcDbCircle
 10
35.00000200000001
 20
249.9641109999998
 30
0.0
 40
4.0
100
AcDbArc
 50
313.602819
 51
46.39721199999998
  0
CIRCLE
  5
A105
330
A046
100
AcDbEntity
  8
1
  6
Continuous
100
AcDbCircle
 10
25.000002
 20
249.9641109999998
 30
0.0
 40
3.5
  0
ARC
  5
A106
330
A046
100
AcDbEntity
  8
1
  6
Continuous
100
AcDbCircle
 10
24.999994
 20
249.9641109999998
 30
0.0
 40
6.0
100
AcDbArc
 50
326.442624
 51
208.2140189999999
  0
CIRCLE
  5
A107
330
A046
100
AcDbEntity
  8
1
  6
Continuous
100
AcDbCircle
 10
14.999992
 20
249.9641109999998
 30
0.0
 40
2.799999999999998
  0
CIRCLE
  5
A108
330
A046
100
AcDbEntity
  8
1
  6
Continuous
100
AcDbCircle
 10
35.00000200000001
 20
249.9641109999998
 30
0.0
 40
1.8
  0
ARC
  5
A109
330
A046
100
AcDbEntity
  8
1
  6
Continuous
100
AcDbCircle
 10
24.999987
 20
260.464111
 30
0.0
 40
18.5
100
AcDbArc
 50
226.397197
 51
252.0993859999999
  0
CIRCLE
  5
A10A
330
A046
100
AcDbEntity
  8
1
  6
Continuous
100
AcDbCircle
 10
35.00000200000001
 20
249.9641109999998
 30
0.0
 40
2.799999999999998
  0
CIRCLE
  5
A10B
330
A046
100
AcDbEntity
  8
1
  6
Continuous
100
AcDbCircle
 10
14.999992
 20
249.9641109999998
 30
0.0
 40
1.8
  0
ARC
  5
A10C
330
A046
100
AcDbEntity
  8
1
  6
Continuous
100
AcDbCircle
 10
25.000002
 20
239.4641109999998
 30
0.0
 40
18.5
100
AcDbArc
 50
46.39720199999999
 51
133.602803
  0
CIRCLE
  5
A10D
330
A046
100
AcDbEntity
  8
1
  6
Continuous
100
AcDbCircle
 10
24.999969
 20
99.96405000000001
 30
0.0
 40
3.5
  0
ARC
  5
A10E
330
A046
100
AcDbEntity
  8
1
  6
Continuous
100
AcDbCircle
 10
24.999969
 20
99.96405000000001
 30
0.0
 40
5.0
100
AcDbArc
 50
0.000737
 51
180.0000189999999
  0
ARC
  5
A10F
330
A046
100
AcDbEntity
  8
1
  6
Continuous
100
AcDbCircle
 10
21.49999699999999
 20
174.9641109999998
 30
0.0
 40
8.5
100
AcDbArc
 50
173.9821889999998
 51
185.3494709999999
  0
TEXT
  5
A110
330
A046
100
AcDbEntity
  8
6
  6
Continuous
100
AcDbText
 10
27.97945
 20
10.0487
 30
0.0
 40
1.399999999999999
  1
6
 41
1.069393
100
AcDbText
  0
TEXT
  5
A111
330
A046
100
AcDbEntity
  8
1
  6
Continuous
100
AcDbText
 10
17.97945
 20
10.0487
 30
0.0
 40
1.399999999999999
  1
1
 41
1.069393
100
AcDbText
  0
TEXT
  5
A112
330
A046
100
AcDbEntity
  8
1
  6
Continuous
100
AcDbText
 10
9.99995
 20
10.0
 30
0.0
 40
1.399999999999999
  1
LAYER
 41
1.009912999999997
100
AcDbText
  0
TEXT
  5
A113
330
A046
100
AcDbEntity
  8
2
  6
Continuous
100
AcDbText
 10
19.97944999999998
 20
10.0487
 30
0.0
 40
1.399999999999999
  1
2
 41
1.069393
100
AcDbText
  0
TEXT
  5
A114
330
A046
100
AcDbEntity
  8
3
  6
DASHED
100
AcDbText
 10
21.97945
 20
10.0487
 30
0.0
 40
1.399999999999999
  1
3
 41
1.069393
100
AcDbText
  0
TEXT
  5
A115
330
A046
100
AcDbEntity
  8
4
  6
CENTER
100
AcDbText
 10
23.97944999999999
 20
10.0487
 30
0.0
 40
1.399999999999999
  1
4
 41
1.069393
100
AcDbText
  0
TEXT
  5
A116
330
A046
100
AcDbEntity
  8
5
  6
PHANTOM
100
AcDbText
 10
25.97945
 20
10.0487
 30
0.0
 40
1.399999999999999
  1
5
 41
1.069393
100
AcDbText
  0
TEXT
  5
A117
330
A046
100
AcDbEntity
  8
7
  6
Continuous
100
AcDbText
 10
10.00005
 20
26.0
 30
0.0
 40
3.0
  1
CODE No.5029
 41
1.003962999999999
100
AcDbText
  0
TEXT
  5
A118
330
A046
100
AcDbEntity
  8
7
  6
Continuous
100
AcDbText
 10
10.00005
 20
18.0
 30
0.0
 40
3.0
  1
TYPE No.TM-53-R
 41
1.003152
100
AcDbText
  0
TEXT
  5
A119
330
A046
100
AcDbEntity
  8
7
  6
Continuous
100
AcDbText
 10
29.97944999999999
 20
10.0487
 30
0.0
 40
1.399999999999999
  1
7
 41
1.069393
100
AcDbText
  0
LINE
  5
A11A
330
A046
100
AcDbEntity
  8
4
  6
CENTER
100
AcDbLine
 10
21.49999699999999
 20
187.574586
 30
0.0
 11
21.49999699999999
 21
158.964111
 31
0.0
  0
LINE
  5
A11B
330
A046
100
AcDbEntity
  8
4
  6
CENTER
100
AcDbLine
 10
37.499997
 20
174.9641109999998
 30
0.0
 11
5.499996999999998
 21
174.9641109999998
 31
0.0
  0
LINE
  5
A11C
330
A046
100
AcDbEntity
  8
1
  6
Continuous
100
AcDbLine
 10
12.269034
 20
184.720704
 30
0.0
 11
11.896321
 21
180.735705
 31
0.0
  0
LINE
  5
A11D
330
A046
100
AcDbEntity
  8
1
  6
Continuous
100
AcDbLine
 10
13.484213
 20
180.531587
 30
0.0
 11
13.046838
 21
175.8552309999998
 31
0.0
  0
LINE
  5
A11E
330
A046
100
AcDbEntity
  8
4
  6
CENTER
100
AcDbLine
 10
206.4478119999999
 20
187.574586
 30
0.0
 11
206.4478119999999
 21
158.964111
 31
0.0
  0
LINE
  5
A11F
330
A046
100
AcDbEntity
  8
1
  6
Continuous
100
AcDbLine
 10
197.9478189999999
 20
174.964102
 30
0.0
 11
197.947858
 21
99.96411100000001
 31
0.0
  0
LINE
  5
A120
330
A046
100
AcDbEntity
  8
1
  6
Continuous
100
AcDbLine
 10
214.910798
 20
174.1716539999999
 30
0.0
 11
207.947809
 21
99.72945300000001
 31
0.0
  0
LINE
  5
A121
330
A046
100
AcDbEntity
  8
4
  6
CENTER
100
AcDbLine
 10
210.947839
 20
99.96411100000001
 30
0.0
 11
194.9478389999999
 21
99.96411100000001
 31
0.0
  0
LINE
  5
A122
330
A046
100
AcDbEntity
  8
4
  6
CENTER
100
AcDbLine
 10
202.947809
 20
107.9640659999999
 30
0.0
 11
202.947809
 21
89.36404399999997
 31
0.0
  0
LINE
  5
A123
330
A046
100
AcDbEntity
  8
1
  6
Continuous
100
AcDbLine
 10
208.6341079999999
 20
242.8596779999999
 30
0.0
 11
214.900971
 21
175.8552309999998
 31
0.0
  0
LINE
  5
A124
330
A046
100
AcDbEntity
  8
1
  6
Continuous
100
AcDbLine
 10
197.9478179999999
 20
242.6525969999999
 30
0.0
 11
197.9478139999999
 21
175.1173879999998
 31
0.0
  0
LINE
  5
A125
330
A046
100
AcDbEntity
  8
4
  6
CENTER
100
AcDbLine
 10
190.447812
 20
174.9641109999998
 30
0.0
 11
222.447812
 21
174.9641109999998
 31
0.0
  0
LINE
  5
A126
330
A046
100
AcDbEntity
  8
1
  6
Continuous
100
AcDbLine
 10
215.6787749999999
 20
184.720704
 30
0.0
 11
214.0908829999999
 21
184.516581
 31
0.0
  0
LINE
  5
A127
330
A046
100
AcDbEntity
  8
1
  6
Continuous
100
AcDbLine
 10
215.6787749999999
 20
184.720704
 30
0.0
 11
216.051488
 21
180.735705
 31
0.0
  0
LINE
  5
A128
330
A046
100
AcDbEntity
  8
1
  6
Continuous
100
AcDbLine
 10
216.051488
 20
180.735705
 30
0.0
 11
214.463596
 21
180.531587
 31
0.0
  0
ARC
  5
A129
330
A046
100
AcDbEntity
  8
1
  6
Continuous
100
AcDbCircle
 10
202.947809
 20
99.96411100000001
 30
0.0
 40
5.0
100
AcDbArc
 50
180.0
 51
0.0
  0
LINE
  5
A12A
330
A046
100
AcDbEntity
  8
1
  6
Continuous
100
AcDbLine
 10
290.6475679999999
 20
253.9641109999998
 30
0.0
 11
290.6475679999999
 21
245.9641109999998
 31
0.0
  0
LINE
  5
A12B
330
A046
100
AcDbEntity
  8
1
  6
Continuous
100
AcDbLine
 10
286.6475679999999
 20
257.964111
 30
0.0
 11
286.6475679999999
 21
241.9641109999998
 31
0.0
  0
LINE
  5
A12C
330
A046
100
AcDbEntity
  8
1
  6
Continuous
100
AcDbLine
 10
285.6475679999999
 20
257.964111
 30
0.0
 11
285.6475679999999
 21
241.9641109999998
 31
0.0
  0
LINE
  5
A12D
330
A046
100
AcDbEntity
  8
1
  6
Continuous
100
AcDbLine
 10
285.6475679999999
 20
257.964111
 30
0.0
 11
286.6475679999999
 21
257.964111
 31
0.0
  0
LINE
  5
A12E
330
A046
100
AcDbEntity
  8
1
  6
Continuous
100
AcDbLine
 10
285.6475679999999
 20
241.9641109999998
 30
0.0
 11
286.6475679999999
 21
241.9641109999998
 31
0.0
  0
ARC
  5
A12F
330
A046
100
AcDbEntity
  8
1
  6
Continuous
100
AcDbCircle
 10
285.2314709999999
 20
249.6202429999999
 30
0.0
 40
6.5
100
AcDbArc
 50
36.58949699999999
 51
77.41656399999998
  0
ARC
  5
A130
330
A046
100
AcDbEntity
  8
1
  6
Continuous
100
AcDbCircle
 10
285.2314709999999
 20
250.30798
 30
0.0
 40
6.5
100
AcDbArc
 50
282.5834359999999
 51
323.410503
  0
ARC
  5
A131
330
A046
100
AcDbEntity
  8
1
  6
Continuous
100
AcDbCircle
 10
289.6475679999999
 20
252.89867
 30
0.0
 40
1.0
100
AcDbArc
 50
0.0
 51
36.58949699999999
  0
ARC
  5
A132
330
A046
100
AcDbEntity
  8
1
  6
Continuous
100
AcDbCircle
 10
289.6475679999999
 20
247.029553
 30
0.0
 40
1.0
100
AcDbArc
 50
323.410503
 51
0.0
  0
LINE
  5
A133
330
A046
100
AcDbEntity
  8
4
  6
CENTER
100
AcDbLine
 10
131.1491169999999
 20
249.9641109999998
 30
0.0
 11
115.449104
 21
249.9641109999998
 31
0.0
  0
LINE
  5
A134
330
A046
100
AcDbEntity
  8
1
  6
Continuous
100
AcDbLine
 10
128.149117
 20
241.9641109999998
 30
0.0
 11
127.149117
 21
241.9641109999998
 31
0.0
  0
LINE
  5
A135
330
A046
100
AcDbEntity
  8
1
  6
Continuous
100
AcDbLine
 10
128.149117
 20
257.964111
 30
0.0
 11
127.149117
 21
257.964111
 31
0.0
  0
LINE
  5
A136
330
A046
100
AcDbEntity
  8
1
  6
Continuous
100
AcDbLine
 10
128.149117
 20
257.964111
 30
0.0
 11
128.149117
 21
241.9641109999998
 31
0.0
  0
LINE
  5
A137
330
A046
100
AcDbEntity
  8
1
  6
Continuous
100
AcDbLine
 10
127.149117
 20
257.964111
 30
0.0
 11
127.149117
 21
241.9641109999998
 31
0.0
  0
ARC
  5
A138
330
A046
100
AcDbEntity
  8
1
  6
Continuous
100
AcDbCircle
 10
124.1491169999999
 20
247.029553
 30
0.0
 40
1.0
100
AcDbArc
 50
180.0
 51
216.589497
  0
ARC
  5
A139
330
A046
100
AcDbEntity
  8
1
  6
Continuous
100
AcDbCircle
 10
124.1491169999999
 20
252.89867
 30
0.0
 40
1.0
100
AcDbArc
 50
143.410503
 51
180.0
  0
LINE
  5
A13A
330
A046
100
AcDbEntity
  8
1
  6
Continuous
100
AcDbLine
 10
123.1491169999999
 20
253.9641109999998
 30
0.0
 11
123.1491169999999
 21
245.9641109999998
 31
0.0
  0
ARC
  5
A13B
330
A046
100
AcDbEntity
  8
1
  6
Continuous
100
AcDbCircle
 10
128.565214
 20
250.30798
 30
0.0
 40
6.5
100
AcDbArc
 50
216.589497
 51
257.4165639999999
  0
ARC
  5
A13C
330
A046
100
AcDbEntity
  8
1
  6
Continuous
100
AcDbCircle
 10
128.565214
 20
249.6202429999999
 30
0.0
 40
6.5
100
AcDbArc
 50
102.5834359999999
 51
143.410503
  0
LINE
  5
A13D
330
A046
100
AcDbEntity
  8
1
  6
Continuous
100
AcDbLine
 10
119.54911
 20
246.463989
 30
0.0
 11
119.54911
 21
253.463989
 31
0.0
  0
LINE
  5
A13E
330
A046
100
AcDbEntity
  8
1
  6
Continuous
100
AcDbLine
 10
122.6491169999998
 20
253.9641109999998
 30
0.0
 11
123.1491169999999
 21
253.9641109999998
 31
0.0
  0
LINE
  5
A13F
330
A046
100
AcDbEntity
  8
1
  6
Continuous
100
AcDbLine
 10
122.6491169999998
 20
245.9641109999998
 30
0.0
 11
123.1491169999999
 21
245.9641109999998
 31
0.0
  0
LINE
  5
A140
330
A046
100
AcDbEntity
  8
1
  6
Continuous
100
AcDbLine
 10
121.04911
 20
254.9641109999999
 30
0.0
 11
122.6491169999998
 21
254.9641109999999
 31
0.0
  0
LINE
  5
A141
330
A046
100
AcDbEntity
  8
1
  6
Continuous
100
AcDbLine
 10
119.54911
 20
246.463989
 30
0.0
 11
121.04911
 21
246.463989
 31
0.0
  0
LINE
  5
A142
330
A046
100
AcDbEntity
  8
1
  6
Continuous
100
AcDbLine
 10
119.54911
 20
253.463989
 30
0.0
 11
121.04911
 21
253.463989
 31
0.0
  0
LINE
  5
A143
330
A046
100
AcDbEntity
  8
1
  6
Continuous
100
AcDbLine
 10
291.1475679999999
 20
166.4641109999998
 30
0.0
 11
292.7475739999999
 21
166.4641109999998
 31
0.0
  0
LINE
  5
A144
330
A046
100
AcDbEntity
  8
1
  6
Continuous
100
AcDbLine
 10
291.1475679999999
 20
184.720704
 30
0.0
 11
296.3475649999999
 21
184.720704
 31
0.0
  0
LINE
  5
A145
330
A046
100
AcDbEntity
  8
1
  6
Continuous
100
AcDbLine
 10
291.1475679999999
 20
180.735705
 30
0.0
 11
296.3475649999999
 21
180.735705
 31
0.0
  0
LINE
  5
A146
330
A046
100
AcDbEntity
  8
1
  6
Continuous
100
AcDbLine
 10
291.1475679999999
 20
180.531587
 30
0.0
 11
296.3475649999999
 21
180.531587
 31
0.0
  0
ARC
  5
A147
330
A046
100
AcDbEntity
  8
1
  6
Continuous
100
AcDbCircle
 10
119.549103
 20
170.1982879999999
 30
0.0
 40
0.5
100
AcDbArc
 50
180.0000179999999
 51
230.194387
  0
LINE
  5
A148
330
A046
100
AcDbEntity
  8
1
  6
Continuous
100
AcDbLine
 10
119.229019
 20
169.814178
 30
0.0
 11
120.749107
 21
168.964111
 31
0.0
  0
LINE
  5
A149
330
A046
100
AcDbEntity
  8
1
  6
Continuous
100
AcDbLine
 10
123.149109
 20
178.9641109999998
 30
0.0
 11
123.149109
 21
170.9641109999998
 31
0.0
  0
LINE
  5
A14A
330
A046
100
AcDbEntity
  8
1
  6
Continuous
100
AcDbLine
 10
123.149109
 20
171.5641169999998
 30
0.0
 11
123.524384
 21
170.914108
 31
0.0
  0
LINE
  5
A14B
330
A046
100
AcDbEntity
  8
1
  6
Continuous
100
AcDbLine
 10
125.5491029999999
 20
171.5641019999999
 30
0.0
 11
125.173828
 21
170.914108
 31
0.0
  0
LINE
  5
A14C
330
A046
100
AcDbEntity
  8
1
  6
Continuous
100
AcDbLine
 10
122.649109
 20
170.9641109999998
 30
0.0
 11
123.149109
 21
170.9641109999998
 31
0.0
  0
LINE
  5
A14D
330
A046
100
AcDbEntity
  8
1
  6
Continuous
100
AcDbLine
 10
125.173828
 20
170.914108
 30
0.0
 11
123.524384
 21
170.914108
 31
0.0
  0
ARC
  5
A14E
330
A046
100
AcDbEntity
  8
1
  6
Continuous
100
AcDbCircle
 10
124.1817469999999
 20
171.920227
 30
0.0
 40
1.412978
100
AcDbArc
 50
14.59773499999998
 51
45.402202
  0
ARC
  5
A14F
330
A046
100
AcDbEntity
  8
1
  6
Continuous
100
AcDbCircle
 10
119.8288879999999
 20
174.9641109999998
 30
0.0
 40
5.720209999999998
100
AcDbArc
 50
339.130557
 51
20.86946
  0
ARC
  5
A150
330
A046
100
AcDbEntity
  8
1
  6
Continuous
100
AcDbCircle
 10
124.181732
 20
178.0079959999999
 30
0.0
 40
1.412978
100
AcDbArc
 50
314.5978109999999
 51
345.402265
  0
ARC
  5
A151
330
A046
100
AcDbEntity
  8
1
  6
Continuous
100
AcDbCircle
 10
124.5164639999998
 20
171.920227
 30
0.0
 40
1.412978
100
AcDbArc
 50
134.59781
 51
165.4022379999998
  0
ARC
  5
A152
330
A046
100
AcDbEntity
  8
1
  6
Continuous
100
AcDbCircle
 10
124.5164639999998
 20
178.0079959999999
 30
0.0
 40
1.412978
100
AcDbArc
 50
194.5978
 51
225.4022239999999
  0
ARC
  5
A153
330
A046
100
AcDbEntity
  8
1
  6
Continuous
100
AcDbCircle
 10
128.8693079999999
 20
174.9641109999998
 30
0.0
 40
5.720210999999999
100
AcDbArc
 50
159.1305469999998
 51
200.869498
  0
LINE
  5
A154
330
A046
100
AcDbEntity
  8
1
  6
Continuous
100
AcDbLine
 10
126.149109
 20
176.964111
 30
0.0
 11
125.5491029999999
 21
177.5641019999999
 31
0.0
  0
LINE
  5
A155
330
A046
100
AcDbEntity
  8
1
  6
Continuous
100
AcDbLine
 10
126.149109
 20
172.964111
 30
0.0
 11
125.5491029999999
 21
172.3641049999999
 31
0.0
  0
LINE
  5
A156
330
A046
100
AcDbEntity
  8
1
  6
Continuous
100
AcDbLine
 10
122.649109
 20
178.9641109999998
 30
0.0
 11
123.149109
 21
178.9641109999998
 31
0.0
  0
LINE
  5
A157
330
A046
100
AcDbEntity
  8
1
  6
Continuous
100
AcDbLine
 10
126.149109
 20
172.964111
 30
0.0
 11
126.149109
 21
176.964111
 31
0.0
  0
LINE
  5
A158
330
A046
100
AcDbEntity
  8
1
  6
Continuous
100
AcDbLine
 10
123.149109
 20
178.3641049999999
 30
0.0
 11
123.524384
 21
179.0141139999998
 31
0.0
  0
LINE
  5
A159
330
A046
100
AcDbEntity
  8
1
  6
Continuous
100
AcDbLine
 10
125.5491029999999
 20
178.3641049999999
 30
0.0
 11
125.173828
 21
179.0140989999999
 31
0.0
  0
LINE
  5
A15A
330
A046
100
AcDbEntity
  8
1
  6
Continuous
100
AcDbLine
 10
125.173828
 20
177.001877
 30
0.0
 11
123.524384
 21
177.001877
 31
0.0
  0
LINE
  5
A15B
330
A046
100
AcDbEntity
  8
1
  6
Continuous
100
AcDbLine
 10
125.173828
 20
172.926346
 30
0.0
 11
123.524384
 21
172.926346
 31
0.0
  0
LINE
  5
A15C
330
A046
100
AcDbEntity
  8
1
  6
Continuous
100
AcDbLine
 10
125.173828
 20
179.0141139999998
 30
0.0
 11
123.524384
 21
179.0141139999998
 31
0.0
  0
LINE
  5
A15D
330
A046
100
AcDbEntity
  8
1
  6
Continuous
100
AcDbLine
 10
125.5491029999999
 20
178.3641049999999
 30
0.0
 11
125.5491029999999
 21
171.5641019999999
 31
0.0
  0
LINE
  5
A15E
330
A046
100
AcDbEntity
  8
1
  6
Continuous
100
AcDbLine
 10
115.449112
 20
170.464111
 30
0.0
 11
115.449112
 21
179.464111
 31
0.0
  0
LINE
  5
A15F
330
A046
100
AcDbEntity
  8
1
  6
Continuous
100
AcDbLine
 10
115.949112
 20
169.9641109999998
 30
0.0
 11
115.949112
 21
179.964111
 31
0.0
  0
LINE
  5
A160
330
A046
100
AcDbEntity
  8
1
  6
Continuous
100
AcDbLine
 10
116.949112
 20
169.9641109999998
 30
0.0
 11
116.949112
 21
179.964111
 31
0.0
  0
LINE
  5
A161
330
A046
100
AcDbEntity
  8
1
  6
Continuous
100
AcDbLine
 10
115.449112
 20
170.464111
 30
0.0
 11
115.949112
 21
169.9641109999998
 31
0.0
  0
LINE
  5
A162
330
A046
100
AcDbEntity
  8
1
  6
Continuous
100
AcDbLine
 10
115.949112
 20
169.9641109999998
 30
0.0
 11
117.449112
 21
169.9641109999998
 31
0.0
  0
LINE
  5
A163
330
A046
100
AcDbEntity
  8
1
  6
Continuous
100
AcDbLine
 10
115.449112
 20
179.464111
 30
0.0
 11
115.949097
 21
179.964111
 31
0.0
  0
LINE
  5
A164
330
A046
100
AcDbEntity
  8
1
  6
Continuous
100
AcDbLine
 10
115.949097
 20
179.964111
 30
0.0
 11
117.449112
 21
179.964111
 31
0.0
  0
LINE
  5
A165
330
A046
100
AcDbEntity
  8
4
  6
CENTER
100
AcDbLine
 10
112.851434
 20
174.9641109999998
 30
0.0
 11
129.051431
 21
174.9641109999998
 31
0.0
  0
ARC
  5
A166
330
A046
100
AcDbEntity
  8
1
  6
Continuous
100
AcDbCircle
 10
119.549103
 20
179.729935
 30
0.0
 40
0.5
100
AcDbArc
 50
129.8056129999999
 51
179.999982
  0
LINE
  5
A167
330
A046
100
AcDbEntity
  8
1
  6
Continuous
100
AcDbLine
 10
119.229019
 20
180.114044
 30
0.0
 11
120.749107
 21
180.964111
 31
0.0
  0
LINE
  5
A168
330
A046
100
AcDbEntity
  8
1
  6
Continuous
100
AcDbLine
 10
121.04911
 20
184.720704
 30
0.0
 11
118.449112
 21
184.720704
 31
0.0
  0
LINE
  5
A169
330
A046
100
AcDbEntity
  8
1
  6
Continuous
100
AcDbLine
 10
121.04911
 20
184.516581
 30
0.0
 11
119.0491179999998
 21
184.516581
 31
0.0
  0
ARC
  5
A16A
330
A046
100
AcDbEntity
  8
1
  6
Continuous
100
AcDbCircle
 10
118.449112
 20
183.720704
 30
0.0
 40
1.0
100
AcDbArc
 50
90.0
 51
180.0
  0
LINE
  5
A16B
330
A046
100
AcDbEntity
  8
1
  6
Continuous
100
AcDbLine
 10
119.9756679999999
 20
180.531587
 30
0.0
 11
119.0491179999998
 21
180.531587
 31
0.0
  0
LINE
  5
A16C
330
A046
100
AcDbEntity
  8
4
  6
CENTER
100
AcDbLine
 10
131.178956
 20
317.2647119999999
 30
0.0
 11
112.2879879999999
 21
317.2647119999999
 31
0.0
  0
LINE
  5
A16D
330
A046
100
AcDbEntity
  8
1
  6
Continuous
100
AcDbLine
 10
127.149101
 20
299.764709
 30
0.0
 11
128.149101
 21
299.764709
 31
0.0
  0
LINE
  5
A16E
330
A046
100
AcDbEntity
  8
1
  6
Continuous
100
AcDbLine
 10
127.149101
 20
327.7647089999998
 30
0.0
 11
128.149101
 21
327.7647089999998
 31
0.0
  0
LINE
  5
A16F
330
A046
100
AcDbEntity
  8
1
  6
Continuous
100
AcDbLine
 10
123.149101
 20
309.7647089999999
 30
0.0
 11
123.149101
 21
317.7647089999999
 31
0.0
  0
LINE
  5
A170
330
A046
100
AcDbEntity
  8
1
  6
Continuous
100
AcDbLine
 10
127.149101
 20
299.764709
 30
0.0
 11
127.149101
 21
327.7647089999998
 31
0.0
  0
ARC
  5
A171
330
A046
100
AcDbEntity
  8
1
  6
Continuous
100
AcDbCircle
 10
128.565198
 20
314.1085779999999
 30
0.0
 40
6.5
100
AcDbArc
 50
216.589497
 51
257.4165639999999
  0
ARC
  5
A172
330
A046
100
AcDbEntity
  8
1
  6
Continuous
100
AcDbCircle
 10
124.149101
 20
310.8301509999999
 30
0.0
 40
1.0
100
AcDbArc
 50
180.0
 51
216.589497
  0
LINE
  5
A173
330
A046
100
AcDbEntity
  8
1
  6
Continuous
100
AcDbLine
 10
121.049103
 20
308.7647089999999
 30
0.0
 11
122.6491009999999
 21
308.7647089999999
 31
0.0
  0
LINE
  5
A174
330
A046
100
AcDbEntity
  8
1
  6
Continuous
100
AcDbLine
 10
119.5490949999998
 20
310.264923
 30
0.0
 11
121.049095
 21
310.264923
 31
0.0
  0
LINE
  5
A175
330
A046
100
AcDbEntity
  8
1
  6
Continuous
100
AcDbLine
 10
122.6491009999999
 20
309.7647089999999
 30
0.0
 11
123.149101
 21
309.7647089999999
 31
0.0
  0
ARC
  5
A176
330
A046
100
AcDbEntity
  8
1
  6
Continuous
100
AcDbCircle
 10
124.149101
 20
316.699268
 30
0.0
 40
1.0
100
AcDbArc
 50
143.410503
 51
180.0
  0
ARC
  5
A177
330
A046
100
AcDbEntity
  8
1
  6
Continuous
100
AcDbCircle
 10
128.565198
 20
313.4208409999998
 30
0.0
 40
6.5
100
AcDbArc
 50
102.5834359999999
 51
143.410503
  0
LINE
  5
A178
330
A046
100
AcDbEntity
  8
1
  6
Continuous
100
AcDbLine
 10
119.5490949999998
 20
317.264923
 30
0.0
 11
121.049095
 21
317.264923
 31
0.0
  0
LINE
  5
A179
330
A046
100
AcDbEntity
  8
1
  6
Continuous
100
AcDbLine
 10
122.6491009999999
 20
317.7647089999999
 30
0.0
 11
123.149101
 21
317.7647089999999
 31
0.0
  0
LINE
  5
A17A
330
A046
100
AcDbEntity
  8
1
  6
Continuous
100
AcDbLine
 10
128.149101
 20
299.764709
 30
0.0
 11
128.149101
 21
327.7647089999998
 31
0.0
  0
LINE
  5
A17B
330
A046
100
AcDbEntity
  8
1
  6
Continuous
100
AcDbLine
 10
116.949097
 20
308.7647089999999
 30
0.0
 11
115.349106
 21
308.7647089999999
 31
0.0
  0
LINE
  5
A17C
330
A046
100
AcDbEntity
  8
1
  6
Continuous
100
AcDbLine
 10
121.049103
 20
308.7647089999999
 30
0.0
 11
121.049103
 21
324.9077839999998
 31
0.0
  0
LINE
  5
A17D
330
A046
100
AcDbEntity
  8
1
  6
Continuous
100
AcDbLine
 10
122.6491009999999
 20
308.7647089999999
 30
0.0
 11
122.6491009999999
 21
326.8683889999999
 31
0.0
  0
LINE
  5
A17E
330
A046
100
AcDbEntity
  8
4
  6
CENTER
100
AcDbLine
 10
131.2835959999999
 20
323.764654
 30
0.0
 11
124.257878
 21
323.764654
 31
0.0
  0
LINE
  5
A17F
330
A046
100
AcDbEntity
  8
4
  6
CENTER
100
AcDbLine
 10
131.2835959999999
 20
303.7646689999998
 30
0.0
 11
124.257878
 21
303.7646689999998
 31
0.0
  0
LINE
  5
A180
330
A046
100
AcDbEntity
  8
1
  6
Continuous
100
AcDbLine
 10
117.4490889999999
 20
325.268389
 30
0.0
 11
117.4490889999999
 21
308.7647089999999
 31
0.0
  0
LINE
  5
A181
330
A046
100
AcDbEntity
  8
1
  6
Continuous
100
AcDbLine
 10
119.049095
 20
324.9077839999998
 30
0.0
 11
119.049095
 21
308.7647089999999
 31
0.0
  0
LINE
  5
A182
330
A046
100
AcDbEntity
  8
1
  6
Continuous
100
AcDbLine
 10
120.7490919999999
 20
309.2648319999999
 30
0.0
 11
120.7490919999999
 21
310.264923
 31
0.0
  0
LINE
  5
A183
330
A046
100
AcDbEntity
  8
1
  6
Continuous
100
AcDbLine
 10
120.7490919999999
 20
309.2648319999999
 30
0.0
 11
121.049095
 21
309.2648319999999
 31
0.0
  0
LINE
  5
A184
330
A046
100
AcDbEntity
  8
1
  6
Continuous
100
AcDbLine
 10
120.7490919999999
 20
317.264923
 30
0.0
 11
120.7490919999999
 21
324.9077839999998
 31
0.0
  0
LINE
  5
A185
330
A046
100
AcDbEntity
  8
1
  6
Continuous
100
AcDbLine
 10
117.4490889999999
 20
308.7647089999999
 30
0.0
 11
119.049095
 21
308.7647089999999
 31
0.0
  0
LINE
  5
A186
330
A046
100
AcDbEntity
  8
1
  6
Continuous
100
AcDbLine
 10
117.4490889999999
 20
309.7647089999999
 30
0.0
 11
116.949097
 21
309.7647089999999
 31
0.0
  0
LINE
  5
A187
330
A046
100
AcDbEntity
  8
1
  6
Continuous
100
AcDbLine
 10
122.6491009999999
 20
324.9077839999998
 30
0.0
 11
119.049095
 21
324.9077839999998
 31
0.0
  0
LINE
  5
A188
330
A046
100
AcDbEntity
  8
1
  6
Continuous
100
AcDbLine
 10
122.6491009999999
 20
326.8683889999999
 30
0.0
 11
119.0490889999999
 21
326.8683889999999
 31
0.0
  0
ARC
  5
A189
330
A046
100
AcDbEntity
  8
1
  6
Continuous
100
AcDbCircle
 10
119.0490889999999
 20
325.268389
 30
0.0
 40
1.6
100
AcDbArc
 50
90.0
 51
180.0
  0
ARC
  5
A18A
330
A046
100
AcDbEntity
  8
1
  6
Continuous
100
AcDbCircle
 10
294.2475739999999
 20
179.729935
 30
0.0
 40
0.5
100
AcDbArc
 50
0.000018
 51
50.194387
  0
LINE
  5
A18B
330
A046
100
AcDbEntity
  8
1
  6
Continuous
100
AcDbLine
 10
294.5676569999998
 20
180.114044
 30
0.0
 11
293.8210129999998
 21
180.531587
 31
0.0
  0
LINE
  5
A18C
330
A046
100
AcDbEntity
  8
1
  6
Continuous
100
AcDbLine
 10
119.5490949999998
 20
317.264923
 30
0.0
 11
119.5490949999998
 21
310.264923
 31
0.0
  0
LINE
  5
A18D
330
A046
100
AcDbEntity
  8
1
  6
Continuous
100
AcDbLine
 10
115.4490889999999
 20
312.7647119999999
 30
0.0
 11
115.4490889999999
 21
321.7647119999999
 31
0.0
  0
LINE
  5
A18E
330
A046
100
AcDbEntity
  8
1
  6
Continuous
100
AcDbLine
 10
115.9490889999998
 20
312.2647119999998
 30
0.0
 11
115.9490889999998
 21
322.2647119999999
 31
0.0
  0
LINE
  5
A18F
330
A046
100
AcDbEntity
  8
1
  6
Continuous
100
AcDbLine
 10
115.4490889999999
 20
312.7647119999999
 30
0.0
 11
115.9490889999998
 21
312.2647119999998
 31
0.0
  0
LINE
  5
A190
330
A046
100
AcDbEntity
  8
1
  6
Continuous
100
AcDbLine
 10
115.9490889999998
 20
312.2647119999998
 30
0.0
 11
117.4490889999999
 21
312.2647119999998
 31
0.0
  0
LINE
  5
A191
330
A046
100
AcDbEntity
  8
1
  6
Continuous
100
AcDbLine
 10
115.4490889999999
 20
321.7647119999999
 30
0.0
 11
115.949074
 21
322.2647119999999
 31
0.0
  0
LINE
  5
A192
330
A046
100
AcDbEntity
  8
1
  6
Continuous
100
AcDbLine
 10
115.949074
 20
322.2647119999999
 30
0.0
 11
117.4490889999999
 21
322.2647119999999
 31
0.0
  0
LINE
  5
A193
330
A046
100
AcDbEntity
  8
1
  6
Continuous
100
AcDbLine
 10
119.2289959999999
 20
312.114779
 30
0.0
 11
119.5490949999998
 21
311.9357729999999
 31
0.0
  0
ARC
  5
A194
330
A046
100
AcDbEntity
  8
1
  6
Continuous
100
AcDbCircle
 10
119.5490799999999
 20
312.498889
 30
0.0
 40
0.5
100
AcDbArc
 50
180.0000179999999
 51
230.194387
  0
LINE
  5
A195
330
A046
100
AcDbEntity
  8
1
  6
Continuous
100
AcDbLine
 10
119.2289959999999
 20
322.414645
 30
0.0
 11
120.749084
 21
323.2647119999999
 31
0.0
  0
ARC
  5
A196
330
A046
100
AcDbEntity
  8
1
  6
Continuous
100
AcDbCircle
 10
119.5490799999999
 20
322.0305359999999
 30
0.0
 40
0.5
100
AcDbArc
 50
129.8056129999999
 51
179.999982
  0
LINE
  5
A197
330
A046
100
AcDbEntity
  8
4
  6
CENTER
100
AcDbLine
 10
101.8601709999998
 20
36.163513
 30
0.0
 11
132.992487
 21
36.163513
 31
0.0
  0
LINE
  5
A198
330
A046
100
AcDbEntity
  8
4
  6
CENTER
100
AcDbLine
 10
131.178956
 20
32.66350999999998
 30
0.0
 11
112.2879879999999
 21
32.66350999999998
 31
0.0
  0
LINE
  5
A199
330
A046
100
AcDbEntity
  8
4
  6
CENTER
100
AcDbLine
 10
131.2835959999999
 20
46.163553
 30
0.0
 11
124.257878
 21
46.163553
 31
0.0
  0
LINE
  5
A19A
330
A046
100
AcDbEntity
  8
4
  6
CENTER
100
AcDbLine
 10
131.2835959999999
 20
26.16356899999999
 30
0.0
 11
124.257878
 21
26.16356899999999
 31
0.0
  0
LINE
  5
A19B
330
A046
100
AcDbEntity
  8
1
  6
Continuous
100
AcDbLine
 10
127.149101
 20
22.16351299999999
 30
0.0
 11
128.149101
 21
22.16351299999999
 31
0.0
  0
LINE
  5
A19C
330
A046
100
AcDbEntity
  8
1
  6
Continuous
100
AcDbLine
 10
127.149101
 20
50.163513
 30
0.0
 11
128.149101
 21
50.163513
 31
0.0
  0
LINE
  5
A19D
330
A046
100
AcDbEntity
  8
4
  6
CENTER
100
AcDbLine
 10
111.049103
 20
20.163483
 30
0.0
 11
111.049103
 21
52.16348299999999
 31
0.0
  0
LINE
  5
A19E
330
A046
100
AcDbEntity
  8
1
  6
Continuous
100
AcDbLine
 10
116.949097
 20
27.66351
 30
0.0
 11
116.949097
 21
41.163513
 31
0.0
  0
LINE
  5
A19F
330
A046
100
AcDbEntity
  8
1
  6
Continuous
100
AcDbLine
 10
115.9490889999998
 20
31.16351299999999
 30
0.0
 11
115.9490889999998
 21
27.66351
 31
0.0
  0
LINE
  5
A1A0
330
A046
100
AcDbEntity
  8
1
  6
Continuous
100
AcDbLine
 10
115.4490889999999
 20
31.16351299999999
 30
0.0
 11
115.4490889999999
 21
28.16351
 31
0.0
  0
LINE
  5
A1A1
330
A046
100
AcDbEntity
  8
1
  6
Continuous
100
AcDbLine
 10
117.4490889999999
 20
24.659834
 30
0.0
 11
117.4490889999999
 21
41.163513
 31
0.0
  0
LINE
  5
A1A2
330
A046
100
AcDbEntity
  8
1
  6
Continuous
100
AcDbLine
 10
119.049095
 20
25.020439
 30
0.0
 11
119.049095
 21
41.163513
 31
0.0
  0
LINE
  5
A1A3
330
A046
100
AcDbEntity
  8
1
  6
Continuous
100
AcDbLine
 10
106.7491149999999
 20
24.612042
 30
0.0
 11
106.7491149999999
 21
47.715015
 31
0.0
  0
LINE
  5
A1A4
330
A046
100
AcDbEntity
  8
1
  6
Continuous
100
AcDbLine
 10
115.349106
 20
24.61206699999999
 30
0.0
 11
115.349106
 21
31.16351299999999
 31
0.0
  0
LINE
  5
A1A5
330
A046
100
AcDbEntity
  8
1
  6
Continuous
100
AcDbLine
 10
120.7490919999999
 20
40.66339099999999
 30
0.0
 11
120.7490919999999
 21
25.020439
 31
0.0
  0
LINE
  5
A1A6
330
A046
100
AcDbEntity
  8
1
  6
Continuous
100
AcDbLine
 10
122.6491009999999
 20
41.163513
 30
0.0
 11
122.6491009999999
 21
23.059834
 31
0.0
  0
LINE
  5
A1A7
330
A046
100
AcDbEntity
  8
1
  6
Continuous
100
AcDbLine
 10
121.049103
 20
41.163513
 30
0.0
 11
121.049103
 21
25.020439
 31
0.0
  0
ARC
  5
A1A8
330
A046
100
AcDbEntity
  8
1
  6
Continuous
100
AcDbCircle
 10
128.565198
 20
36.507382
 30
0.0
 40
6.5
100
AcDbArc
 50
216.2538899999999
 51
257.4165639999999
  0
LINE
  5
A1A9
330
A046
100
AcDbEntity
  8
1
  6
Continuous
100
AcDbLine
 10
127.149101
 20
50.163513
 30
0.0
 11
127.149101
 21
22.16351299999999
 31
0.0
  0
LINE
  5
A1AA
330
A046
100
AcDbEntity
  8
4
  6
CENTER
100
AcDbLine
 10
105.049179
 20
46.163513
 30
0.0
 11
117.049179
 21
46.163513
 31
0.0
  0
CIRCLE
  5
A1AB
330
A046
100
AcDbEntity
  8
1
  6
Continuous
100
AcDbCircle
 10
111.049149
 20
46.163483
 30
0.0
 40
1.649999999999999
  0
LINE
  5
A1AC
330
A046
100
AcDbEntity
  8
1
  6
Continuous
100
AcDbLine
 10
115.349106
 20
31.16351299999999
 30
0.0
 11
116.949097
 21
31.16351299999999
 31
0.0
  0
LINE
  5
A1AD
330
A046
100
AcDbEntity
  8
1
  6
Continuous
100
AcDbLine
 10
117.4490889999999
 20
41.163513
 30
0.0
 11
119.049095
 21
41.163513
 31
0.0
  0
LINE
  5
A1AE
330
A046
100
AcDbEntity
  8
1
  6
Continuous
100
AcDbLine
 10
116.949097
 20
41.163513
 30
0.0
 11
115.349106
 21
41.163513
 31
0.0
  0
LINE
  5
A1AF
330
A046
100
AcDbEntity
  8
1
  6
Continuous
100
AcDbLine
 10
117.4490889999999
 20
40.163513
 30
0.0
 11
116.949097
 21
40.163513
 31
0.0
  0
LINE
  5
A1B0
330
A046
100
AcDbEntity
  8
1
  6
Continuous
100
AcDbLine
 10
120.7490919999999
 20
40.66339099999999
 30
0.0
 11
121.049095
 21
40.66339099999999
 31
0.0
  0
LINE
  5
A1B1
330
A046
100
AcDbEntity
  8
1
  6
Continuous
100
AcDbLine
 10
122.6491009999999
 20
32.163513
 30
0.0
 11
123.149101
 21
32.163513
 31
0.0
  0
LINE
  5
A1B2
330
A046
100
AcDbEntity
  8
1
  6
Continuous
100
AcDbLine
 10
122.6491009999999
 20
40.163513
 30
0.0
 11
123.149101
 21
40.163513
 31
0.0
  0
LINE
  5
A1B3
330
A046
100
AcDbEntity
  8
1
  6
Continuous
100
AcDbLine
 10
119.5490949999998
 20
39.6633
 30
0.0
 11
120.7490919999999
 21
39.6633
 31
0.0
  0
LINE
  5
A1B4
330
A046
100
AcDbEntity
  8
1
  6
Continuous
100
AcDbLine
 10
121.049103
 20
41.163513
 30
0.0
 11
122.6491009999999
 21
41.163513
 31
0.0
  0
ARC
  5
A1B5
330
A046
100
AcDbEntity
  8
1
  6
Continuous
100
AcDbCircle
 10
128.565198
 20
35.819645
 30
0.0
 40
6.5
100
AcDbArc
 50
102.5834359999999
 51
143.74611
  0
LINE
  5
A1B6
330
A046
100
AcDbEntity
  8
1
  6
Continuous
100
AcDbLine
 10
123.149101
 20
40.163513
 30
0.0
 11
123.149101
 21
32.163513
 31
0.0
  0
LINE
  5
A1B7
330
A046
100
AcDbEntity
  8
4
  6
CENTER
100
AcDbLine
 10
105.049179
 20
26.16351299999999
 30
0.0
 11
117.049179
 21
26.16351299999999
 31
0.0
  0
CIRCLE
  5
A1B8
330
A046
100
AcDbEntity
  8
1
  6
Continuous
100
AcDbCircle
 10
111.049149
 20
26.16351299999999
 30
0.0
 40
1.649999999999999
  0
ARC
  5
A1B9
330
A046
100
AcDbEntity
  8
1
  6
Continuous
100
AcDbCircle
 10
119.5490799999999
 20
27.897687
 30
0.0
 40
0.5
100
AcDbArc
 50
180.0000179999999
 51
230.194387
  0
LINE
  5
A1BA
330
A046
100
AcDbEntity
  8
1
  6
Continuous
100
AcDbLine
 10
119.2289959999999
 20
27.513578
 30
0.0
 11
120.749084
 21
26.66351
 31
0.0
  0
LINE
  5
A1BB
330
A046
100
AcDbEntity
  8
1
  6
Continuous
100
AcDbLine
 10
115.9490889999998
 20
27.66351
 30
0.0
 11
117.4490889999999
 21
27.66351
 31
0.0
  0
LINE
  5
A1BC
330
A046
100
AcDbEntity
  8
1
  6
Continuous
100
AcDbLine
 10
115.4490889999999
 20
28.16351
 30
0.0
 11
115.949074
 21
27.66351
 31
0.0
  0
LINE
  5
A1BD
330
A046
100
AcDbEntity
  8
1
  6
Continuous
100
AcDbLine
 10
122.6491009999999
 20
25.020439
 30
0.0
 11
119.049095
 21
25.020439
 31
0.0
  0
LINE
  5
A1BE
330
A046
100
AcDbEntity
  8
1
  6
Continuous
100
AcDbLine
 10
122.6491009999999
 20
23.059834
 30
0.0
 11
119.0490889999999
 21
23.059834
 31
0.0
  0
ARC
  5
A1BF
330
A046
100
AcDbEntity
  8
1
  6
Continuous
100
AcDbCircle
 10
119.0490889999999
 20
24.659834
 30
0.0
 40
1.6
100
AcDbArc
 50
180.0
 51
270.0
  0
LINE
  5
A1C0
330
A046
100
AcDbEntity
  8
1
  6
Continuous
100
AcDbLine
 10
128.149101
 20
50.163513
 30
0.0
 11
128.149101
 21
22.16351299999999
 31
0.0
  0
LINE
  5
A1C1
330
A046
100
AcDbEntity
  8
1
  6
Continuous
100
AcDbLine
 10
115.349106
 20
41.163513
 30
0.0
 11
115.349106
 21
47.71499
 31
0.0
  0
LINE
  5
A1C2
330
A046
100
AcDbEntity
  8
1
  6
Continuous
100
AcDbLine
 10
117.4490889999999
 20
32.163513
 30
0.0
 11
116.949097
 21
32.163513
 31
0.0
  0
LINE
  5
A1C3
330
A046
100
AcDbEntity
  8
1
  6
Continuous
100
AcDbLine
 10
120.049095
 20
34.663513
 30
0.0
 11
120.049095
 21
37.663513
 31
0.0
  0
LINE
  5
A1C4
330
A046
100
AcDbEntity
  8
1
  6
Continuous
100
AcDbLine
 10
119.04911
 20
38.163551
 30
0.0
 11
120.04911
 21
37.663551
 31
0.0
  0
LINE
  5
A1C5
330
A046
100
AcDbEntity
  8
1
  6
Continuous
100
AcDbLine
 10
119.0490879999998
 20
34.16352100000001
 30
0.0
 11
120.049095
 21
34.663528
 31
0.0
  0
LINE
  5
A1C6
330
A046
100
AcDbEntity
  8
1
  6
Continuous
100
AcDbLine
 10
119.5490949999998
 20
37.99244999999999
 30
0.0
 11
119.5490949999998
 21
39.6633
 31
0.0
  0
LINE
  5
A1C7
330
A046
100
AcDbEntity
  8
1
  6
Continuous
100
AcDbLine
 10
119.4746149999998
 20
37.95079899999999
 30
0.0
 11
120.749084
 21
38.66350999999998
 31
0.0
  0
LINE
  5
A1C8
330
A046
100
AcDbEntity
  8
1
  6
Continuous
100
AcDbLine
 10
125.5490949999998
 20
39.663513
 30
0.0
 11
125.5490949999998
 21
32.663513
 31
0.0
  0
LINE
  5
A1C9
330
A046
100
AcDbEntity
  8
1
  6
Continuous
100
AcDbLine
 10
126.149101
 20
34.163513
 30
0.0
 11
126.149101
 21
38.163513
 31
0.0
  0
LINE
  5
A1CA
330
A046
100
AcDbEntity
  8
1
  6
Continuous
100
AcDbLine
 10
126.149101
 20
34.163513
 30
0.0
 11
125.5490949999998
 21
33.563507
 31
0.0
  0
LINE
  5
A1CB
330
A046
100
AcDbEntity
  8
1
  6
Continuous
100
AcDbLine
 10
126.149101
 20
38.163513
 30
0.0
 11
125.5490949999998
 21
38.76350399999999
 31
0.0
  0
LINE
  5
A1CC
330
A046
100
AcDbEntity
  8
1
  6
Continuous
100
AcDbLine
 10
123.149101
 20
39.663513
 30
0.0
 11
125.5490949999998
 21
39.663513
 31
0.0
  0
ARC
  5
A1CD
330
A046
100
AcDbEntity
  8
1
  6
Continuous
100
AcDbCircle
 10
121.281184
 20
37.913513
 30
0.0
 40
4.267911999999999
100
AcDbArc
 50
335.792865
 51
24.207135
  0
LINE
  5
A1CE
330
A046
100
AcDbEntity
  8
1
  6
Continuous
100
AcDbLine
 10
123.149101
 20
36.163513
 30
0.0
 11
125.5490949999998
 21
36.163513
 31
0.0
  0
ARC
  5
A1CF
330
A046
100
AcDbEntity
  8
1
  6
Continuous
100
AcDbCircle
 10
127.4170129999999
 20
37.913513
 30
0.0
 40
4.267911999999999
100
AcDbArc
 50
155.7928649999998
 51
204.207135
  0
ARC
  5
A1D0
330
A046
100
AcDbEntity
  8
1
  6
Continuous
100
AcDbCircle
 10
127.4170129999999
 20
34.413513
 30
0.0
 40
4.267911999999999
100
AcDbArc
 50
155.7928649999998
 51
204.207135
  0
ARC
  5
A1D1
330
A046
100
AcDbEntity
  8
1
  6
Continuous
100
AcDbCircle
 10
121.281184
 20
34.413513
 30
0.0
 40
4.267911999999999
100
AcDbArc
 50
335.792865
 51
24.207135
  0
LINE
  5
A1D2
330
A046
100
AcDbEntity
  8
1
  6
Continuous
100
AcDbLine
 10
123.149101
 20
32.663513
 30
0.0
 11
125.5490949999998
 21
32.663513
 31
0.0
  0
ARC
  5
A1D3
330
A046
100
AcDbEntity
  8
1
  6
Continuous
100
AcDbCircle
 10
111.049103
 20
322.764721
 30
0.0
 40
5.0
100
AcDbArc
 50
30.68334899999999
 51
149.3163089999999
  0
ARC
  5
A1D4
330
A046
100
AcDbEntity
  8
1
  6
Continuous
100
AcDbCircle
 10
111.049103
 20
304.764729
 30
0.0
 40
5.0
100
AcDbArc
 50
210.683691
 51
329.3166509999999
  0
LINE
  5
A1D5
330
A046
100
AcDbEntity
  8
1
  6
Continuous
100
AcDbLine
 10
214.4992959999999
 20
92.36411999999999
 30
0.0
 11
214.4992959999999
 21
93.96411099999999
 31
0.0
  0
LINE
  5
A1D6
330
A046
100
AcDbEntity
  8
1
  6
Continuous
100
AcDbLine
 10
191.396322
 20
92.36411999999999
 30
0.0
 11
191.396322
 21
93.96411099999999
 31
0.0
  0
LINE
  5
A1D7
330
A046
100
AcDbEntity
  8
1
  6
Continuous
100
AcDbLine
 10
36.551487
 20
92.36411999999999
 30
0.0
 11
36.551487
 21
93.96411099999999
 31
0.0
  0
LINE
  5
A1D8
330
A046
100
AcDbEntity
  8
1
  6
Continuous
100
AcDbLine
 10
13.448513
 20
92.36411999999999
 30
0.0
 11
13.448513
 21
93.96411099999999
 31
0.0
  0
ARC
  5
A1D9
330
A046
100
AcDbEntity
  8
1
  6
Continuous
100
AcDbCircle
 10
111.049103
 20
45.16352499999999
 30
0.0
 40
5.0
100
AcDbArc
 50
30.68334899999999
 51
149.3163089999999
  0
ARC
  5
A1DA
330
A046
100
AcDbEntity
  8
1
  6
Continuous
100
AcDbCircle
 10
111.049103
 20
27.163532
 30
0.0
 40
5.0
100
AcDbArc
 50
210.683691
 51
329.3166509999999
  0
LINE
  5
A1DB
330
A046
100
AcDbEntity
  8
4
  6
CENTER
100
AcDbLine
 10
49.0
 20
101.71795
 30
0.0
 11
27.0
 21
101.71795
 31
0.0
  0
LINE
  5
A1DC
330
A046
100
AcDbEntity
  8
4
  6
CENTER
100
AcDbLine
 10
38.0
 20
117.717997
 30
0.0
 11
38.0
 21
85.71799199999999
 31
0.0
  0
LINE
  5
A1DD
330
A046
100
AcDbEntity
  8
4
  6
CENTER
100
AcDbLine
 10
44.0
 20
111.7179439999999
 30
0.0
 11
32.0
 21
111.7179439999999
 31
0.0
  0
LINE
  5
A1DE
330
A046
100
AcDbEntity
  8
4
  6
CENTER
100
AcDbLine
 10
44.0
 20
91.717957
 30
0.0
 11
32.0
 21
91.717957
 31
0.0
  0
LINE
  5
A1DF
330
A046
100
AcDbEntity
  8
5
  6
PHANTOM
100
AcDbLine
 10
33.17880399999999
 20
100.392968
 30
0.0
 11
13.344503
 21
172.563825
 31
0.0
  0
LINE
  5
A1E0
330
A046
100
AcDbEntity
  8
5
  6
PHANTOM
100
AcDbLine
 10
42.92378499999997
 20
102.5878939999999
 30
0.0
 11
31.40121300000001
 21
167.7785599999999
 31
0.0
  0
ARC
  5
A1E1
330
A046
100
AcDbEntity
  8
5
  6
PHANTOM
100
AcDbCircle
 10
38.000044
 20
101.717963
 30
0.0
 40
5.0
100
AcDbArc
 50
195.366897
 51
10.01963699999999
  0
ARC
  5
A1E2
330
A046
100
AcDbEntity
  8
5
  6
PHANTOM
100
AcDbCircle
 10
48.5
 20
101.718003
 30
0.0
 40
18.5
100
AcDbArc
 50
160.2066409999999
 51
223.602825
  0
ARC
  5
A1E3
330
A046
100
AcDbEntity
  8
5
  6
PHANTOM
100
AcDbCircle
 10
38.0
 20
91.71798800000001
 30
0.0
 40
4.0
100
AcDbArc
 50
223.6028189999999
 51
316.397212
  0
CIRCLE
  5
A1E4
330
A046
100
AcDbEntity
  8
5
  6
PHANTOM
100
AcDbCircle
 10
38.00003699999999
 20
101.7179599999999
 30
0.0
 40
3.5
  0
ARC
  5
A1E5
330
A046
100
AcDbEntity
  8
5
  6
PHANTOM
100
AcDbCircle
 10
38.0
 20
101.717995
 30
0.0
 40
6.0
100
AcDbArc
 50
161.808928
 51
43.580255
  0
CIRCLE
  5
A1E6
330
A046
100
AcDbEntity
  8
5
  6
PHANTOM
100
AcDbCircle
 10
38.0
 20
111.717997
 30
0.0
 40
2.799999999999998
  0
CIRCLE
  5
A1E7
330
A046
100
AcDbEntity
  8
5
  6
PHANTOM
100
AcDbCircle
 10
38.0
 20
91.71798800000001
 30
0.0
 40
1.8
  0
CIRCLE
  5
A1E8
330
A046
100
AcDbEntity
  8
5
  6
PHANTOM
100
AcDbCircle
 10
38.0
 20
91.71798800000001
 30
0.0
 40
2.799999999999998
  0
CIRCLE
  5
A1E9
330
A046
100
AcDbEntity
  8
5
  6
PHANTOM
100
AcDbCircle
 10
38.0
 20
111.717997
 30
0.0
 40
1.8
  0
ARC
  5
A1EA
330
A046
100
AcDbEntity
  8
5
  6
PHANTOM
100
AcDbCircle
 10
27.5
 20
101.717988
 30
0.0
 40
18.5
100
AcDbArc
 50
316.397202
 51
44.009351
  0
ARC
  5
A1EB
330
A046
100
AcDbEntity
  8
5
  6
PHANTOM
100
AcDbCircle
 10
206.4478119999999
 20
174.9641109999998
 30
0.0
 40
8.5
100
AcDbArc
 50
352.050962
 51
170.650961
  0
LINE
  5
A1EC
330
A046
100
AcDbEntity
  8
5
  6
PHANTOM
100
AcDbLine
 10
187.14165
 20
114.568464
 30
0.0
 11
198.0607169999999
 21
176.3449229999999
 31
0.0
  0
LINE
  5
A1ED
330
A046
100
AcDbEntity
  8
5
  6
PHANTOM
100
AcDbLine
 10
196.854869
 20
107.98263
 30
0.0
 11
214.6033069999998
 21
172.5638299999999
 31
0.0
  0
LINE
  5
A1EE
330
A046
100
AcDbEntity
  8
4
  6
CENTER
100
AcDbLine
 10
189.947853
 20
117.717985
 30
0.0
 11
189.947853
 21
85.71798499999998
 31
0.0
  0
ARC
  5
A1EF
330
A046
100
AcDbEntity
  8
5
  6
PHANTOM
100
AcDbCircle
 10
179.447853
 20
101.7179849999999
 30
0.0
 40
18.5
100
AcDbArc
 50
316.397169
 51
43.222121
  0
ARC
  5
A1F0
330
A046
100
AcDbEntity
  8
5
  6
PHANTOM
100
AcDbCircle
 10
189.947853
 20
101.7179849999999
 30
0.0
 40
6.0
100
AcDbArc
 50
89.99992699999998
 51
87.984913
  0
ARC
  5
A1F1
330
A046
100
AcDbEntity
  8
5
  6
PHANTOM
100
AcDbCircle
 10
200.447853
 20
101.71797
 30
0.0
 40
18.5
100
AcDbArc
 50
136.397198
 51
223.6028029999999
  0
ARC
  5
A1F2
330
A046
100
AcDbEntity
  8
5
  6
PHANTOM
100
AcDbCircle
 10
189.947853
 20
111.717985
 30
0.0
 40
4.0
100
AcDbArc
 50
43.602805
 51
136.397212
  0
CIRCLE
  5
A1F3
330
A046
100
AcDbEntity
  8
5
  6
PHANTOM
100
AcDbCircle
 10
189.947853
 20
111.717985
 30
0.0
 40
1.8
  0
LINE
  5
A1F4
330
A046
100
AcDbEntity
  8
4
  6
CENTER
100
AcDbLine
 10
183.947853
 20
111.717924
 30
0.0
 11
195.947853
 21
111.717924
 31
0.0
  0
LINE
  5
A1F5
330
A046
100
AcDbEntity
  8
4
  6
CENTER
100
AcDbLine
 10
178.947853
 20
101.71794
 30
0.0
 11
200.9478529999999
 21
101.71794
 31
0.0
  0
LINE
  5
A1F6
330
A046
100
AcDbEntity
  8
4
  6
CENTER
100
AcDbLine
 10
183.947853
 20
91.71794000000002
 30
0.0
 11
195.947853
 21
91.71794000000002
 31
0.0
  0
CIRCLE
  5
A1F7
330
A046
100
AcDbEntity
  8
5
  6
PHANTOM
100
AcDbCircle
 10
189.947853
 20
91.71796999999999
 30
0.0
 40
1.8
  0
ARC
  5
A1F8
330
A046
100
AcDbEntity
  8
5
  6
PHANTOM
100
AcDbCircle
 10
189.947853
 20
91.71796999999999
 30
0.0
 40
4.0
100
AcDbArc
 50
223.6027899999999
 51
316.39718
  0
CIRCLE
  5
A1F9
330
A046
100
AcDbEntity
  8
5
  6
PHANTOM
100
AcDbCircle
 10
189.947853
 20
101.71794
 30
0.0
 40
1.5
  0
CIRCLE
  5
A1FA
330
A046
100
AcDbEntity
  8
5
  6
PHANTOM
100
AcDbCircle
 10
189.947853
 20
101.71794
 30
0.0
 40
2.0
  0
CIRCLE
  5
A1FB
330
A046
100
AcDbEntity
  8
5
  6
PHANTOM
100
AcDbCircle
 10
189.947853
 20
101.71794
 30
0.0
 40
3.0
  0
ENDSEC
  0
SECTION
  2
OBJECTS
  0
DICTIONARY
  5
A034
330
0
100
AcDbDictionary
281
     1
  3
ACAD_CIP_PREVIOUS_PRODUCT_INFO
350
A261
  3
ACAD_COLOR
350
A243
  3
ACAD_DETAILVIEWSTYLE
350
A25C
  3
ACAD_GROUP
350
A035
  3
ACAD_LAYOUT
350
A041
  3
ACAD_MATERIAL
350
A211
  3
ACAD_MLEADERSTYLE
350
A258
  3
ACAD_MLINESTYLE
350
A03E
  3
ACAD_PLOTSETTINGS
350
A040
  3
ACAD_PLOTSTYLENAME
350
A20F
  3
ACAD_SCALELIST
350
A246
  3
ACAD_SECTIONVIEWSTYLE
350
A25A
  3
ACAD_TABLESTYLE
350
A244
  3
ACAD_VISUALSTYLE
350
A22A
  3
ACDB_RECOMPOSE_DATA
350
A27F
  3
AcDbVariableDictionary
350
A272
  3
DWGPROPS
350
A280
  0
DICTIONARY
  5
A262
330
A038
100
AcDbDictionary
280
     1
281
     1
  3
ADSK_XREC_LAYER_RECONCILED
360
A263
  0
DICTIONARY
  5
A264
330
A04E
100
AcDbDictionary
280
     1
281
     1
  3
ADSK_XREC_LAYER_RECONCILED
360
A265
  0
DICTIONARY
  5
A266
330
A04F
100
AcDbDictionary
280
     1
281
     1
  3
ADSK_XREC_LAYER_RECONCILED
360
A267
  0
DICTIONARY
  5
A268
330
A050
100
AcDbDictionary
280
     1
281
     1
  3
ADSK_XREC_LAYER_RECONCILED
360
A269
  0
DICTIONARY
  5
A26A
330
A051
100
AcDbDictionary
280
     1
281
     1
  3
ADSK_XREC_LAYER_RECONCILED
360
A26B
  0
DICTIONARY
  5
A26C
330
A052
100
AcDbDictionary
280
     1
281
     1
  3
ADSK_XREC_LAYER_RECONCILED
360
A26D
  0
DICTIONARY
  5
A26E
330
A053
100
AcDbDictionary
280
     1
281
     1
  3
ADSK_XREC_LAYER_RECONCILED
360
A26F
  0
DICTIONARY
  5
A270
330
A054
100
AcDbDictionary
280
     1
281
     1
  3
ADSK_XREC_LAYER_RECONCILED
360
A271
  0
DICTIONARY
  5
A20A
330
A046
100
AcDbDictionary
281
     1
  3
ACAD_LAYOUTSELFREF
350
A20B
  0
DICTIONARY
  5
A208
330
A042
100
AcDbDictionary
281
     1
  3
ACAD_LAYOUTSELFREF
350
A209
  0
XRECORD
  5
A261
102
{ACAD_REACTORS
330
A034
102
}
330
A034
100
AcDbXrecord
280
     1
300
ACDLT
300
2014
300
ACDLT_F_S
  0
DICTIONARY
  5
A243
102
{ACAD_REACTORS
330
A034
102
}
330
A034
100
AcDbDictionary
281
     1
  0
DICTIONARY
  5
A25C
102
{ACAD_REACTORS
330
A034
102
}
330
A034
100
AcDbDictionary
281
     1
  3
Imperial24
350
A25D
  0
DICTIONARY
  5
A035
102
{ACAD_REACTORS
330
A034
102
}
330
A034
100
AcDbDictionary
281
     1
  0
DICTIONARY
  5
A041
102
{ACAD_REACTORS
330
A034
102
}
330
A034
100
AcDbDictionary
281
     1
  3
Model
350
A25E
  3
レイアウト1
350
A25F
  0
DICTIONARY
  5
A211
102
{ACAD_REACTORS
330
A034
102
}
330
A034
100
AcDbDictionary
281
     1
  3
ByBlock
350
A21A
  3
ByLayer
350
A212
  3
Global
350
A222
  0
DICTIONARY
  5
A258
102
{ACAD_REACTORS
330
A034
102
}
330
A034
100
AcDbDictionary
281
     1
  3
Standard
350
A259
  0
DICTIONARY
  5
A03E
102
{ACAD_REACTORS
330
A034
102
}
330
A034
100
AcDbDictionary
281
     1
  3
STANDARD
350
A03F
  0
DICTIONARY
  5
A040
102
{ACAD_REACTORS
330
A034
102
}
330
A034
100
AcDbDictionary
281
     1
  0
ACDBDICTIONARYWDFLT
  5
A20F
102
{ACAD_REACTORS
330
A034
102
}
330
A034
100
AcDbDictionary
281
     1
  3
Normal
350
A210
100
AcDbDictionaryWithDefault
340
A210
  0
DICTIONARY
  5
A246
102
{ACAD_REACTORS
330
A034
102
}
330
A034
100
AcDbDictionary
281
     1
  3
A0
350
A247
  3
A1
350
A248
  3
A2
350
A249
  3
A3
350
A24A
  3
A4
350
A24B
  3
A5
350
A24C
  3
A6
350
A24D
  3
A7
350
A24E
  3
A8
350
A24F
  3
A9
350
A250
  3
B0
350
A251
  3
B1
350
A252
  3
B2
350
A253
  3
B3
350
A254
  3
B4
350
A255
  3
B5
350
A256
  3
B6
350
A257
  0
DICTIONARY
  5
A25A
102
{ACAD_REACTORS
330
A034
102
}
330
A034
100
AcDbDictionary
281
     1
  3
Imperial24
350
A25B
  0
DICTIONARY
  5
A244
102
{ACAD_REACTORS
330
A034
102
}
330
A034
100
AcDbDictionary
281
     1
  3
Standard
350
A245
  0
DICTIONARY
  5
A22A
102
{ACAD_REACTORS
330
A034
102
}
330
A034
100
AcDbDictionary
281
     1
  3
2dWireframe
350
A230
  3
Basic
350
A22F
  3
Brighten
350
A236
  3
ColorChange
350
A23A
  3
Conceptual
350
A233
  3
Dim
350
A235
  3
EdgeColorOff
350
A242
  3
Facepattern
350
A239
  3
Flat
350
A22B
  3
FlatWithEdges
350
A22C
  3
Gouraud
350
A22D
  3
GouraudWithEdges
350
A22E
  3
Hidden
350
A232
  3
JitterOff
350
A240
  3
Linepattern
350
A238
  3
OverhangOff
350
A241
  3
Realistic
350
A234
  3
Shaded
350
A23F
  3
Shaded with edges
350
A23E
  3
Shades of Gray
350
A23B
  3
Sketchy
350
A23C
  3
Thicken
350
A237
  3
Wireframe
350
A231
  3
X-Ray
350
A23D
  0
XRECORD
  5
A27F
102
{ACAD_REACTORS
330
A034
102
}
330
A034
100
AcDbXrecord
280
     1
 90
        1
330
A245
  0
DICTIONARY
  5
A272
102
{ACAD_REACTORS
330
A034
102
}
330
A034
100
AcDbDictionary
281
     1
  3
CANNOSCALE
350
A277
  3
CMLEADERSTYLE
350
A274
  3
CTABLESTYLE
350
A273
  3
CVIEWDETAILSTYLE
350
A275
  3
CVIEWSECTIONSTYLE
350
A276
  3
DIMASSOC
350
A27A
  3
INDEXCTL
350
A279
  3
SORTENTS
350
A278
  3
XCLIPFRAME
350
A27B
  0
XRECORD
  5
A280
102
{ACAD_REACTORS
330
A034
102
}
330
A034
100
AcDbXrecord
280
     1
  1
DWGPROPS COOKIE
  2

  3

  4

  6

  7

  8
Yoshitsune
  9

300
=
301
=
302
=
303
=
304
=
305
=
306
=
307
=
308
=
309
=
 40
0.0000140046296296
 41
2451073.575598727
 42
2457192.622589849
  1

 90
        0
  0
XRECORD
  5
A263
102
{ACAD_REACTORS
330
A262
102
}
330
A262
100
AcDbXrecord
280
     1
290
     1
  0
XRECORD
  5
A265
102
{ACAD_REACTORS
330
A264
102
}
330
A264
100
AcDbXrecord
280
     1
290
     1
  0
XRECORD
  5
A267
102
{ACAD_REACTORS
330
A266
102
}
330
A266
100
AcDbXrecord
280
     1
290
     1
  0
XRECORD
  5
A269
102
{ACAD_REACTORS
330
A268
102
}
330
A268
100
AcDbXrecord
280
     1
290
     1
  0
XRECORD
  5
A26B
102
{ACAD_REACTORS
330
A26A
102
}
330
A26A
100
AcDbXrecord
280
     1
290
     1
  0
XRECORD
  5
A26D
102
{ACAD_REACTORS
330
A26C
102
}
330
A26C
100
AcDbXrecord
280
     1
290
     1
  0
XRECORD
  5
A26F
102
{ACAD_REACTORS
330
A26E
102
}
330
A26E
100
AcDbXrecord
280
     1
290
     1
  0
XRECORD
  5
A271
102
{ACAD_REACTORS
330
A270
102
}
330
A270
100
AcDbXrecord
280
     1
290
     1
  0
XRECORD
  5
A20B
102
{ACAD_REACTORS
330
A20A
102
}
330
A20A
100
AcDbXrecord
280
     1
340
A046
  0
XRECORD
  5
A209
102
{ACAD_REACTORS
330
A208
102
}
330
A208
100
AcDbXrecord
280
     1
340
A042
  0
ACDBDETAILVIEWSTYLE
  5
A25D
102
{ACAD_XDICTIONARY
360
A2B8
102
}
102
{ACAD_REACTORS
330
A25C
102
}
330
A25C
100
AcDbModelDocViewStyle
 70
     0
  3
Imperial24
290
     0
100
AcDbDetailViewStyle
 70
     0
 71
     0
 90
        3
 71
     1
340
A039
 40
0.24
340
0
 40
0.24
300

 40
0.36
280
     3
 71
     2
340
A03D
 90
       25
 71
     3
340
A039
 40
0.24
 90
        1
 40
0.75
 90
        1
300
%<\AcVar ViewType \f "%tc1">% %<\AcVar ViewDetailId>%\PSCALE %<\AcVar ViewScale \f "%sn">%
 71
     4
340
A03D
 90
       25
340
A03D
 90
       25
280
     0
  0
LAYOUT
  5
A25E
102
{ACAD_XDICTIONARY
360
A2BA
102
}
102
{ACAD_REACTORS
330
A041
102
}
330
A041
100
AcDbPlotSettings
  1

  2
Canon LBP9100C
  4

  6

 40
0.0
 41
0.0
 42
0.0
 43
0.0
 44
0.0
 45
0.0
 46
0.0
 47
0.0
 48
0.0
 49
0.0
140
0.0
141
0.0
142
1.0
143
1.0
 70
  1712
 72
     0
 73
     0
 74
     0
  7

 75
     0
147
1.0
148
0.0
149
0.0
100
AcDbLayout
  1
Model
 70
     1
 71
     0
 10
0.0
 20
0.0
 11
12.0
 21
9.0
 12
0.0
 22
0.0
 32
0.0
 14
0.0
 24
0.0
 34
0.0
 15
0.0
 25
0.0
 35
0.0
146
0.0
 13
0.0
 23
0.0
 33
0.0
 16
1.0
 26
0.0
 36
0.0
 17
0.0
 27
1.0
 37
0.0
 76
     0
330
A046
331
A207
  0
LAYOUT
  5
A25F
102
{ACAD_XDICTIONARY
360
A2BC
102
}
102
{ACAD_REACTORS
330
A041
102
}
330
A041
100
AcDbPlotSettings
  1

  2
Canon LBP9100C
  4

  6

 40
0.0
 41
0.0
 42
0.0
 43
0.0
 44
0.0
 45
0.0
 46
0.0
 47
0.0
 48
0.0
 49
0.0
140
0.0
141
0.0
142
1.0
143
1.0
 70
   688
 72
     0
 73
     0
 74
     5
  7

 75
    16
147
1.0
148
0.0
149
0.0
100
AcDbLayout
  1
レイアウト1
 70
     0
 71
     1
 10
0.0
 20
0.0
 11
420.0
 21
297.0
 12
0.0
 22
0.0
 32
0.0
 14
1.000000000000000E+20
 24
1.000000000000000E+20
 34
1.000000000000000E+20
 15
-1.000000000000000E+20
 25
-1.000000000000000E+20
 35
-1.000000000000000E+20
146
0.0
 13
0.0
 23
0.0
 33
0.0
 16
1.0
 26
0.0
 36
0.0
 17
0.0
 27
1.0
 37
0.0
 76
     0
330
A042
  0
MATERIAL
  5
A21A
102
{ACAD_XDICTIONARY
360
A21B
102
}
102
{ACAD_REACTORS
330
A211
102
}
330
A211
100
AcDbMaterial
  1
ByBlock
 72
     0
 43
0.0208333333333333
 43
0.0
 43
0.0
 43
0.0
 43
0.0
 43
0.0208333333333333
 43
0.0
 43
0.0
 43
0.0
 43
0.0
 43
1.0
 43
0.0
 43
0.0
 43
0.0
 43
0.0
 43
1.0
 77
     0
 47
0.0208333333333333
 47
0.0
 47
0.0
 47
0.0
 47
0.0
 47
0.0208333333333333
 47
0.0
 47
0.0
 47
0.0
 47
0.0
 47
1.0
 47
0.0
 47
0.0
 47
0.0
 47
0.0
 47
1.0
171
     0
 49
0.0208333333333333
 49
0.0
 49
0.0
 49
0.0
 49
0.0
 49
0.0208333333333333
 49
0.0
 49
0.0
 49
0.0
 49
0.0
 49
1.0
 49
0.0
 49
0.0
 49
0.0
 49
0.0
 49
1.0
175
     0
142
0.0208333333333333
142
0.0
142
0.0
142
0.0
142
0.0
142
0.0208333333333333
142
0.0
142
0.0
142
0.0
142
0.0
142
1.0
142
0.0
142
0.0
142
0.0
142
0.0
142
1.0
179
     0
144
0.0208333333333333
144
0.0
144
0.0
144
0.0
144
0.0
144
0.0208333333333333
144
0.0
144
0.0
144
0.0
144
0.0
144
1.0
144
0.0
144
0.0
144
0.0
144
0.0
144
1.0
147
0.0208333333333333
147
0.0
147
0.0
147
0.0
147
0.0
147
0.0208333333333333
147
0.0
147
0.0
147
0.0
147
0.0
147
1.0
147
0.0
147
0.0
147
0.0
147
0.0
147
1.0
  0
MATERIAL
  5
A212
102
{ACAD_XDICTIONARY
360
A213
102
}
102
{ACAD_REACTORS
330
A211
102
}
330
A211
100
AcDbMaterial
  1
ByLayer
 72
     0
 43
0.0208333333333333
 43
0.0
 43
0.0
 43
0.0
 43
0.0
 43
0.0208333333333333
 43
0.0
 43
0.0
 43
0.0
 43
0.0
 43
1.0
 43
0.0
 43
0.0
 43
0.0
 43
0.0
 43
1.0
 77
     0
 47
0.0208333333333333
 47
0.0
 47
0.0
 47
0.0
 47
0.0
 47
0.0208333333333333
 47
0.0
 47
0.0
 47
0.0
 47
0.0
 47
1.0
 47
0.0
 47
0.0
 47
0.0
 47
0.0
 47
1.0
171
     0
 49
0.0208333333333333
 49
0.0
 49
0.0
 49
0.0
 49
0.0
 49
0.0208333333333333
 49
0.0
 49
0.0
 49
0.0
 49
0.0
 49
1.0
 49
0.0
 49
0.0
 49
0.0
 49
0.0
 49
1.0
175
     0
142
0.0208333333333333
142
0.0
142
0.0
142
0.0
142
0.0
142
0.0208333333333333
142
0.0
142
0.0
142
0.0
142
0.0
142
1.0
142
0.0
142
0.0
142
0.0
142
0.0
142
1.0
179
     0
144
0.0208333333333333
144
0.0
144
0.0
144
0.0
144
0.0
144
0.0208333333333333
144
0.0
144
0.0
144
0.0
144
0.0
144
1.0
144
0.0
144
0.0
144
0.0
144
0.0
144
1.0
147
0.0208333333333333
147
0.0
147
0.0
147
0.0
147
0.0
147
0.0208333333333333
147
0.0
147
0.0
147
0.0
147
0.0
147
1.0
147
0.0
147
0.0
147
0.0
147
0.0
147
1.0
  0
MATERIAL
  5
A222
102
{ACAD_XDICTIONARY
360
A223
102
}
102
{ACAD_REACTORS
330
A211
102
}
330
A211
100
AcDbMaterial
  1
Global
 72
     0
 43
0.0208333333333333
 43
0.0
 43
0.0
 43
0.0
 43
0.0
 43
0.0208333333333333
 43
0.0
 43
0.0
 43
0.0
 43
0.0
 43
1.0
 43
0.0
 43
0.0
 43
0.0
 43
0.0
 43
1.0
 77
     0
 47
0.0208333333333333
 47
0.0
 47
0.0
 47
0.0
 47
0.0
 47
0.0208333333333333
 47
0.0
 47
0.0
 47
0.0
 47
0.0
 47
1.0
 47
0.0
 47
0.0
 47
0.0
 47
0.0
 47
1.0
171
     0
 49
0.0208333333333333
 49
0.0
 49
0.0
 49
0.0
 49
0.0
 49
0.0208333333333333
 49
0.0
 49
0.0
 49
0.0
 49
0.0
 49
1.0
 49
0.0
 49
0.0
 49
0.0
 49
0.0
 49
1.0
175
     0
142
0.0208333333333333
142
0.0
142
0.0
142
0.0
142
0.0
142
0.0208333333333333
142
0.0
142
0.0
142
0.0
142
0.0
142
1.0
142
0.0
142
0.0
142
0.0
142
0.0
142
1.0
179
     0
144
0.0208333333333333
144
0.0
144
0.0
144
0.0
144
0.0
144
0.0208333333333333
144
0.0
144
0.0
144
0.0
144
0.0
144
1.0
144
0.0
144
0.0
144
0.0
144
0.0
144
1.0
147
0.0208333333333333
147
0.0
147
0.0
147
0.0
147
0.0
147
0.0208333333333333
147
0.0
147
0.0
147
0.0
147
0.0
147
1.0
147
0.0
147
0.0
147
0.0
147
0.0
147
1.0
  0
MLEADERSTYLE
  5
A259
102
{ACAD_REACTORS
330
A258
102
}
330
A258
100
AcDbMLeaderStyle
170
     2
171
     1
172
     0
 90
        2
 40
0.0
 41
0.0
173
     1
 91
-1056964608
340
A03B
 92
       -2
290
     1
 42
0.09
291
     1
 43
0.36
  3
Standard
 44
0.18
300

342
A039
174
     1
178
     6
175
     1
176
     0
 93
-1056964608
 45
0.18
292
     0
297
     0
 46
0.18
 94
-1056964608
 47
1.0
 49
1.0
140
1.0
293
     1
141
0.0
294
     1
177
     0
142
1.0
295
     0
296
     0
143
0.125
1001
ACAD_MLEADERVER
1070
     2
  0
MLINESTYLE
  5
A03F
102
{ACAD_REACTORS
330
A03E
102
}
330
A03E
100
AcDbMlineStyle
  2
STANDARD
 70
     0
  3

 62
   256
 51
90.0
 52
90.0
 71
     2
 49
0.5
 62
   256
  6
BYLAYER
 49
-0.5
 62
   256
  6
BYLAYER
  0
ACDBPLACEHOLDER
  5
A210
102
{ACAD_REACTORS
330
A20F
102
}
330
A20F
  0
SCALE
  5
A247
102
{ACAD_REACTORS
330
A246
102
}
330
A246
100
AcDbScale
 70
     0
300
1:1
140
1.0
141
1.0
290
     1
  0
SCALE
  5
A248
102
{ACAD_REACTORS
330
A246
102
}
330
A246
100
AcDbScale
 70
     0
300
1/128" = 1'-0"
140
0.0078125
141
12.0
290
     0
  0
SCALE
  5
A249
102
{ACAD_REACTORS
330
A246
102
}
330
A246
100
AcDbScale
 70
     0
300
1/64" = 1'-0"
140
0.015625
141
12.0
290
     0
  0
SCALE
  5
A24A
102
{ACAD_REACTORS
330
A246
102
}
330
A246
100
AcDbScale
 70
     0
300
1/32" = 1'-0"
140
0.03125
141
12.0
290
     0
  0
SCALE
  5
A24B
102
{ACAD_REACTORS
330
A246
102
}
330
A246
100
AcDbScale
 70
     0
300
1/16" = 1'-0"
140
0.0625
141
12.0
290
     0
  0
SCALE
  5
A24C
102
{ACAD_REACTORS
330
A246
102
}
330
A246
100
AcDbScale
 70
     0
300
3/32" = 1'-0"
140
0.09375
141
12.0
290
     0
  0
SCALE
  5
A24D
102
{ACAD_REACTORS
330
A246
102
}
330
A246
100
AcDbScale
 70
     0
300
1/8" = 1'-0"
140
0.125
141
12.0
290
     0
  0
SCALE
  5
A24E
102
{ACAD_REACTORS
330
A246
102
}
330
A246
100
AcDbScale
 70
     0
300
3/16" = 1'-0"
140
0.1875
141
12.0
290
     0
  0
SCALE
  5
A24F
102
{ACAD_REACTORS
330
A246
102
}
330
A246
100
AcDbScale
 70
     0
300
1/4" = 1'-0"
140
0.25
141
12.0
290
     0
  0
SCALE
  5
A250
102
{ACAD_REACTORS
330
A246
102
}
330
A246
100
AcDbScale
 70
     0
300
3/8" = 1'-0"
140
0.375
141
12.0
290
     0
  0
SCALE
  5
A251
102
{ACAD_REACTORS
330
A246
102
}
330
A246
100
AcDbScale
 70
     0
300
1/2" = 1'-0"
140
0.5
141
12.0
290
     0
  0
SCALE
  5
A252
102
{ACAD_REACTORS
330
A246
102
}
330
A246
100
AcDbScale
 70
     0
300
3/4" = 1'-0"
140
0.75
141
12.0
290
     0
  0
SCALE
  5
A253
102
{ACAD_REACTORS
330
A246
102
}
330
A246
100
AcDbScale
 70
     0
300
1" = 1'-0"
140
1.0
141
12.0
290
     0
  0
SCALE
  5
A254
102
{ACAD_REACTORS
330
A246
102
}
330
A246
100
AcDbScale
 70
     0
300
1-1/2" = 1'-0"
140
1.5
141
12.0
290
     0
  0
SCALE
  5
A255
102
{ACAD_REACTORS
330
A246
102
}
330
A246
100
AcDbScale
 70
     0
300
3" = 1'-0"
140
3.0
141
12.0
290
     0
  0
SCALE
  5
A256
102
{ACAD_REACTORS
330
A246
102
}
330
A246
100
AcDbScale
 70
     0
300
6" = 1'-0"
140
6.0
141
12.0
290
     0
  0
SCALE
  5
A257
102
{ACAD_REACTORS
330
A246
102
}
330
A246
100
AcDbScale
 70
     0
300
1'-0" = 1'-0"
140
12.0
141
12.0
290
     0
  0
ACDBSECTIONVIEWSTYLE
  5
A25B
102
{ACAD_XDICTIONARY
360
A2B6
102
}
102
{ACAD_REACTORS
330
A25A
102
}
330
A25A
100
AcDbModelDocViewStyle
 70
     0
  3
Imperial24
290
     0
100
AcDbSectionViewStyle
 70
     0
 71
     0
 90
       78
 71
     1
340
A039
 40
0.24
340
0
340
0
 40
0.24
300
I, O, Q, S, X, Z
 40
0.48
 90
        3
 40
0.18
 90
        1
 71
     2
340
A03D
 90
       25
340
A03D
 90
       50
 40
0.24
 40
0.0
 40
0.24
 71
     3
340
A039
 40
0.24
 90
        1
 40
0.75
 90
        1
300
%<\AcVar ViewType \f "%tc1">% %<\AcVar ViewSectionStartId>%-%<\AcVar ViewSectionEndId>%\PSCALE %<\AcVar ViewScale \f "%sn">%
 71
     4
300
ANSI31
 40
1.0
 90
        0
290
     0
290
     0
 90
        6
 40
0.0
 40
1.570796326794896
 40
0.2617993877991494
 40
1.308996938995747
 40
-0.2617993877991494
 40
1.832595714594046
  0
TABLESTYLE
  5
A245
102
{ACAD_XDICTIONARY
360
A27D
102
}
102
{ACAD_REACTORS
330
A244
102
}
330
A244
100
AcDbTableStyle
  3
Standard
 70
     0
 71
     0
 40
0.06
 41
0.06
280
     0
281
     0
  7
STANDARD
140
0.18
170
     2
 62
     0
 63
     7
283
     0
274
    -2
284
     1
 64
     0
275
    -2
285
     1
 65
     0
276
    -2
286
     1
 66
     0
277
    -2
287
     1
 67
     0
278
    -2
288
     1
 68
     0
279
    -2
289
     1
 69
     0
  7
STANDARD
140
0.25
170
     5
 62
     0
 63
     7
283
     0
274
    -2
284
     1
 64
     0
275
    -2
285
     1
 65
     0
276
    -2
286
     1
 66
     0
277
    -2
287
     1
 67
     0
278
    -2
288
     1
 68
     0
279
    -2
289
     1
 69
     0
  7
STANDARD
140
0.18
170
     5
 62
     0
 63
     7
283
     0
274
    -2
284
     1
 64
     0
275
    -2
285
     1
 65
     0
276
    -2
286
     1
 66
     0
277
    -2
287
     1
 67
     0
278
    -2
288
     1
 68
     0
279
    -2
289
     1
 69
     0
  0
VISUALSTYLE
  5
A230
102
{ACAD_XDICTIONARY
360
A28E
102
}
102
{ACAD_REACTORS
330
A22A
102
}
330
A22A
100
AcDbVisualStyle
  2
2dWireframe
 70
     4
 71
     0
 72
     2
 73
     0
 90
        0
 40
-0.6
 41
-30.0
 62
     5
 63
     7
 74
     1
 91
        4
 64
     7
 65
   257
 75
     1
175
     1
 42
1.0
 92
        0
 66
   257
 43
1.0
 76
     1
 77
     6
 78
     2
 67
     7
 79
     5
170
     0
171
     0
290
     0
174
     0
 93
        1
 44
0.0
173
     0
291
     0
 45
0.0
1001
ACAD
1000
AcDbSavedByObjectVersion
1070
     0
  0
VISUALSTYLE
  5
A22F
102
{ACAD_XDICTIONARY
360
A28C
102
}
102
{ACAD_REACTORS
330
A22A
102
}
330
A22A
100
AcDbVisualStyle
  2
Basic
 70
     7
 71
     1
 72
     0
 73
     1
 90
        0
 40
-0.6
 41
-30.0
 62
     5
 63
     7
 74
     0
 91
        4
 64
     7
 65
   257
 75
     1
175
     1
 42
1.0
 92
        8
 66
     7
 43
1.0
 76
     1
 77
     6
 78
     2
 67
     7
 79
     5
170
     0
171
     0
290
     0
174
     0
 93
        1
 44
0.0
173
     0
291
     1
 45
0.0
1001
ACAD
1000
AcDbSavedByObjectVersion
1070
     0
  0
VISUALSTYLE
  5
A236
102
{ACAD_XDICTIONARY
360
A29A
102
}
102
{ACAD_REACTORS
330
A22A
102
}
330
A22A
100
AcDbVisualStyle
  2
Brighten
 70
    12
 71
     2
 72
     2
 73
     0
 90
        0
 40
-0.6
 41
-30.0
 62
     5
 63
     7
 74
     1
 91
        4
 64
     7
 65
   257
 75
     1
175
     1
 42
1.0
 92
        8
 66
     7
 43
1.0
 76
     1
 77
     6
 78
     2
 67
     7
 79
     5
170
     0
171
     0
290
     0
174
     0
 93
        1
 44
50.0
173
     0
291
     1
 45
0.0
1001
ACAD
1000
AcDbSavedByObjectVersion
1070
     0
  0
VISUALSTYLE
  5
A23A
102
{ACAD_XDICTIONARY
360
A2A2
102
}
102
{ACAD_REACTORS
330
A22A
102
}
330
A22A
100
AcDbVisualStyle
  2
ColorChange
 70
    16
 71
     2
 72
     2
 73
     3
 90
        0
 40
-0.6
 41
-30.0
 62
     5
 63
     8
 74
     1
 91
        4
 64
     7
 65
   257
 75
     1
175
     1
 42
1.0
 92
        8
 66
     8
 43
1.0
 76
     1
 77
     6
 78
     2
 67
     7
 79
     5
170
     0
171
     0
290
     0
174
     0
 93
        1
 44
0.0
173
     0
291
     1
 45
0.0
1001
ACAD
1000
AcDbSavedByObjectVersion
1070
     0
  0
VISUALSTYLE
  5
A233
102
{ACAD_XDICTIONARY
360
A294
102
}
102
{ACAD_REACTORS
330
A22A
102
}
330
A22A
100
AcDbVisualStyle
  2
Conceptual
 70
     9
 71
     3
 72
     2
 73
     0
 90
        0
 40
-0.6
 41
-30.0
 62
     5
 63
     7
 74
     2
 91
        2
 64
     7
 65
   257
 75
     1
175
     1
 42
179.0
 92
        8
 66
     7
 43
1.0
 76
     1
 77
     6
 78
     2
 67
     7
 79
     3
170
     0
171
     0
290
     0
174
     0
 93
        1
 44
0.0
173
     0
291
     0
 45
0.0
1001
ACAD
1000
AcDbSavedByObjectVersion
1070
     0
  0
VISUALSTYLE
  5
A235
102
{ACAD_XDICTIONARY
360
A298
102
}
102
{ACAD_REACTORS
330
A22A
102
}
330
A22A
100
AcDbVisualStyle
  2
Dim
 70
    11
 71
     2
 72
     2
 73
     0
 90
        0
 40
-0.6
 41
-30.0
 62
     5
 63
     7
 74
     1
 91
        4
 64
     7
 65
   257
 75
     1
175
     1
 42
1.0
 92
        8
 66
     7
 43
1.0
 76
     1
 77
     6
 78
     2
 67
     7
 79
     5
170
     0
171
     0
290
     0
174
     0
 93
        1
 44
-50.0
173
     0
291
     1
 45
0.0
1001
ACAD
1000
AcDbSavedByObjectVersion
1070
     0
  0
VISUALSTYLE
  5
A242
102
{ACAD_XDICTIONARY
360
A2B2
102
}
102
{ACAD_REACTORS
330
A22A
102
}
330
A22A
100
AcDbVisualStyle
  2
EdgeColorOff
 70
    22
 71
     2
 72
     2
 73
     0
 90
        0
 40
-0.6
 41
-30.0
 62
     5
 63
     7
 74
     1
 91
        4
 64
     7
 65
   257
 75
     1
175
     1
 42
1.0
 92
        8
 66
     7
 43
1.0
 76
     1
 77
     6
 78
     2
 67
     7
 79
     5
170
     0
171
     0
290
     0
174
     0
 93
        1
 44
0.0
173
     0
291
     1
 45
0.0
1001
ACAD
1000
AcDbSavedByObjectVersion
1070
     0
  0
VISUALSTYLE
  5
A239
102
{ACAD_XDICTIONARY
360
A2A0
102
}
102
{ACAD_REACTORS
330
A22A
102
}
330
A22A
100
AcDbVisualStyle
  2
Facepattern
 70
    15
 71
     2
 72
     2
 73
     0
 90
        0
 40
-0.6
 41
-30.0
 62
     5
 63
     7
 74
     1
 91
        4
 64
     7
 65
   257
 75
     1
175
     1
 42
1.0
 92
        8
 66
     7
 43
1.0
 76
     1
 77
     6
 78
     2
 67
     7
 79
     5
170
     0
171
     0
290
     0
174
     0
 93
        1
 44
0.0
173
     0
291
     1
 45
0.0
1001
ACAD
1000
AcDbSavedByObjectVersion
1070
     0
  0
VISUALSTYLE
  5
A22B
102
{ACAD_XDICTIONARY
360
A284
102
}
102
{ACAD_REACTORS
330
A22A
102
}
330
A22A
100
AcDbVisualStyle
  2
Flat
 70
     0
 71
     2
 72
     1
 73
     1
 90
        2
 40
-0.6
 41
30.0
 62
     5
 63
     7
 74
     0
 91
        0
 64
     7
 65
   257
 75
     1
175
     1
 42
1.0
 92
        8
 66
     7
 43
1.0
 76
     1
 77
     6
 78
     2
 67
     7
 79
     5
170
     0
171
     0
290
     0
174
     0
 93
       13
 44
0.0
173
     0
291
     1
 45
0.0
1001
ACAD
1000
AcDbSavedByObjectVersion
1070
     0
  0
VISUALSTYLE
  5
A22C
102
{ACAD_XDICTIONARY
360
A286
102
}
102
{ACAD_REACTORS
330
A22A
102
}
330
A22A
100
AcDbVisualStyle
  2
FlatWithEdges
 70
     1
 71
     2
 72
     1
 73
     1
 90
        2
 40
-0.6
 41
30.0
 62
     5
 63
     7
 74
     1
 91
        0
 64
     7
 65
   257
 75
     1
175
     1
 42
1.0
 92
        0
 66
   257
 43
1.0
 76
     1
 77
     6
 78
     2
 67
     7
 79
     5
170
     0
171
     0
290
     0
174
     0
 93
       13
 44
0.0
173
     0
291
     1
 45
0.0
1001
ACAD
1000
AcDbSavedByObjectVersion
1070
     0
  0
VISUALSTYLE
  5
A22D
102
{ACAD_XDICTIONARY
360
A288
102
}
102
{ACAD_REACTORS
330
A22A
102
}
330
A22A
100
AcDbVisualStyle
  2
Gouraud
 70
     2
 71
     2
 72
     2
 73
     1
 90
        2
 40
-0.6
 41
30.0
 62
     5
 63
     7
 74
     0
 91
        0
 64
     7
 65
   257
 75
     1
175
     1
 42
1.0
 92
        0
 66
     7
 43
1.0
 76
     1
 77
     6
 78
     2
 67
     7
 79
     5
170
     0
171
     0
290
     0
174
     0
 93
       13
 44
0.0
173
     0
291
     1
 45
0.0
1001
ACAD
1000
AcDbSavedByObjectVersion
1070
     0
  0
VISUALSTYLE
  5
A22E
102
{ACAD_XDICTIONARY
360
A28A
102
}
102
{ACAD_REACTORS
330
A22A
102
}
330
A22A
100
AcDbVisualStyle
  2
GouraudWithEdges
 70
     3
 71
     2
 72
     2
 73
     1
 90
        2
 40
-0.6
 41
30.0
 62
     5
 63
     7
 74
     1
 91
        0
 64
     7
 65
   257
 75
     1
175
     1
 42
1.0
 92
        0
 66
   257
 43
1.0
 76
     1
 77
     6
 78
     2
 67
     7
 79
     5
170
     0
171
     0
290
     0
174
     0
 93
       13
 44
0.0
173
     0
291
     1
 45
0.0
1001
ACAD
1000
AcDbSavedByObjectVersion
1070
     0
  0
VISUALSTYLE
  5
A232
102
{ACAD_XDICTIONARY
360
A292
102
}
102
{ACAD_REACTORS
330
A22A
102
}
330
A22A
100
AcDbVisualStyle
  2
Hidden
 70
     6
 71
     1
 72
     2
 73
     2
 90
        0
 40
-0.6
 41
-30.0
 62
     5
 63
     7
 74
     2
 91
        2
 64
     7
 65
   257
 75
     2
175
     1
 42
40.0
 92
        0
 66
   257
 43
1.0
 76
     1
 77
     6
 78
     2
 67
     7
 79
     3
170
     0
171
     0
290
     0
174
     0
 93
        1
 44
0.0
173
     0
291
     0
 45
0.0
1001
ACAD
1000
AcDbSavedByObjectVersion
1070
     0
  0
VISUALSTYLE
  5
A240
102
{ACAD_XDICTIONARY
360
A2AE
102
}
102
{ACAD_REACTORS
330
A22A
102
}
330
A22A
100
AcDbVisualStyle
  2
JitterOff
 70
    20
 71
     2
 72
     2
 73
     0
 90
        0
 40
-0.6
 41
-30.0
 62
     5
 63
     7
 74
     1
 91
        4
 64
     7
 65
   257
 75
     1
175
     1
 42
1.0
 92
       10
 66
     7
 43
1.0
 76
     1
 77
     6
 78
     2
 67
     7
 79
     5
170
     0
171
     0
290
     0
174
     0
 93
        1
 44
0.0
173
     0
291
     1
 45
0.0
1001
ACAD
1000
AcDbSavedByObjectVersion
1070
     0
  0
VISUALSTYLE
  5
A238
102
{ACAD_XDICTIONARY
360
A29E
102
}
102
{ACAD_REACTORS
330
A22A
102
}
330
A22A
100
AcDbVisualStyle
  2
Linepattern
 70
    14
 71
     2
 72
     2
 73
     0
 90
        0
 40
-0.6
 41
-30.0
 62
     5
 63
     7
 74
     1
 91
        4
 64
     7
 65
   257
 75
     7
175
     7
 42
1.0
 92
        8
 66
     7
 43
1.0
 76
     1
 77
     6
 78
     2
 67
     7
 79
     5
170
     0
171
     0
290
     0
174
     0
 93
        1
 44
0.0
173
     0
291
     1
 45
0.0
1001
ACAD
1000
AcDbSavedByObjectVersion
1070
     0
  0
VISUALSTYLE
  5
A241
102
{ACAD_XDICTIONARY
360
A2B0
102
}
102
{ACAD_REACTORS
330
A22A
102
}
330
A22A
100
AcDbVisualStyle
  2
OverhangOff
 70
    21
 71
     2
 72
     2
 73
     0
 90
        0
 40
-0.6
 41
-30.0
 62
     5
 63
     7
 74
     1
 91
        4
 64
     7
 65
   257
 75
     1
175
     1
 42
1.0
 92
        9
 66
     7
 43
1.0
 76
     1
 77
     6
 78
     2
 67
     7
 79
     5
170
     0
171
     0
290
     0
174
     0
 93
        1
 44
0.0
173
     0
291
     1
 45
0.0
1001
ACAD
1000
AcDbSavedByObjectVersion
1070
     0
  0
VISUALSTYLE
  5
A234
102
{ACAD_XDICTIONARY
360
A296
102
}
102
{ACAD_REACTORS
330
A22A
102
}
330
A22A
100
AcDbVisualStyle
  2
Realistic
 70
     8
 71
     2
 72
     3
 73
     0
 90
        2
 40
-0.6
 41
30.0
 62
     5
 63
     7
 74
     0
 91
        0
 64
     7
 65
   257
 75
     1
175
     1
 42
1.0
 92
        8
 66
   257
 43
1.0
 76
     1
 77
     6
 78
     2
 67
     7
 79
     3
170
     0
171
     0
290
     0
174
     0
 93
       13
 44
0.0
173
     0
291
     0
 45
0.0
1001
ACAD
1000
AcDbSavedByObjectVersion
1070
     0
  0
VISUALSTYLE
  5
A23F
102
{ACAD_XDICTIONARY
360
A2AC
102
}
102
{ACAD_REACTORS
330
A22A
102
}
330
A22A
100
AcDbVisualStyle
  2
Shaded
 70
    27
 71
     2
 72
     2
 73
     1
 90
        2
 40
-0.6
 41
30.0
 62
     5
 63
     7
 74
     0
 91
        4
 64
     7
 65
   257
 75
     1
175
     1
 42
1.0
 92
        8
 66
   257
 43
1.0
 76
     1
 77
     6
 78
     2
 67
     8
 79
     3
170
     0
171
     0
290
     0
174
     0
 93
        5
 44
0.0
173
     0
291
     0
 45
0.0
1001
ACAD
1000
AcDbSavedByObjectVersion
1070
     0
  0
VISUALSTYLE
  5
A23E
102
{ACAD_XDICTIONARY
360
A2AA
102
}
102
{ACAD_REACTORS
330
A22A
102
}
330
A22A
100
AcDbVisualStyle
  2
Shaded with edges
 70
    26
 71
     2
 72
     2
 73
     1
 90
        2
 40
-0.6
 41
30.0
 62
     5
 63
     7
 74
     1
 91
       10
 64
     7
 65
   257
 75
     2
175
     1
 42
1.0
 92
        8
 66
   257
 43
1.0
 76
     1
 77
     6
 78
     2
 67
     7
 79
     3
170
     0
171
     0
290
     0
174
     0
 93
        5
 44
0.0
173
     0
291
     0
 45
0.0
1001
ACAD
1000
AcDbSavedByObjectVersion
1070
     0
  0
VISUALSTYLE
  5
A23B
102
{ACAD_XDICTIONARY
360
A2A4
102
}
102
{ACAD_REACTORS
330
A22A
102
}
330
A22A
100
AcDbVisualStyle
  2
Shades of Gray
 70
    23
 71
     2
 72
     2
 73
     3
 90
        0
 40
-0.6
 41
-30.0
 62
     5
 63
     7
 74
     2
 91
        2
 64
     7
 65
     7
 75
     1
175
     1
 42
40.0
 92
        8
 66
     7
 43
1.0
 76
     1
 77
     6
 78
     2
 67
     7
 79
     3
170
     0
171
     0
290
     0
174
     0
 93
        1
 44
0.0
173
     0
291
     0
 45
0.0
1001
ACAD
1000
AcDbSavedByObjectVersion
1070
     0
  0
VISUALSTYLE
  5
A23C
102
{ACAD_XDICTIONARY
360
A2A6
102
}
102
{ACAD_REACTORS
330
A22A
102
}
330
A22A
100
AcDbVisualStyle
  2
Sketchy
 70
    24
 71
     1
 72
     2
 73
     2
 90
        0
 40
-0.6
 41
-30.0
 62
     5
 63
     7
 74
     2
 91
        2
 64
     7
 65
     7
 75
     1
175
     1
 42
40.0
 92
       11
 66
     7
 43
1.0
 76
     1
 77
     6
 78
     2
 67
     7
 79
     6
170
     0
171
     0
290
     0
174
     0
 93
        1
 44
0.0
173
     0
291
     0
 45
0.0
1001
ACAD
1000
AcDbSavedByObjectVersion
1070
     0
  0
VISUALSTYLE
  5
A237
102
{ACAD_XDICTIONARY
360
A29C
102
}
102
{ACAD_REACTORS
330
A22A
102
}
330
A22A
100
AcDbVisualStyle
  2
Thicken
 70
    13
 71
     2
 72
     2
 73
     0
 90
        0
 40
-0.6
 41
-30.0
 62
     5
 63
     7
 74
     1
 91
        4
 64
     7
 65
   257
 75
     1
175
     1
 42
1.0
 92
       12
 66
     7
 43
1.0
 76
     1
 77
     6
 78
     2
 67
     7
 79
     5
170
     0
171
     0
290
     0
174
     0
 93
        1
 44
0.0
173
     0
291
     1
 45
0.0
1001
ACAD
1000
AcDbSavedByObjectVersion
1070
     0
  0
VISUALSTYLE
  5
A231
102
{ACAD_XDICTIONARY
360
A290
102
}
102
{ACAD_REACTORS
330
A22A
102
}
330
A22A
100
AcDbVisualStyle
  2
Wireframe
 70
     5
 71
     0
 72
     2
 73
     0
 90
        0
 40
-0.6
 41
-30.0
 62
     5
 63
     7
 74
     1
 91
        4
 64
     7
 65
   257
 75
     1
175
     1
 42
1.0
 92
        0
 66
   257
 43
1.0
 76
     1
 77
     6
 78
     2
 67
     7
 79
     3
170
     0
171
     0
290
     0
174
     0
 93
        1
 44
0.0
173
     0
291
     0
 45
0.0
1001
ACAD
1000
AcDbSavedByObjectVersion
1070
     0
  0
VISUALSTYLE
  5
A23D
102
{ACAD_XDICTIONARY
360
A2A8
102
}
102
{ACAD_REACTORS
330
A22A
102
}
330
A22A
100
AcDbVisualStyle
  2
X-Ray
 70
    25
 71
     2
 72
     2
 73
     1
 90
        1
 40
0.5
 41
-30.0
 62
     5
 63
     7
 74
     1
 91
        0
 64
     7
 65
   257
 75
     1
175
     1
 42
1.0
 92
        8
 66
     7
 43
1.0
 76
     1
 77
     6
 78
     2
 67
     7
 79
     3
170
     0
171
     0
290
     0
174
     0
 93
       13
 44
0.0
173
     0
291
     0
 45
0.0
1001
ACAD
1000
AcDbSavedByObjectVersion
1070
     0
  0
DICTIONARYVAR
  5
A277
102
{ACAD_REACTORS
330
A272
102
}
330
A272
100
DictionaryVariables
280
     0
  1
1:1
  0
DICTIONARYVAR
  5
A274
102
{ACAD_REACTORS
330
A272
102
}
330
A272
100
DictionaryVariables
280
     0
  1
STANDARD
  0
DICTIONARYVAR
  5
A273
102
{ACAD_REACTORS
330
A272
102
}
330
A272
100
DictionaryVariables
280
     0
  1
STANDARD
  0
DICTIONARYVAR
  5
A275
102
{ACAD_REACTORS
330
A272
102
}
330
A272
100
DictionaryVariables
280
     0
  1
Imperial24
  0
DICTIONARYVAR
  5
A276
102
{ACAD_REACTORS
330
A272
102
}
330
A272
100
DictionaryVariables
280
     0
  1
Imperial24
  0
DICTIONARYVAR
  5
A27A
102
{ACAD_REACTORS
330
A272
102
}
330
A272
100
DictionaryVariables
280
     0
  1
1
  0
DICTIONARYVAR
  5
A279
102
{ACAD_REACTORS
330
A272
102
}
330
A272
100
DictionaryVariables
280
     0
  1
0
  0
DICTIONARYVAR
  5
A278
102
{ACAD_REACTORS
330
A272
102
}
330
A272
100
DictionaryVariables
280
     0
  1
127
  0
DICTIONARYVAR
  5
A27B
102
{ACAD_REACTORS
330
A272
102
}
330
A272
100
DictionaryVariables
280
     0
  1
2
  0
DICTIONARY
  5
A2B8
330
A25D
100
AcDbDictionary
280
     1
281
     1
  3
ACAD_XREC_ROUNDTRIP
360
A2B9
  0
DICTIONARY
  5
A2BA
330
A25E
100
AcDbDictionary
280
     1
281
     1
  3
ACAD_XREC_ROUNDTRIP
360
A2BB
  0
DICTIONARY
  5
A2BC
330
A25F
100
AcDbDictionary
280
     1
281
     1
  3
ACAD_XREC_ROUNDTRIP
360
A2BD
  0
DICTIONARY
  5
A21B
330
A21A
100
AcDbDictionary
280
     1
281
     1
  3
ACAD_XREC_ROUNDTRIP
360
A282
  3
BUMPTILE
360
A21D
  3
DIFFUSETILE
360
A21C
  3
OPACITYTILE
360
A220
  3
REFLECTIONTILE
360
A21F
  3
REFRACTIONTILE
360
A221
  3
SPECULARTILE
360
A21E
  0
DICTIONARY
  5
A213
330
A212
100
AcDbDictionary
280
     1
281
     1
  3
ACAD_XREC_ROUNDTRIP
360
A281
  3
BUMPTILE
360
A215
  3
DIFFUSETILE
360
A214
  3
OPACITYTILE
360
A218
  3
REFLECTIONTILE
360
A217
  3
REFRACTIONTILE
360
A219
  3
SPECULARTILE
360
A216
  0
DICTIONARY
  5
A223
330
A222
100
AcDbDictionary
280
     1
281
     1
  3
ACAD_XREC_ROUNDTRIP
360
A283
  3
BUMPTILE
360
A225
  3
DIFFUSETILE
360
A224
  3
OPACITYTILE
360
A228
  3
REFLECTIONTILE
360
A227
  3
REFRACTIONTILE
360
A229
  3
SPECULARTILE
360
A226
  0
DICTIONARY
  5
A2B6
330
A25B
100
AcDbDictionary
280
     1
281
     1
  3
ACAD_XREC_ROUNDTRIP
360
A2B7
  0
DICTIONARY
  5
A27D
330
A245
100
AcDbDictionary
280
     1
281
     1
  3
ACAD_ROUNDTRIP_2008_TABLESTYLE_CELLSTYLEMAP
360
A27E
  3
ACAD_XREC_ROUNDTRIP
360
A2B4
  0
DICTIONARY
  5
A28E
330
A230
100
AcDbDictionary
280
     1
281
     1
  3
ACAD_XREC_ROUNDTRIP
360
A28F
  0
DICTIONARY
  5
A28C
330
A22F
100
AcDbDictionary
280
     1
281
     1
  3
ACAD_XREC_ROUNDTRIP
360
A28D
  0
DICTIONARY
  5
A29A
330
A236
100
AcDbDictionary
280
     1
281
     1
  3
ACAD_XREC_ROUNDTRIP
360
A29B
  0
DICTIONARY
  5
A2A2
330
A23A
100
AcDbDictionary
280
     1
281
     1
  3
ACAD_XREC_ROUNDTRIP
360
A2A3
  0
DICTIONARY
  5
A294
330
A233
100
AcDbDictionary
280
     1
281
     1
  3
ACAD_XREC_ROUNDTRIP
360
A295
  0
DICTIONARY
  5
A298
330
A235
100
AcDbDictionary
280
     1
281
     1
  3
ACAD_XREC_ROUNDTRIP
360
A299
  0
DICTIONARY
  5
A2B2
330
A242
100
AcDbDictionary
280
     1
281
     1
  3
ACAD_XREC_ROUNDTRIP
360
A2B3
  0
DICTIONARY
  5
A2A0
330
A239
100
AcDbDictionary
280
     1
281
     1
  3
ACAD_XREC_ROUNDTRIP
360
A2A1
  0
DICTIONARY
  5
A284
330
A22B
100
AcDbDictionary
280
     1
281
     1
  3
ACAD_XREC_ROUNDTRIP
360
A285
  0
DICTIONARY
  5
A286
330
A22C
100
AcDbDictionary
280
     1
281
     1
  3
ACAD_XREC_ROUNDTRIP
360
A287
  0
DICTIONARY
  5
A288
330
A22D
100
AcDbDictionary
280
     1
281
     1
  3
ACAD_XREC_ROUNDTRIP
360
A289
  0
DICTIONARY
  5
A28A
330
A22E
100
AcDbDictionary
280
     1
281
     1
  3
ACAD_XREC_ROUNDTRIP
360
A28B
  0
DICTIONARY
  5
A292
330
A232
100
AcDbDictionary
280
     1
281
     1
  3
ACAD_XREC_ROUNDTRIP
360
A293
  0
DICTIONARY
  5
A2AE
330
A240
100
AcDbDictionary
280
     1
281
     1
  3
ACAD_XREC_ROUNDTRIP
360
A2AF
  0
DICTIONARY
  5
A29E
330
A238
100
AcDbDictionary
280
     1
281
     1
  3
ACAD_XREC_ROUNDTRIP
360
A29F
  0
DICTIONARY
  5
A2B0
330
A241
100
AcDbDictionary
280
     1
281
     1
  3
ACAD_XREC_ROUNDTRIP
360
A2B1
  0
DICTIONARY
  5
A296
330
A234
100
AcDbDictionary
280
     1
281
     1
  3
ACAD_XREC_ROUNDTRIP
360
A297
  0
DICTIONARY
  5
A2AC
330
A23F
100
AcDbDictionary
280
     1
281
     1
  3
ACAD_XREC_ROUNDTRIP
360
A2AD
  0
DICTIONARY
  5
A2AA
330
A23E
100
AcDbDictionary
280
     1
281
     1
  3
ACAD_XREC_ROUNDTRIP
360
A2AB
  0
DICTIONARY
  5
A2A4
330
A23B
100
AcDbDictionary
280
     1
281
     1
  3
ACAD_XREC_ROUNDTRIP
360
A2A5
  0
DICTIONARY
  5
A2A6
330
A23C
100
AcDbDictionary
280
     1
281
     1
  3
ACAD_XREC_ROUNDTRIP
360
A2A7
  0
DICTIONARY
  5
A29C
330
A237
100
AcDbDictionary
280
     1
281
     1
  3
ACAD_XREC_ROUNDTRIP
360
A29D
  0
DICTIONARY
  5
A290
330
A231
100
AcDbDictionary
280
     1
281
     1
  3
ACAD_XREC_ROUNDTRIP
360
A291
  0
DICTIONARY
  5
A2A8
330
A23D
100
AcDbDictionary
280
     1
281
     1
  3
ACAD_XREC_ROUNDTRIP
360
A2A9
  0
XRECORD
  5
A2B9
102
{ACAD_REACTORS
330
A2B8
102
}
330
A2B8
100
AcDbXrecord
280
     1
102
DISPLAYNAME
  1
Imperial24
102
FLAGS
 90
        0
  0
XRECORD
  5
A2BB
102
{ACAD_REACTORS
330
A2BA
102
}
330
A2BA
100
AcDbXrecord
280
     1
102
SHADEPLOT
 70
     0
102
SHADEPLOTRESLEVEL
 70
     2
102
SHADEPLOTCUSTOMDPI
 70
   300
  0
XRECORD
  5
A2BD
102
{ACAD_REACTORS
330
A2BC
102
}
330
A2BC
100
AcDbXrecord
280
     1
102
SHADEPLOT
 70
     0
102
SHADEPLOTRESLEVEL
 70
     2
102
SHADEPLOTCUSTOMDPI
 70
   300
  0
XRECORD
  5
A282
102
{ACAD_REACTORS
330
A21B
102
}
330
A21B
100
AcDbXrecord
280
     1
102
MATERIAL
148
0.0
149
0.0
149
0.0
 93
        0
 94
      127
282
     0
 72
     0
 77
     0
171
     0
175
     0
179
     0
273
     0
  0
XRECORD
  5
A21D
102
{ACAD_REACTORS
330
A21B
102
}
330
A21B
100
AcDbXrecord
280
     1
270
     1
271
     1
  0
XRECORD
  5
A21C
102
{ACAD_REACTORS
330
A21B
102
}
330
A21B
100
AcDbXrecord
280
     1
270
     1
271
     1
  0
XRECORD
  5
A220
102
{ACAD_REACTORS
330
A21B
102
}
330
A21B
100
AcDbXrecord
280
     1
270
     1
271
     1
  0
XRECORD
  5
A21F
102
{ACAD_REACTORS
330
A21B
102
}
330
A21B
100
AcDbXrecord
280
     1
270
     1
271
     1
  0
XRECORD
  5
A221
102
{ACAD_REACTORS
330
A21B
102
}
330
A21B
100
AcDbXrecord
280
     1
270
     1
271
     1
  0
XRECORD
  5
A21E
102
{ACAD_REACTORS
330
A21B
102
}
330
A21B
100
AcDbXrecord
280
     1
270
     1
271
     1
  0
XRECORD
  5
A281
102
{ACAD_REACTORS
330
A213
102
}
330
A213
100
AcDbXrecord
280
     1
102
MATERIAL
148
0.0
149
0.0
149
0.0
 93
        0
 94
      127
282
     0
 72
     0
 77
     0
171
     0
175
     0
179
     0
273
     0
  0
XRECORD
  5
A215
102
{ACAD_REACTORS
330
A213
102
}
330
A213
100
AcDbXrecord
280
     1
270
     1
271
     1
  0
XRECORD
  5
A214
102
{ACAD_REACTORS
330
A213
102
}
330
A213
100
AcDbXrecord
280
     1
270
     1
271
     1
  0
XRECORD
  5
A218
102
{ACAD_REACTORS
330
A213
102
}
330
A213
100
AcDbXrecord
280
     1
270
     1
271
     1
  0
XRECORD
  5
A217
102
{ACAD_REACTORS
330
A213
102
}
330
A213
100
AcDbXrecord
280
     1
270
     1
271
     1
  0
XRECORD
  5
A219
102
{ACAD_REACTORS
330
A213
102
}
330
A213
100
AcDbXrecord
280
     1
270
     1
271
     1
  0
XRECORD
  5
A216
102
{ACAD_REACTORS
330
A213
102
}
330
A213
100
AcDbXrecord
280
     1
270
     1
271
     1
  0
XRECORD
  5
A283
102
{ACAD_REACTORS
330
A223
102
}
330
A223
100
AcDbXrecord
280
     1
102
MATERIAL
148
0.0
149
0.0
149
0.0
 93
        0
 94
      127
282
     0
 72
     0
 77
     0
171
     0
175
     0
179
     0
273
     0
  0
XRECORD
  5
A225
102
{ACAD_REACTORS
330
A223
102
}
330
A223
100
AcDbXrecord
280
     1
270
     1
271
     1
  0
XRECORD
  5
A224
102
{ACAD_REACTORS
330
A223
102
}
330
A223
100
AcDbXrecord
280
     1
270
     1
271
     1
  0
XRECORD
  5
A228
102
{ACAD_REACTORS
330
A223
102
}
330
A223
100
AcDbXrecord
280
     1
270
     1
271
     1
  0
XRECORD
  5
A227
102
{ACAD_REACTORS
330
A223
102
}
330
A223
100
AcDbXrecord
280
     1
270
     1
271
     1
  0
XRECORD
  5
A229
102
{ACAD_REACTORS
330
A223
102
}
330
A223
100
AcDbXrecord
280
     1
270
     1
271
     1
  0
XRECORD
  5
A226
102
{ACAD_REACTORS
330
A223
102
}
330
A223
100
AcDbXrecord
280
     1
270
     1
271
     1
  0
XRECORD
  5
A2B7
102
{ACAD_REACTORS
330
A2B6
102
}
330
A2B6
100
AcDbXrecord
280
     1
102
DISPLAYNAME
  1
Imperial24
102
FLAGS
 90
        0
  0
CELLSTYLEMAP
  5
A27E
102
{ACAD_REACTORS
330
A27D
102
}
330
A27D
100
AcDbCellStyleMap
 90
        3
300
CELLSTYLE
  1
TABLEFORMAT_BEGIN
 90
        5
170
     1
 91
        0
 92
    32768
 62
   257
 93
        1
300
CONTENTFORMAT
  1
CONTENTFORMAT_BEGIN
 90
        0
 91
        0
 92
      512
 93
        0
300

 40
0.0
140
1.0
 94
        5
 62
     0
340
A039
144
0.25
309
CONTENTFORMAT_END
171
     0
 94
        0
309
TABLEFORMAT_END
  1
CELLSTYLE_BEGIN
 90
        1
 91
        1
300
_TITLE
309
CELLSTYLE_END
300
CELLSTYLE
  1
TABLEFORMAT_BEGIN
 90
        5
170
     1
 91
        0
 92
        0
 62
   257
 93
        1
300
CONTENTFORMAT
  1
CONTENTFORMAT_BEGIN
 90
        0
 91
        0
 92
      512
 93
        0
300

 40
0.0
140
1.0
 94
        5
 62
     0
340
A039
144
0.18
309
CONTENTFORMAT_END
171
     0
 94
        0
309
TABLEFORMAT_END
  1
CELLSTYLE_BEGIN
 90
        2
 91
        1
300
_HEADER
309
CELLSTYLE_END
300
CELLSTYLE
  1
TABLEFORMAT_BEGIN
 90
        5
170
     1
 91
        0
 92
        0
 62
   257
 93
        1
300
CONTENTFORMAT
  1
CONTENTFORMAT_BEGIN
 90
        0
 91
        0
 92
      512
 93
        0
300

 40
0.0
140
1.0
 94
        2
 62
     0
340
A039
144
0.18
309
CONTENTFORMAT_END
171
     0
 94
        0
309
TABLEFORMAT_END
  1
CELLSTYLE_BEGIN
 90
        3
 91
        2
300
_DATA
309
CELLSTYLE_END
  0
XRECORD
  5
A2B4
102
{ACAD_REACTORS
330
A27D
102
}
330
A27D
100
AcDbXrecord
280
     1
102
ACAD_ROUNDTRIP_PRE2007_TABLESTYLE
 90
      512
 91
        0
  1

 92
      512
 93
        0
  2

 94
      512
 95
        0
  3

  0
XRECORD
  5
A28F
102
{ACAD_REACTORS
330
A28E
102
}
330
A28E
100
AcDbXrecord
280
     1
102
RTVSPost2010Prop28
280
     1
102
RTVSPost2010PropOp28
 70
     1
102
RTVSPost2010Prop29
280
     1
102
RTVSPost2010PropOp29
 70
     1
102
RTVSPost2010Prop30
280
     0
102
RTVSPost2010PropOp30
 70
     1
102
RTVSPost2010Prop31
280
     0
102
RTVSPost2010PropOp31
 70
     1
102
RTVSPost2010Prop32
280
     0
102
RTVSPost2010PropOp32
 70
     1
102
RTVSPost2010Prop33
280
     0
102
RTVSPost2010PropOp33
 70
     1
102
RTVSPost2010Prop34
280
     0
102
RTVSPost2010PropOp34
 70
     1
102
RTVSPost2010Prop35
280
     0
102
RTVSPost2010PropOp35
 70
     1
102
RTVSPost2010Prop36
280
     0
102
RTVSPost2010PropOp36
 70
     1
102
RTVSPost2010Prop37
 90
       50
102
RTVSPost2010PropOp37
 70
     1
102
RTVSPost2010Prop38
140
0.0
102
RTVSPost2010PropOp38
 70
     1
102
RTVSPost2010Prop39
140
1.0
102
RTVSPost2010PropOp39
 70
     1
102
RTVSPost2010Prop40
 90
        0
102
RTVSPost2010PropOp40
 70
     1
102
RTVSPost2010Prop41ColorIndex
 90
       18
102
RTVSPost2010Prop41ColorRGB
 90
        0
102
RTVSPost2010PropOp41
 70
     1
102
RTVSPost2010Prop42
 90
       50
102
RTVSPost2010PropOp42
 70
     1
102
RTVSPost2010Prop43
 90
        3
102
RTVSPost2010PropOp43
 70
     1
102
RTVSPost2010Prop44ColorIndex
 90
        5
102
RTVSPost2010Prop44ColorRGB
 90
      255
102
RTVSPost2010PropOp44
 70
     1
102
RTVSPost2010Prop45
280
     0
102
RTVSPost2010PropOp45
 70
     1
102
RTVSPost2010Prop46
 90
       50
102
RTVSPost2010PropOp46
 70
     1
102
RTVSPost2010Prop47
 90
       50
102
RTVSPost2010PropOp47
 70
     1
102
RTVSPost2010Prop48
 90
       50
102
RTVSPost2010PropOp48
 70
     1
102
RTVSPost2010Prop49
280
     0
102
RTVSPost2010PropOp49
 70
     1
102
RTVSPost2010Prop50
 90
       50
102
RTVSPost2010PropOp50
 70
     1
102
RTVSPost2010Prop51ColorIndex
 90
      256
102
RTVSPost2010Prop51ColorRGB
 90
-16777216
102
RTVSPost2010PropOp51
 70
     0
102
RTVSPost2010Prop52
140
1.0
102
RTVSPost2010PropOp52
 70
     0
102
RTVSPost2010Prop53
 90
        2
102
RTVSPost2010PropOp53
 70
     1
102
RTVSPost2010Prop54
  1
strokes_ogs.tif
102
RTVSPost2010PropOp54
 70
     1
102
RTVSPost2010Prop55
280
     0
102
RTVSPost2010PropOp55
 70
     1
102
RTVSPost2010Prop56
140
1.0
102
RTVSPost2010PropOp56
 70
     1
102
RTVSPost2010Prop57
140
1.0
102
RTVSPost2010PropOp57
 70
     1
102
RTVSPropertyOp0
 70
     1
102
RTVSPropertyOp1
 70
     1
102
RTVSPropertyOp2
 70
     1
102
RTVSPropertyOp3
 70
     1
102
RTVSPropertyOp4
 70
     1
102
RTVSPropertyOp5
 70
     1
102
RTVSPropertyOp6
 70
     1
102
RTVSPropertyOp7
 70
     1
102
RTVSPropertyOp8
 70
     1
102
RTVSPropertyOp9
 70
     1
102
RTVSPropertyOp10
 70
     1
102
RTVSPropertyOp11
 70
     1
102
RTVSPropertyOp12
 70
     1
102
RTVSPropertyOp13
 70
     1
102
RTVSPropertyOp14
 70
     1
102
RTVSPropertyOp15
 70
     1
102
RTVSPropertyOp16
 70
     1
102
RTVSPropertyOp17
 70
     1
102
RTVSPropertyOp18
 70
     1
102
RTVSPropertyOp19
 70
     1
102
RTVSPropertyOp20
 70
     1
102
RTVSPropertyOp21
 70
     1
102
RTVSPropertyOp22
 70
     1
102
RTVSPropertyOp23
 70
     1
102
RTVSPropertyOp24
 70
     1
102
RTVSPropertyOp25
 70
     1
102
RTVSPropertyOp26
 70
     1
102
RTVSPropertyOp27
 70
     1
102
RTVSPropertyOp28
 70
     1
102
RTVSPropertyOp29
 70
     1
102
RTVSPropertyOp30
 70
     1
102
RTVSPropertyOp31
 70
     1
102
RTVSPropertyOp32
 70
     1
102
RTVSPropertyOp33
 70
     1
102
RTVSPropertyOp34
 70
     1
102
RTVSPropertyOp35
 70
     1
102
RTVSPropertyOp36
 70
     1
102
RTVSPropertyOp37
 70
     1
102
RTVSPropertyOp38
 70
     1
102
RTVSPropertyOp39
 70
     1
102
RTVSPropertyOp40
 70
     1
102
RTVSPropertyOp41
 70
     1
102
RTVSPropertyOp42
 70
     1
102
RTVSPropertyOp43
 70
     1
102
RTVSPropertyOp44
 70
     1
102
RTVSPropertyOp45
 70
     1
102
RTVSPropertyOp46
 70
     1
102
RTVSPropertyOp47
 70
     1
102
RTVSPropertyOp48
 70
     1
102
RTVSPropertyOp49
 70
     1
102
RTVSPropertyOp50
 70
     1
102
RTVSPropertyOp51
 70
     0
102
RTVSPropertyOp52
 70
     0
102
RTVSPropertyOp53
 70
     1
102
RTVSPropertyOp54
 70
     1
102
RTVSPropertyOp55
 70
     1
102
RTVSPropertyOp56
 70
     1
102
RTVSPropertyOp57
 70
     1
102
RTVSPropertyOp58
 70
     1
102
RTVSPropertyOp59
 70
     1
102
RTVSPropertyOp60
 70
     1
102
RTVSPropertyOp61
 70
     1
102
RTVSPropertyOp62
 70
     1
  0
XRECORD
  5
A28D
102
{ACAD_REACTORS
330
A28C
102
}
330
A28C
100
AcDbXrecord
280
     1
102
RTVSPost2010Prop28
280
     0
102
RTVSPost2010PropOp28
 70
     1
102
RTVSPost2010Prop29
280
     1
102
RTVSPost2010PropOp29
 70
     1
102
RTVSPost2010Prop30
280
     1
102
RTVSPost2010PropOp30
 70
     1
102
RTVSPost2010Prop31
280
     0
102
RTVSPost2010PropOp31
 70
     1
102
RTVSPost2010Prop32
280
     0
102
RTVSPost2010PropOp32
 70
     1
102
RTVSPost2010Prop33
280
     0
102
RTVSPost2010PropOp33
 70
     1
102
RTVSPost2010Prop34
280
     0
102
RTVSPost2010PropOp34
 70
     1
102
RTVSPost2010Prop35
280
     0
102
RTVSPost2010PropOp35
 70
     1
102
RTVSPost2010Prop36
280
     0
102
RTVSPost2010PropOp36
 70
     1
102
RTVSPost2010Prop37
 90
       50
102
RTVSPost2010PropOp37
 70
     1
102
RTVSPost2010Prop38
140
0.0
102
RTVSPost2010PropOp38
 70
     1
102
RTVSPost2010Prop39
140
1.0
102
RTVSPost2010PropOp39
 70
     1
102
RTVSPost2010Prop40
 90
        0
102
RTVSPost2010PropOp40
 70
     1
102
RTVSPost2010Prop41ColorIndex
 90
       18
102
RTVSPost2010Prop41ColorRGB
 90
        0
102
RTVSPost2010PropOp41
 70
     1
102
RTVSPost2010Prop42
 90
       50
102
RTVSPost2010PropOp42
 70
     1
102
RTVSPost2010Prop43
 90
        3
102
RTVSPost2010PropOp43
 70
     1
102
RTVSPost2010Prop44ColorIndex
 90
        5
102
RTVSPost2010Prop44ColorRGB
 90
      255
102
RTVSPost2010PropOp44
 70
     1
102
RTVSPost2010Prop45
280
     0
102
RTVSPost2010PropOp45
 70
     1
102
RTVSPost2010Prop46
 90
       50
102
RTVSPost2010PropOp46
 70
     1
102
RTVSPost2010Prop47
 90
       50
102
RTVSPost2010PropOp47
 70
     1
102
RTVSPost2010Prop48
 90
       50
102
RTVSPost2010PropOp48
 70
     1
102
RTVSPost2010Prop49
280
     0
102
RTVSPost2010PropOp49
 70
     1
102
RTVSPost2010Prop50
 90
       50
102
RTVSPost2010PropOp50
 70
     1
102
RTVSPost2010Prop51ColorIndex
 90
      256
102
RTVSPost2010Prop51ColorRGB
 90
-16777216
102
RTVSPost2010PropOp51
 70
     0
102
RTVSPost2010Prop52
140
1.0
102
RTVSPost2010PropOp52
 70
     0
102
RTVSPost2010Prop53
 90
        2
102
RTVSPost2010PropOp53
 70
     1
102
RTVSPost2010Prop54
  1
strokes_ogs.tif
102
RTVSPost2010PropOp54
 70
     1
102
RTVSPost2010Prop55
280
     0
102
RTVSPost2010PropOp55
 70
     1
102
RTVSPost2010Prop56
140
1.0
102
RTVSPost2010PropOp56
 70
     1
102
RTVSPost2010Prop57
140
1.0
102
RTVSPost2010PropOp57
 70
     1
102
RTVSPropertyOp0
 70
     1
102
RTVSPropertyOp1
 70
     1
102
RTVSPropertyOp2
 70
     1
102
RTVSPropertyOp3
 70
     1
102
RTVSPropertyOp4
 70
     1
102
RTVSPropertyOp5
 70
     1
102
RTVSPropertyOp6
 70
     1
102
RTVSPropertyOp7
 70
     1
102
RTVSPropertyOp8
 70
     1
102
RTVSPropertyOp9
 70
     1
102
RTVSPropertyOp10
 70
     1
102
RTVSPropertyOp11
 70
     1
102
RTVSPropertyOp12
 70
     1
102
RTVSPropertyOp13
 70
     1
102
RTVSPropertyOp14
 70
     1
102
RTVSPropertyOp15
 70
     1
102
RTVSPropertyOp16
 70
     1
102
RTVSPropertyOp17
 70
     1
102
RTVSPropertyOp18
 70
     1
102
RTVSPropertyOp19
 70
     1
102
RTVSPropertyOp20
 70
     1
102
RTVSPropertyOp21
 70
     1
102
RTVSPropertyOp22
 70
     1
102
RTVSPropertyOp23
 70
     1
102
RTVSPropertyOp24
 70
     1
102
RTVSPropertyOp25
 70
     1
102
RTVSPropertyOp26
 70
     1
102
RTVSPropertyOp27
 70
     1
102
RTVSPropertyOp28
 70
     1
102
RTVSPropertyOp29
 70
     1
102
RTVSPropertyOp30
 70
     1
102
RTVSPropertyOp31
 70
     1
102
RTVSPropertyOp32
 70
     1
102
RTVSPropertyOp33
 70
     1
102
RTVSPropertyOp34
 70
     1
102
RTVSPropertyOp35
 70
     1
102
RTVSPropertyOp36
 70
     1
102
RTVSPropertyOp37
 70
     1
102
RTVSPropertyOp38
 70
     1
102
RTVSPropertyOp39
 70
     1
102
RTVSPropertyOp40
 70
     1
102
RTVSPropertyOp41
 70
     1
102
RTVSPropertyOp42
 70
     1
102
RTVSPropertyOp43
 70
     1
102
RTVSPropertyOp44
 70
     1
102
RTVSPropertyOp45
 70
     1
102
RTVSPropertyOp46
 70
     1
102
RTVSPropertyOp47
 70
     1
102
RTVSPropertyOp48
 70
     1
102
RTVSPropertyOp49
 70
     1
102
RTVSPropertyOp50
 70
     1
102
RTVSPropertyOp51
 70
     0
102
RTVSPropertyOp52
 70
     0
102
RTVSPropertyOp53
 70
     1
102
RTVSPropertyOp54
 70
     1
102
RTVSPropertyOp55
 70
     1
102
RTVSPropertyOp56
 70
     1
102
RTVSPropertyOp57
 70
     1
102
RTVSPropertyOp58
 70
     1
102
RTVSPropertyOp59
 70
     1
102
RTVSPropertyOp60
 70
     1
102
RTVSPropertyOp61
 70
     1
102
RTVSPropertyOp62
 70
     1
  0
XRECORD
  5
A29B
102
{ACAD_REACTORS
330
A29A
102
}
330
A29A
100
AcDbXrecord
280
     1
102
RTVSPost2010Prop28
280
     0
102
RTVSPost2010PropOp28
 70
     1
102
RTVSPost2010Prop29
280
     1
102
RTVSPost2010PropOp29
 70
     1
102
RTVSPost2010Prop30
280
     1
102
RTVSPost2010PropOp30
 70
     1
102
RTVSPost2010Prop31
280
     0
102
RTVSPost2010PropOp31
 70
     1
102
RTVSPost2010Prop32
280
     0
102
RTVSPost2010PropOp32
 70
     1
102
RTVSPost2010Prop33
280
     0
102
RTVSPost2010PropOp33
 70
     1
102
RTVSPost2010Prop34
280
     0
102
RTVSPost2010PropOp34
 70
     1
102
RTVSPost2010Prop35
280
     0
102
RTVSPost2010PropOp35
 70
     1
102
RTVSPost2010Prop36
280
     0
102
RTVSPost2010PropOp36
 70
     1
102
RTVSPost2010Prop37
 90
       50
102
RTVSPost2010PropOp37
 70
     1
102
RTVSPost2010Prop38
140
0.0
102
RTVSPost2010PropOp38
 70
     1
102
RTVSPost2010Prop39
140
1.0
102
RTVSPost2010PropOp39
 70
     1
102
RTVSPost2010Prop40
 90
        0
102
RTVSPost2010PropOp40
 70
     1
102
RTVSPost2010Prop41ColorIndex
 90
       18
102
RTVSPost2010Prop41ColorRGB
 90
        0
102
RTVSPost2010PropOp41
 70
     1
102
RTVSPost2010Prop42
 90
       50
102
RTVSPost2010PropOp42
 70
     1
102
RTVSPost2010Prop43
 90
        3
102
RTVSPost2010PropOp43
 70
     1
102
RTVSPost2010Prop44ColorIndex
 90
        5
102
RTVSPost2010Prop44ColorRGB
 90
      255
102
RTVSPost2010PropOp44
 70
     1
102
RTVSPost2010Prop45
280
     0
102
RTVSPost2010PropOp45
 70
     1
102
RTVSPost2010Prop46
 90
       50
102
RTVSPost2010PropOp46
 70
     1
102
RTVSPost2010Prop47
 90
       50
102
RTVSPost2010PropOp47
 70
     1
102
RTVSPost2010Prop48
 90
       50
102
RTVSPost2010PropOp48
 70
     1
102
RTVSPost2010Prop49
280
     0
102
RTVSPost2010PropOp49
 70
     1
102
RTVSPost2010Prop50
 90
       50
102
RTVSPost2010PropOp50
 70
     1
102
RTVSPost2010Prop51ColorIndex
 90
      256
102
RTVSPost2010Prop51ColorRGB
 90
-16777216
102
RTVSPost2010PropOp51
 70
     0
102
RTVSPost2010Prop52
140
1.0
102
RTVSPost2010PropOp52
 70
     0
102
RTVSPost2010Prop53
 90
        2
102
RTVSPost2010PropOp53
 70
     1
102
RTVSPost2010Prop54
  1
strokes_ogs.tif
102
RTVSPost2010PropOp54
 70
     1
102
RTVSPost2010Prop55
280
     0
102
RTVSPost2010PropOp55
 70
     1
102
RTVSPost2010Prop56
140
1.0
102
RTVSPost2010PropOp56
 70
     1
102
RTVSPost2010Prop57
140
1.0
102
RTVSPost2010PropOp57
 70
     1
102
RTVSPropertyOp0
 70
     1
102
RTVSPropertyOp1
 70
     1
102
RTVSPropertyOp2
 70
     1
102
RTVSPropertyOp3
 70
     1
102
RTVSPropertyOp4
 70
     1
102
RTVSPropertyOp5
 70
     1
102
RTVSPropertyOp6
 70
     1
102
RTVSPropertyOp7
 70
     1
102
RTVSPropertyOp8
 70
     1
102
RTVSPropertyOp9
 70
     1
102
RTVSPropertyOp10
 70
     1
102
RTVSPropertyOp11
 70
     1
102
RTVSPropertyOp12
 70
     1
102
RTVSPropertyOp13
 70
     1
102
RTVSPropertyOp14
 70
     1
102
RTVSPropertyOp15
 70
     1
102
RTVSPropertyOp16
 70
     1
102
RTVSPropertyOp17
 70
     1
102
RTVSPropertyOp18
 70
     1
102
RTVSPropertyOp19
 70
     1
102
RTVSPropertyOp20
 70
     1
102
RTVSPropertyOp21
 70
     1
102
RTVSPropertyOp22
 70
     1
102
RTVSPropertyOp23
 70
     1
102
RTVSPropertyOp24
 70
     1
102
RTVSPropertyOp25
 70
     1
102
RTVSPropertyOp26
 70
     1
102
RTVSPropertyOp27
 70
     1
102
RTVSPropertyOp28
 70
     1
102
RTVSPropertyOp29
 70
     1
102
RTVSPropertyOp30
 70
     1
102
RTVSPropertyOp31
 70
     1
102
RTVSPropertyOp32
 70
     1
102
RTVSPropertyOp33
 70
     1
102
RTVSPropertyOp34
 70
     1
102
RTVSPropertyOp35
 70
     1
102
RTVSPropertyOp36
 70
     1
102
RTVSPropertyOp37
 70
     1
102
RTVSPropertyOp38
 70
     1
102
RTVSPropertyOp39
 70
     1
102
RTVSPropertyOp40
 70
     1
102
RTVSPropertyOp41
 70
     1
102
RTVSPropertyOp42
 70
     1
102
RTVSPropertyOp43
 70
     1
102
RTVSPropertyOp44
 70
     1
102
RTVSPropertyOp45
 70
     1
102
RTVSPropertyOp46
 70
     1
102
RTVSPropertyOp47
 70
     1
102
RTVSPropertyOp48
 70
     1
102
RTVSPropertyOp49
 70
     1
102
RTVSPropertyOp50
 70
     1
102
RTVSPropertyOp51
 70
     0
102
RTVSPropertyOp52
 70
     0
102
RTVSPropertyOp53
 70
     1
102
RTVSPropertyOp54
 70
     1
102
RTVSPropertyOp55
 70
     1
102
RTVSPropertyOp56
 70
     1
102
RTVSPropertyOp57
 70
     1
102
RTVSPropertyOp58
 70
     1
102
RTVSPropertyOp59
 70
     1
102
RTVSPropertyOp60
 70
     1
102
RTVSPropertyOp61
 70
     1
102
RTVSPropertyOp62
 70
     1
  0
XRECORD
  5
A2A3
102
{ACAD_REACTORS
330
A2A2
102
}
330
A2A2
100
AcDbXrecord
280
     1
102
RTVSPost2010Prop28
280
     0
102
RTVSPost2010PropOp28
 70
     1
102
RTVSPost2010Prop29
280
     1
102
RTVSPost2010PropOp29
 70
     1
102
RTVSPost2010Prop30
280
     1
102
RTVSPost2010PropOp30
 70
     1
102
RTVSPost2010Prop31
280
     0
102
RTVSPost2010PropOp31
 70
     1
102
RTVSPost2010Prop32
280
     0
102
RTVSPost2010PropOp32
 70
     1
102
RTVSPost2010Prop33
280
     0
102
RTVSPost2010PropOp33
 70
     1
102
RTVSPost2010Prop34
280
     0
102
RTVSPost2010PropOp34
 70
     1
102
RTVSPost2010Prop35
280
     0
102
RTVSPost2010PropOp35
 70
     1
102
RTVSPost2010Prop36
280
     0
102
RTVSPost2010PropOp36
 70
     1
102
RTVSPost2010Prop37
 90
       50
102
RTVSPost2010PropOp37
 70
     1
102
RTVSPost2010Prop38
140
0.0
102
RTVSPost2010PropOp38
 70
     1
102
RTVSPost2010Prop39
140
1.0
102
RTVSPost2010PropOp39
 70
     1
102
RTVSPost2010Prop40
 90
        0
102
RTVSPost2010PropOp40
 70
     1
102
RTVSPost2010Prop41ColorIndex
 90
       18
102
RTVSPost2010Prop41ColorRGB
 90
        0
102
RTVSPost2010PropOp41
 70
     1
102
RTVSPost2010Prop42
 90
       50
102
RTVSPost2010PropOp42
 70
     1
102
RTVSPost2010Prop43
 90
        3
102
RTVSPost2010PropOp43
 70
     1
102
RTVSPost2010Prop44ColorIndex
 90
        5
102
RTVSPost2010Prop44ColorRGB
 90
      255
102
RTVSPost2010PropOp44
 70
     1
102
RTVSPost2010Prop45
280
     0
102
RTVSPost2010PropOp45
 70
     1
102
RTVSPost2010Prop46
 90
       50
102
RTVSPost2010PropOp46
 70
     1
102
RTVSPost2010Prop47
 90
       50
102
RTVSPost2010PropOp47
 70
     1
102
RTVSPost2010Prop48
 90
       50
102
RTVSPost2010PropOp48
 70
     1
102
RTVSPost2010Prop49
280
     0
102
RTVSPost2010PropOp49
 70
     1
102
RTVSPost2010Prop50
 90
       50
102
RTVSPost2010PropOp50
 70
     1
102
RTVSPost2010Prop51ColorIndex
 90
      256
102
RTVSPost2010Prop51ColorRGB
 90
-16777216
102
RTVSPost2010PropOp51
 70
     0
102
RTVSPost2010Prop52
140
1.0
102
RTVSPost2010PropOp52
 70
     0
102
RTVSPost2010Prop53
 90
        2
102
RTVSPost2010PropOp53
 70
     1
102
RTVSPost2010Prop54
  1
strokes_ogs.tif
102
RTVSPost2010PropOp54
 70
     1
102
RTVSPost2010Prop55
280
     0
102
RTVSPost2010PropOp55
 70
     1
102
RTVSPost2010Prop56
140
1.0
102
RTVSPost2010PropOp56
 70
     1
102
RTVSPost2010Prop57
140
1.0
102
RTVSPost2010PropOp57
 70
     1
102
RTVSPropertyOp0
 70
     1
102
RTVSPropertyOp1
 70
     1
102
RTVSPropertyOp2
 70
     1
102
RTVSPropertyOp3
 70
     1
102
RTVSPropertyOp4
 70
     1
102
RTVSPropertyOp5
 70
     1
102
RTVSPropertyOp6
 70
     1
102
RTVSPropertyOp7
 70
     1
102
RTVSPropertyOp8
 70
     1
102
RTVSPropertyOp9
 70
     1
102
RTVSPropertyOp10
 70
     1
102
RTVSPropertyOp11
 70
     1
102
RTVSPropertyOp12
 70
     1
102
RTVSPropertyOp13
 70
     1
102
RTVSPropertyOp14
 70
     1
102
RTVSPropertyOp15
 70
     1
102
RTVSPropertyOp16
 70
     1
102
RTVSPropertyOp17
 70
     1
102
RTVSPropertyOp18
 70
     1
102
RTVSPropertyOp19
 70
     1
102
RTVSPropertyOp20
 70
     1
102
RTVSPropertyOp21
 70
     1
102
RTVSPropertyOp22
 70
     1
102
RTVSPropertyOp23
 70
     1
102
RTVSPropertyOp24
 70
     1
102
RTVSPropertyOp25
 70
     1
102
RTVSPropertyOp26
 70
     1
102
RTVSPropertyOp27
 70
     1
102
RTVSPropertyOp28
 70
     1
102
RTVSPropertyOp29
 70
     1
102
RTVSPropertyOp30
 70
     1
102
RTVSPropertyOp31
 70
     1
102
RTVSPropertyOp32
 70
     1
102
RTVSPropertyOp33
 70
     1
102
RTVSPropertyOp34
 70
     1
102
RTVSPropertyOp35
 70
     1
102
RTVSPropertyOp36
 70
     1
102
RTVSPropertyOp37
 70
     1
102
RTVSPropertyOp38
 70
     1
102
RTVSPropertyOp39
 70
     1
102
RTVSPropertyOp40
 70
     1
102
RTVSPropertyOp41
 70
     1
102
RTVSPropertyOp42
 70
     1
102
RTVSPropertyOp43
 70
     1
102
RTVSPropertyOp44
 70
     1
102
RTVSPropertyOp45
 70
     1
102
RTVSPropertyOp46
 70
     1
102
RTVSPropertyOp47
 70
     1
102
RTVSPropertyOp48
 70
     1
102
RTVSPropertyOp49
 70
     1
102
RTVSPropertyOp50
 70
     1
102
RTVSPropertyOp51
 70
     0
102
RTVSPropertyOp52
 70
     0
102
RTVSPropertyOp53
 70
     1
102
RTVSPropertyOp54
 70
     1
102
RTVSPropertyOp55
 70
     1
102
RTVSPropertyOp56
 70
     1
102
RTVSPropertyOp57
 70
     1
102
RTVSPropertyOp58
 70
     1
102
RTVSPropertyOp59
 70
     1
102
RTVSPropertyOp60
 70
     1
102
RTVSPropertyOp61
 70
     1
102
RTVSPropertyOp62
 70
     1
  0
XRECORD
  5
A295
102
{ACAD_REACTORS
330
A294
102
}
330
A294
100
AcDbXrecord
280
     1
102
RTVSPost2010Prop28
280
     0
102
RTVSPost2010PropOp28
 70
     1
102
RTVSPost2010Prop29
280
     1
102
RTVSPost2010PropOp29
 70
     1
102
RTVSPost2010Prop30
280
     1
102
RTVSPost2010PropOp30
 70
     1
102
RTVSPost2010Prop31
280
     0
102
RTVSPost2010PropOp31
 70
     1
102
RTVSPost2010Prop32
280
     0
102
RTVSPost2010PropOp32
 70
     1
102
RTVSPost2010Prop33
280
     0
102
RTVSPost2010PropOp33
 70
     1
102
RTVSPost2010Prop34
280
     0
102
RTVSPost2010PropOp34
 70
     1
102
RTVSPost2010Prop35
280
     0
102
RTVSPost2010PropOp35
 70
     1
102
RTVSPost2010Prop36
280
     0
102
RTVSPost2010PropOp36
 70
     1
102
RTVSPost2010Prop37
 90
       50
102
RTVSPost2010PropOp37
 70
     1
102
RTVSPost2010Prop38
140
0.0
102
RTVSPost2010PropOp38
 70
     1
102
RTVSPost2010Prop39
140
1.0
102
RTVSPost2010PropOp39
 70
     1
102
RTVSPost2010Prop40
 90
        0
102
RTVSPost2010PropOp40
 70
     1
102
RTVSPost2010Prop41ColorIndex
 90
       18
102
RTVSPost2010Prop41ColorRGB
 90
        0
102
RTVSPost2010PropOp41
 70
     1
102
RTVSPost2010Prop42
 90
       50
102
RTVSPost2010PropOp42
 70
     1
102
RTVSPost2010Prop43
 90
        3
102
RTVSPost2010PropOp43
 70
     1
102
RTVSPost2010Prop44ColorIndex
 90
        5
102
RTVSPost2010Prop44ColorRGB
 90
      255
102
RTVSPost2010PropOp44
 70
     1
102
RTVSPost2010Prop45
280
     0
102
RTVSPost2010PropOp45
 70
     1
102
RTVSPost2010Prop46
 90
       50
102
RTVSPost2010PropOp46
 70
     1
102
RTVSPost2010Prop47
 90
       50
102
RTVSPost2010PropOp47
 70
     1
102
RTVSPost2010Prop48
 90
       50
102
RTVSPost2010PropOp48
 70
     1
102
RTVSPost2010Prop49
280
     0
102
RTVSPost2010PropOp49
 70
     1
102
RTVSPost2010Prop50
 90
       50
102
RTVSPost2010PropOp50
 70
     1
102
RTVSPost2010Prop51ColorIndex
 90
      256
102
RTVSPost2010Prop51ColorRGB
 90
-16777216
102
RTVSPost2010PropOp51
 70
     0
102
RTVSPost2010Prop52
140
1.0
102
RTVSPost2010PropOp52
 70
     0
102
RTVSPost2010Prop53
 90
        2
102
RTVSPost2010PropOp53
 70
     1
102
RTVSPost2010Prop54
  1
strokes_ogs.tif
102
RTVSPost2010PropOp54
 70
     1
102
RTVSPost2010Prop55
280
     0
102
RTVSPost2010PropOp55
 70
     1
102
RTVSPost2010Prop56
140
1.0
102
RTVSPost2010PropOp56
 70
     1
102
RTVSPost2010Prop57
140
1.0
102
RTVSPost2010PropOp57
 70
     1
102
RTVSPropertyOp0
 70
     1
102
RTVSPropertyOp1
 70
     1
102
RTVSPropertyOp2
 70
     1
102
RTVSPropertyOp3
 70
     1
102
RTVSPropertyOp4
 70
     1
102
RTVSPropertyOp5
 70
     1
102
RTVSPropertyOp6
 70
     1
102
RTVSPropertyOp7
 70
     1
102
RTVSPropertyOp8
 70
     1
102
RTVSPropertyOp9
 70
     1
102
RTVSPropertyOp10
 70
     1
102
RTVSPropertyOp11
 70
     1
102
RTVSPropertyOp12
 70
     1
102
RTVSPropertyOp13
 70
     1
102
RTVSPropertyOp14
 70
     1
102
RTVSPropertyOp15
 70
     1
102
RTVSPropertyOp16
 70
     1
102
RTVSPropertyOp17
 70
     1
102
RTVSPropertyOp18
 70
     1
102
RTVSPropertyOp19
 70
     1
102
RTVSPropertyOp20
 70
     1
102
RTVSPropertyOp21
 70
     1
102
RTVSPropertyOp22
 70
     1
102
RTVSPropertyOp23
 70
     1
102
RTVSPropertyOp24
 70
     1
102
RTVSPropertyOp25
 70
     1
102
RTVSPropertyOp26
 70
     1
102
RTVSPropertyOp27
 70
     1
102
RTVSPropertyOp28
 70
     1
102
RTVSPropertyOp29
 70
     1
102
RTVSPropertyOp30
 70
     1
102
RTVSPropertyOp31
 70
     1
102
RTVSPropertyOp32
 70
     1
102
RTVSPropertyOp33
 70
     1
102
RTVSPropertyOp34
 70
     1
102
RTVSPropertyOp35
 70
     1
102
RTVSPropertyOp36
 70
     1
102
RTVSPropertyOp37
 70
     1
102
RTVSPropertyOp38
 70
     1
102
RTVSPropertyOp39
 70
     1
102
RTVSPropertyOp40
 70
     1
102
RTVSPropertyOp41
 70
     1
102
RTVSPropertyOp42
 70
     1
102
RTVSPropertyOp43
 70
     1
102
RTVSPropertyOp44
 70
     1
102
RTVSPropertyOp45
 70
     1
102
RTVSPropertyOp46
 70
     1
102
RTVSPropertyOp47
 70
     1
102
RTVSPropertyOp48
 70
     1
102
RTVSPropertyOp49
 70
     1
102
RTVSPropertyOp50
 70
     1
102
RTVSPropertyOp51
 70
     0
102
RTVSPropertyOp52
 70
     0
102
RTVSPropertyOp53
 70
     1
102
RTVSPropertyOp54
 70
     1
102
RTVSPropertyOp55
 70
     1
102
RTVSPropertyOp56
 70
     1
102
RTVSPropertyOp57
 70
     1
102
RTVSPropertyOp58
 70
     1
102
RTVSPropertyOp59
 70
     1
102
RTVSPropertyOp60
 70
     1
102
RTVSPropertyOp61
 70
     1
102
RTVSPropertyOp62
 70
     1
  0
XRECORD
  5
A299
102
{ACAD_REACTORS
330
A298
102
}
330
A298
100
AcDbXrecord
280
     1
102
RTVSPost2010Prop28
280
     0
102
RTVSPost2010PropOp28
 70
     1
102
RTVSPost2010Prop29
280
     1
102
RTVSPost2010PropOp29
 70
     1
102
RTVSPost2010Prop30
280
     1
102
RTVSPost2010PropOp30
 70
     1
102
RTVSPost2010Prop31
280
     0
102
RTVSPost2010PropOp31
 70
     1
102
RTVSPost2010Prop32
280
     0
102
RTVSPost2010PropOp32
 70
     1
102
RTVSPost2010Prop33
280
     0
102
RTVSPost2010PropOp33
 70
     1
102
RTVSPost2010Prop34
280
     0
102
RTVSPost2010PropOp34
 70
     1
102
RTVSPost2010Prop35
280
     0
102
RTVSPost2010PropOp35
 70
     1
102
RTVSPost2010Prop36
280
     0
102
RTVSPost2010PropOp36
 70
     1
102
RTVSPost2010Prop37
 90
       50
102
RTVSPost2010PropOp37
 70
     1
102
RTVSPost2010Prop38
140
0.0
102
RTVSPost2010PropOp38
 70
     1
102
RTVSPost2010Prop39
140
1.0
102
RTVSPost2010PropOp39
 70
     1
102
RTVSPost2010Prop40
 90
        0
102
RTVSPost2010PropOp40
 70
     1
102
RTVSPost2010Prop41ColorIndex
 90
       18
102
RTVSPost2010Prop41ColorRGB
 90
        0
102
RTVSPost2010PropOp41
 70
     1
102
RTVSPost2010Prop42
 90
       50
102
RTVSPost2010PropOp42
 70
     1
102
RTVSPost2010Prop43
 90
        3
102
RTVSPost2010PropOp43
 70
     1
102
RTVSPost2010Prop44ColorIndex
 90
        5
102
RTVSPost2010Prop44ColorRGB
 90
      255
102
RTVSPost2010PropOp44
 70
     1
102
RTVSPost2010Prop45
280
     0
102
RTVSPost2010PropOp45
 70
     1
102
RTVSPost2010Prop46
 90
       50
102
RTVSPost2010PropOp46
 70
     1
102
RTVSPost2010Prop47
 90
       50
102
RTVSPost2010PropOp47
 70
     1
102
RTVSPost2010Prop48
 90
       50
102
RTVSPost2010PropOp48
 70
     1
102
RTVSPost2010Prop49
280
     0
102
RTVSPost2010PropOp49
 70
     1
102
RTVSPost2010Prop50
 90
       50
102
RTVSPost2010PropOp50
 70
     1
102
RTVSPost2010Prop51ColorIndex
 90
      256
102
RTVSPost2010Prop51ColorRGB
 90
-16777216
102
RTVSPost2010PropOp51
 70
     0
102
RTVSPost2010Prop52
140
1.0
102
RTVSPost2010PropOp52
 70
     0
102
RTVSPost2010Prop53
 90
        2
102
RTVSPost2010PropOp53
 70
     1
102
RTVSPost2010Prop54
  1
strokes_ogs.tif
102
RTVSPost2010PropOp54
 70
     1
102
RTVSPost2010Prop55
280
     0
102
RTVSPost2010PropOp55
 70
     1
102
RTVSPost2010Prop56
140
1.0
102
RTVSPost2010PropOp56
 70
     1
102
RTVSPost2010Prop57
140
1.0
102
RTVSPost2010PropOp57
 70
     1
102
RTVSPropertyOp0
 70
     1
102
RTVSPropertyOp1
 70
     1
102
RTVSPropertyOp2
 70
     1
102
RTVSPropertyOp3
 70
     1
102
RTVSPropertyOp4
 70
     1
102
RTVSPropertyOp5
 70
     1
102
RTVSPropertyOp6
 70
     1
102
RTVSPropertyOp7
 70
     1
102
RTVSPropertyOp8
 70
     1
102
RTVSPropertyOp9
 70
     1
102
RTVSPropertyOp10
 70
     1
102
RTVSPropertyOp11
 70
     1
102
RTVSPropertyOp12
 70
     1
102
RTVSPropertyOp13
 70
     1
102
RTVSPropertyOp14
 70
     1
102
RTVSPropertyOp15
 70
     1
102
RTVSPropertyOp16
 70
     1
102
RTVSPropertyOp17
 70
     1
102
RTVSPropertyOp18
 70
     1
102
RTVSPropertyOp19
 70
     1
102
RTVSPropertyOp20
 70
     1
102
RTVSPropertyOp21
 70
     1
102
RTVSPropertyOp22
 70
     1
102
RTVSPropertyOp23
 70
     1
102
RTVSPropertyOp24
 70
     1
102
RTVSPropertyOp25
 70
     1
102
RTVSPropertyOp26
 70
     1
102
RTVSPropertyOp27
 70
     1
102
RTVSPropertyOp28
 70
     1
102
RTVSPropertyOp29
 70
     1
102
RTVSPropertyOp30
 70
     1
102
RTVSPropertyOp31
 70
     1
102
RTVSPropertyOp32
 70
     1
102
RTVSPropertyOp33
 70
     1
102
RTVSPropertyOp34
 70
     1
102
RTVSPropertyOp35
 70
     1
102
RTVSPropertyOp36
 70
     1
102
RTVSPropertyOp37
 70
     1
102
RTVSPropertyOp38
 70
     1
102
RTVSPropertyOp39
 70
     1
102
RTVSPropertyOp40
 70
     1
102
RTVSPropertyOp41
 70
     1
102
RTVSPropertyOp42
 70
     1
102
RTVSPropertyOp43
 70
     1
102
RTVSPropertyOp44
 70
     1
102
RTVSPropertyOp45
 70
     1
102
RTVSPropertyOp46
 70
     1
102
RTVSPropertyOp47
 70
     1
102
RTVSPropertyOp48
 70
     1
102
RTVSPropertyOp49
 70
     1
102
RTVSPropertyOp50
 70
     1
102
RTVSPropertyOp51
 70
     0
102
RTVSPropertyOp52
 70
     0
102
RTVSPropertyOp53
 70
     1
102
RTVSPropertyOp54
 70
     1
102
RTVSPropertyOp55
 70
     1
102
RTVSPropertyOp56
 70
     1
102
RTVSPropertyOp57
 70
     1
102
RTVSPropertyOp58
 70
     1
102
RTVSPropertyOp59
 70
     1
102
RTVSPropertyOp60
 70
     1
102
RTVSPropertyOp61
 70
     1
102
RTVSPropertyOp62
 70
     1
  0
XRECORD
  5
A2B3
102
{ACAD_REACTORS
330
A2B2
102
}
330
A2B2
100
AcDbXrecord
280
     1
102
RTVSPost2010Prop28
280
     0
102
RTVSPost2010PropOp28
 70
     1
102
RTVSPost2010Prop29
280
     1
102
RTVSPost2010PropOp29
 70
     1
102
RTVSPost2010Prop30
280
     1
102
RTVSPost2010PropOp30
 70
     1
102
RTVSPost2010Prop31
280
     0
102
RTVSPost2010PropOp31
 70
     1
102
RTVSPost2010Prop32
280
     0
102
RTVSPost2010PropOp32
 70
     1
102
RTVSPost2010Prop33
280
     0
102
RTVSPost2010PropOp33
 70
     1
102
RTVSPost2010Prop34
280
     0
102
RTVSPost2010PropOp34
 70
     1
102
RTVSPost2010Prop35
280
     0
102
RTVSPost2010PropOp35
 70
     1
102
RTVSPost2010Prop36
280
     0
102
RTVSPost2010PropOp36
 70
     1
102
RTVSPost2010Prop37
 90
       50
102
RTVSPost2010PropOp37
 70
     0
102
RTVSPost2010Prop38
140
0.0
102
RTVSPost2010PropOp38
 70
     0
102
RTVSPost2010Prop39
140
1.0
102
RTVSPost2010PropOp39
 70
     0
102
RTVSPost2010Prop40
 90
        0
102
RTVSPost2010PropOp40
 70
     0
102
RTVSPost2010Prop41ColorIndex
 90
       18
102
RTVSPost2010Prop41ColorRGB
 90
        0
102
RTVSPost2010PropOp41
 70
     0
102
RTVSPost2010Prop42
 90
       50
102
RTVSPost2010PropOp42
 70
     0
102
RTVSPost2010Prop43
 90
        3
102
RTVSPost2010PropOp43
 70
     0
102
RTVSPost2010Prop44ColorIndex
 90
        5
102
RTVSPost2010Prop44ColorRGB
 90
      255
102
RTVSPost2010PropOp44
 70
     0
102
RTVSPost2010Prop45
280
     0
102
RTVSPost2010PropOp45
 70
     1
102
RTVSPost2010Prop46
 90
       50
102
RTVSPost2010PropOp46
 70
     0
102
RTVSPost2010Prop47
 90
       50
102
RTVSPost2010PropOp47
 70
     0
102
RTVSPost2010Prop48
 90
       50
102
RTVSPost2010PropOp48
 70
     0
102
RTVSPost2010Prop49
280
     0
102
RTVSPost2010PropOp49
 70
     1
102
RTVSPost2010Prop50
 90
       50
102
RTVSPost2010PropOp50
 70
     0
102
RTVSPost2010Prop51ColorIndex
 90
      256
102
RTVSPost2010Prop51ColorRGB
 90
-16777216
102
RTVSPost2010PropOp51
 70
     0
102
RTVSPost2010Prop52
140
1.0
102
RTVSPost2010PropOp52
 70
     0
102
RTVSPost2010Prop53
 90
        2
102
RTVSPost2010PropOp53
 70
     0
102
RTVSPost2010Prop54
  1
strokes_ogs.tif
102
RTVSPost2010PropOp54
 70
     0
102
RTVSPost2010Prop55
280
     0
102
RTVSPost2010PropOp55
 70
     1
102
RTVSPost2010Prop56
140
1.0
102
RTVSPost2010PropOp56
 70
     0
102
RTVSPost2010Prop57
140
1.0
102
RTVSPost2010PropOp57
 70
     0
102
RTVSPropertyOp0
 70
     0
102
RTVSPropertyOp1
 70
     0
102
RTVSPropertyOp2
 70
     0
102
RTVSPropertyOp3
 70
     0
102
RTVSPropertyOp4
 70
     0
102
RTVSPropertyOp5
 70
     0
102
RTVSPropertyOp6
 70
     0
102
RTVSPropertyOp7
 70
     0
102
RTVSPropertyOp8
 70
     0
102
RTVSPropertyOp9
 70
     0
102
RTVSPropertyOp10
 70
     0
102
RTVSPropertyOp11
 70
     0
102
RTVSPropertyOp12
 70
     0
102
RTVSPropertyOp13
 70
     0
102
RTVSPropertyOp14
 70
     2
102
RTVSPropertyOp15
 70
     0
102
RTVSPropertyOp16
 70
     0
102
RTVSPropertyOp17
 70
     0
102
RTVSPropertyOp18
 70
     0
102
RTVSPropertyOp19
 70
     0
102
RTVSPropertyOp20
 70
     0
102
RTVSPropertyOp21
 70
     0
102
RTVSPropertyOp22
 70
     0
102
RTVSPropertyOp23
 70
     0
102
RTVSPropertyOp24
 70
     0
102
RTVSPropertyOp25
 70
     0
102
RTVSPropertyOp26
 70
     0
102
RTVSPropertyOp27
 70
     0
102
RTVSPropertyOp28
 70
     1
102
RTVSPropertyOp29
 70
     1
102
RTVSPropertyOp30
 70
     1
102
RTVSPropertyOp31
 70
     1
102
RTVSPropertyOp32
 70
     1
102
RTVSPropertyOp33
 70
     1
102
RTVSPropertyOp34
 70
     1
102
RTVSPropertyOp35
 70
     1
102
RTVSPropertyOp36
 70
     1
102
RTVSPropertyOp37
 70
     0
102
RTVSPropertyOp38
 70
     0
102
RTVSPropertyOp39
 70
     0
102
RTVSPropertyOp40
 70
     0
102
RTVSPropertyOp41
 70
     0
102
RTVSPropertyOp42
 70
     0
102
RTVSPropertyOp43
 70
     0
102
RTVSPropertyOp44
 70
     0
102
RTVSPropertyOp45
 70
     1
102
RTVSPropertyOp46
 70
     0
102
RTVSPropertyOp47
 70
     0
102
RTVSPropertyOp48
 70
     0
102
RTVSPropertyOp49
 70
     1
102
RTVSPropertyOp50
 70
     0
102
RTVSPropertyOp51
 70
     0
102
RTVSPropertyOp52
 70
     0
102
RTVSPropertyOp53
 70
     0
102
RTVSPropertyOp54
 70
     0
102
RTVSPropertyOp55
 70
     1
102
RTVSPropertyOp56
 70
     0
102
RTVSPropertyOp57
 70
     0
102
RTVSPropertyOp58
 70
     0
102
RTVSPropertyOp59
 70
     0
102
RTVSPropertyOp60
 70
     0
102
RTVSPropertyOp61
 70
     0
102
RTVSPropertyOp62
 70
     0
  0
XRECORD
  5
A2A1
102
{ACAD_REACTORS
330
A2A0
102
}
330
A2A0
100
AcDbXrecord
280
     1
102
RTVSPost2010Prop28
280
     0
102
RTVSPost2010PropOp28
 70
     1
102
RTVSPost2010Prop29
280
     1
102
RTVSPost2010PropOp29
 70
     1
102
RTVSPost2010Prop30
280
     1
102
RTVSPost2010PropOp30
 70
     1
102
RTVSPost2010Prop31
280
     0
102
RTVSPost2010PropOp31
 70
     1
102
RTVSPost2010Prop32
280
     0
102
RTVSPost2010PropOp32
 70
     1
102
RTVSPost2010Prop33
280
     0
102
RTVSPost2010PropOp33
 70
     1
102
RTVSPost2010Prop34
280
     0
102
RTVSPost2010PropOp34
 70
     1
102
RTVSPost2010Prop35
280
     0
102
RTVSPost2010PropOp35
 70
     1
102
RTVSPost2010Prop36
280
     0
102
RTVSPost2010PropOp36
 70
     1
102
RTVSPost2010Prop37
 90
       50
102
RTVSPost2010PropOp37
 70
     1
102
RTVSPost2010Prop38
140
0.0
102
RTVSPost2010PropOp38
 70
     1
102
RTVSPost2010Prop39
140
1.0
102
RTVSPost2010PropOp39
 70
     1
102
RTVSPost2010Prop40
 90
        0
102
RTVSPost2010PropOp40
 70
     1
102
RTVSPost2010Prop41ColorIndex
 90
       18
102
RTVSPost2010Prop41ColorRGB
 90
        0
102
RTVSPost2010PropOp41
 70
     1
102
RTVSPost2010Prop42
 90
       50
102
RTVSPost2010PropOp42
 70
     1
102
RTVSPost2010Prop43
 90
        3
102
RTVSPost2010PropOp43
 70
     1
102
RTVSPost2010Prop44ColorIndex
 90
        5
102
RTVSPost2010Prop44ColorRGB
 90
      255
102
RTVSPost2010PropOp44
 70
     1
102
RTVSPost2010Prop45
280
     0
102
RTVSPost2010PropOp45
 70
     1
102
RTVSPost2010Prop46
 90
       50
102
RTVSPost2010PropOp46
 70
     1
102
RTVSPost2010Prop47
 90
       50
102
RTVSPost2010PropOp47
 70
     1
102
RTVSPost2010Prop48
 90
       50
102
RTVSPost2010PropOp48
 70
     1
102
RTVSPost2010Prop49
280
     0
102
RTVSPost2010PropOp49
 70
     1
102
RTVSPost2010Prop50
 90
       50
102
RTVSPost2010PropOp50
 70
     1
102
RTVSPost2010Prop51ColorIndex
 90
      256
102
RTVSPost2010Prop51ColorRGB
 90
-16777216
102
RTVSPost2010PropOp51
 70
     0
102
RTVSPost2010Prop52
140
1.0
102
RTVSPost2010PropOp52
 70
     0
102
RTVSPost2010Prop53
 90
        2
102
RTVSPost2010PropOp53
 70
     1
102
RTVSPost2010Prop54
  1
strokes_ogs.tif
102
RTVSPost2010PropOp54
 70
     1
102
RTVSPost2010Prop55
280
     0
102
RTVSPost2010PropOp55
 70
     1
102
RTVSPost2010Prop56
140
1.0
102
RTVSPost2010PropOp56
 70
     1
102
RTVSPost2010Prop57
140
1.0
102
RTVSPost2010PropOp57
 70
     1
102
RTVSPropertyOp0
 70
     1
102
RTVSPropertyOp1
 70
     1
102
RTVSPropertyOp2
 70
     1
102
RTVSPropertyOp3
 70
     1
102
RTVSPropertyOp4
 70
     1
102
RTVSPropertyOp5
 70
     1
102
RTVSPropertyOp6
 70
     1
102
RTVSPropertyOp7
 70
     1
102
RTVSPropertyOp8
 70
     1
102
RTVSPropertyOp9
 70
     1
102
RTVSPropertyOp10
 70
     1
102
RTVSPropertyOp11
 70
     1
102
RTVSPropertyOp12
 70
     1
102
RTVSPropertyOp13
 70
     1
102
RTVSPropertyOp14
 70
     1
102
RTVSPropertyOp15
 70
     1
102
RTVSPropertyOp16
 70
     1
102
RTVSPropertyOp17
 70
     1
102
RTVSPropertyOp18
 70
     1
102
RTVSPropertyOp19
 70
     1
102
RTVSPropertyOp20
 70
     1
102
RTVSPropertyOp21
 70
     1
102
RTVSPropertyOp22
 70
     1
102
RTVSPropertyOp23
 70
     1
102
RTVSPropertyOp24
 70
     1
102
RTVSPropertyOp25
 70
     1
102
RTVSPropertyOp26
 70
     1
102
RTVSPropertyOp27
 70
     1
102
RTVSPropertyOp28
 70
     1
102
RTVSPropertyOp29
 70
     1
102
RTVSPropertyOp30
 70
     1
102
RTVSPropertyOp31
 70
     1
102
RTVSPropertyOp32
 70
     1
102
RTVSPropertyOp33
 70
     1
102
RTVSPropertyOp34
 70
     1
102
RTVSPropertyOp35
 70
     1
102
RTVSPropertyOp36
 70
     1
102
RTVSPropertyOp37
 70
     1
102
RTVSPropertyOp38
 70
     1
102
RTVSPropertyOp39
 70
     1
102
RTVSPropertyOp40
 70
     1
102
RTVSPropertyOp41
 70
     1
102
RTVSPropertyOp42
 70
     1
102
RTVSPropertyOp43
 70
     1
102
RTVSPropertyOp44
 70
     1
102
RTVSPropertyOp45
 70
     1
102
RTVSPropertyOp46
 70
     1
102
RTVSPropertyOp47
 70
     1
102
RTVSPropertyOp48
 70
     1
102
RTVSPropertyOp49
 70
     1
102
RTVSPropertyOp50
 70
     1
102
RTVSPropertyOp51
 70
     0
102
RTVSPropertyOp52
 70
     0
102
RTVSPropertyOp53
 70
     1
102
RTVSPropertyOp54
 70
     1
102
RTVSPropertyOp55
 70
     1
102
RTVSPropertyOp56
 70
     1
102
RTVSPropertyOp57
 70
     1
102
RTVSPropertyOp58
 70
     1
102
RTVSPropertyOp59
 70
     1
102
RTVSPropertyOp60
 70
     1
102
RTVSPropertyOp61
 70
     1
102
RTVSPropertyOp62
 70
     1
  0
XRECORD
  5
A285
102
{ACAD_REACTORS
330
A284
102
}
330
A284
100
AcDbXrecord
280
     1
102
RTVSPost2010Prop28
280
     0
102
RTVSPost2010PropOp28
 70
     1
102
RTVSPost2010Prop29
280
     1
102
RTVSPost2010PropOp29
 70
     1
102
RTVSPost2010Prop30
280
     1
102
RTVSPost2010PropOp30
 70
     1
102
RTVSPost2010Prop31
280
     0
102
RTVSPost2010PropOp31
 70
     1
102
RTVSPost2010Prop32
280
     0
102
RTVSPost2010PropOp32
 70
     1
102
RTVSPost2010Prop33
280
     0
102
RTVSPost2010PropOp33
 70
     1
102
RTVSPost2010Prop34
280
     0
102
RTVSPost2010PropOp34
 70
     1
102
RTVSPost2010Prop35
280
     0
102
RTVSPost2010PropOp35
 70
     1
102
RTVSPost2010Prop36
280
     0
102
RTVSPost2010PropOp36
 70
     1
102
RTVSPost2010Prop37
 90
       50
102
RTVSPost2010PropOp37
 70
     1
102
RTVSPost2010Prop38
140
0.0
102
RTVSPost2010PropOp38
 70
     1
102
RTVSPost2010Prop39
140
1.0
102
RTVSPost2010PropOp39
 70
     1
102
RTVSPost2010Prop40
 90
        0
102
RTVSPost2010PropOp40
 70
     1
102
RTVSPost2010Prop41ColorIndex
 90
       18
102
RTVSPost2010Prop41ColorRGB
 90
        0
102
RTVSPost2010PropOp41
 70
     1
102
RTVSPost2010Prop42
 90
       50
102
RTVSPost2010PropOp42
 70
     1
102
RTVSPost2010Prop43
 90
        3
102
RTVSPost2010PropOp43
 70
     1
102
RTVSPost2010Prop44ColorIndex
 90
        5
102
RTVSPost2010Prop44ColorRGB
 90
      255
102
RTVSPost2010PropOp44
 70
     1
102
RTVSPost2010Prop45
280
     0
102
RTVSPost2010PropOp45
 70
     1
102
RTVSPost2010Prop46
 90
       50
102
RTVSPost2010PropOp46
 70
     1
102
RTVSPost2010Prop47
 90
       50
102
RTVSPost2010PropOp47
 70
     1
102
RTVSPost2010Prop48
 90
       50
102
RTVSPost2010PropOp48
 70
     1
102
RTVSPost2010Prop49
280
     0
102
RTVSPost2010PropOp49
 70
     1
102
RTVSPost2010Prop50
 90
       50
102
RTVSPost2010PropOp50
 70
     1
102
RTVSPost2010Prop51ColorIndex
 90
      256
102
RTVSPost2010Prop51ColorRGB
 90
-16777216
102
RTVSPost2010PropOp51
 70
     0
102
RTVSPost2010Prop52
140
1.0
102
RTVSPost2010PropOp52
 70
     0
102
RTVSPost2010Prop53
 90
        2
102
RTVSPost2010PropOp53
 70
     1
102
RTVSPost2010Prop54
  1
strokes_ogs.tif
102
RTVSPost2010PropOp54
 70
     1
102
RTVSPost2010Prop55
280
     0
102
RTVSPost2010PropOp55
 70
     1
102
RTVSPost2010Prop56
140
1.0
102
RTVSPost2010PropOp56
 70
     1
102
RTVSPost2010Prop57
140
1.0
102
RTVSPost2010PropOp57
 70
     1
102
RTVSPropertyOp0
 70
     1
102
RTVSPropertyOp1
 70
     1
102
RTVSPropertyOp2
 70
     1
102
RTVSPropertyOp3
 70
     1
102
RTVSPropertyOp4
 70
     1
102
RTVSPropertyOp5
 70
     1
102
RTVSPropertyOp6
 70
     1
102
RTVSPropertyOp7
 70
     1
102
RTVSPropertyOp8
 70
     1
102
RTVSPropertyOp9
 70
     1
102
RTVSPropertyOp10
 70
     1
102
RTVSPropertyOp11
 70
     1
102
RTVSPropertyOp12
 70
     1
102
RTVSPropertyOp13
 70
     1
102
RTVSPropertyOp14
 70
     1
102
RTVSPropertyOp15
 70
     1
102
RTVSPropertyOp16
 70
     1
102
RTVSPropertyOp17
 70
     1
102
RTVSPropertyOp18
 70
     1
102
RTVSPropertyOp19
 70
     1
102
RTVSPropertyOp20
 70
     1
102
RTVSPropertyOp21
 70
     1
102
RTVSPropertyOp22
 70
     1
102
RTVSPropertyOp23
 70
     1
102
RTVSPropertyOp24
 70
     1
102
RTVSPropertyOp25
 70
     1
102
RTVSPropertyOp26
 70
     1
102
RTVSPropertyOp27
 70
     1
102
RTVSPropertyOp28
 70
     1
102
RTVSPropertyOp29
 70
     1
102
RTVSPropertyOp30
 70
     1
102
RTVSPropertyOp31
 70
     1
102
RTVSPropertyOp32
 70
     1
102
RTVSPropertyOp33
 70
     1
102
RTVSPropertyOp34
 70
     1
102
RTVSPropertyOp35
 70
     1
102
RTVSPropertyOp36
 70
     1
102
RTVSPropertyOp37
 70
     1
102
RTVSPropertyOp38
 70
     1
102
RTVSPropertyOp39
 70
     1
102
RTVSPropertyOp40
 70
     1
102
RTVSPropertyOp41
 70
     1
102
RTVSPropertyOp42
 70
     1
102
RTVSPropertyOp43
 70
     1
102
RTVSPropertyOp44
 70
     1
102
RTVSPropertyOp45
 70
     1
102
RTVSPropertyOp46
 70
     1
102
RTVSPropertyOp47
 70
     1
102
RTVSPropertyOp48
 70
     1
102
RTVSPropertyOp49
 70
     1
102
RTVSPropertyOp50
 70
     1
102
RTVSPropertyOp51
 70
     0
102
RTVSPropertyOp52
 70
     0
102
RTVSPropertyOp53
 70
     1
102
RTVSPropertyOp54
 70
     1
102
RTVSPropertyOp55
 70
     1
102
RTVSPropertyOp56
 70
     1
102
RTVSPropertyOp57
 70
     1
102
RTVSPropertyOp58
 70
     1
102
RTVSPropertyOp59
 70
     1
102
RTVSPropertyOp60
 70
     1
102
RTVSPropertyOp61
 70
     1
102
RTVSPropertyOp62
 70
     1
  0
XRECORD
  5
A287
102
{ACAD_REACTORS
330
A286
102
}
330
A286
100
AcDbXrecord
280
     1
102
RTVSPost2010Prop28
280
     0
102
RTVSPost2010PropOp28
 70
     1
102
RTVSPost2010Prop29
280
     1
102
RTVSPost2010PropOp29
 70
     1
102
RTVSPost2010Prop30
280
     1
102
RTVSPost2010PropOp30
 70
     1
102
RTVSPost2010Prop31
280
     0
102
RTVSPost2010PropOp31
 70
     1
102
RTVSPost2010Prop32
280
     0
102
RTVSPost2010PropOp32
 70
     1
102
RTVSPost2010Prop33
280
     0
102
RTVSPost2010PropOp33
 70
     1
102
RTVSPost2010Prop34
280
     0
102
RTVSPost2010PropOp34
 70
     1
102
RTVSPost2010Prop35
280
     0
102
RTVSPost2010PropOp35
 70
     1
102
RTVSPost2010Prop36
280
     0
102
RTVSPost2010PropOp36
 70
     1
102
RTVSPost2010Prop37
 90
       50
102
RTVSPost2010PropOp37
 70
     1
102
RTVSPost2010Prop38
140
0.0
102
RTVSPost2010PropOp38
 70
     1
102
RTVSPost2010Prop39
140
1.0
102
RTVSPost2010PropOp39
 70
     1
102
RTVSPost2010Prop40
 90
        0
102
RTVSPost2010PropOp40
 70
     1
102
RTVSPost2010Prop41ColorIndex
 90
       18
102
RTVSPost2010Prop41ColorRGB
 90
        0
102
RTVSPost2010PropOp41
 70
     1
102
RTVSPost2010Prop42
 90
       50
102
RTVSPost2010PropOp42
 70
     1
102
RTVSPost2010Prop43
 90
        3
102
RTVSPost2010PropOp43
 70
     1
102
RTVSPost2010Prop44ColorIndex
 90
        5
102
RTVSPost2010Prop44ColorRGB
 90
      255
102
RTVSPost2010PropOp44
 70
     1
102
RTVSPost2010Prop45
280
     0
102
RTVSPost2010PropOp45
 70
     1
102
RTVSPost2010Prop46
 90
       50
102
RTVSPost2010PropOp46
 70
     1
102
RTVSPost2010Prop47
 90
       50
102
RTVSPost2010PropOp47
 70
     1
102
RTVSPost2010Prop48
 90
       50
102
RTVSPost2010PropOp48
 70
     1
102
RTVSPost2010Prop49
280
     0
102
RTVSPost2010PropOp49
 70
     1
102
RTVSPost2010Prop50
 90
       50
102
RTVSPost2010PropOp50
 70
     1
102
RTVSPost2010Prop51ColorIndex
 90
      256
102
RTVSPost2010Prop51ColorRGB
 90
-16777216
102
RTVSPost2010PropOp51
 70
     0
102
RTVSPost2010Prop52
140
1.0
102
RTVSPost2010PropOp52
 70
     0
102
RTVSPost2010Prop53
 90
        2
102
RTVSPost2010PropOp53
 70
     1
102
RTVSPost2010Prop54
  1
strokes_ogs.tif
102
RTVSPost2010PropOp54
 70
     1
102
RTVSPost2010Prop55
280
     0
102
RTVSPost2010PropOp55
 70
     1
102
RTVSPost2010Prop56
140
1.0
102
RTVSPost2010PropOp56
 70
     1
102
RTVSPost2010Prop57
140
1.0
102
RTVSPost2010PropOp57
 70
     1
102
RTVSPropertyOp0
 70
     1
102
RTVSPropertyOp1
 70
     1
102
RTVSPropertyOp2
 70
     1
102
RTVSPropertyOp3
 70
     1
102
RTVSPropertyOp4
 70
     1
102
RTVSPropertyOp5
 70
     1
102
RTVSPropertyOp6
 70
     1
102
RTVSPropertyOp7
 70
     1
102
RTVSPropertyOp8
 70
     1
102
RTVSPropertyOp9
 70
     1
102
RTVSPropertyOp10
 70
     1
102
RTVSPropertyOp11
 70
     1
102
RTVSPropertyOp12
 70
     1
102
RTVSPropertyOp13
 70
     1
102
RTVSPropertyOp14
 70
     1
102
RTVSPropertyOp15
 70
     1
102
RTVSPropertyOp16
 70
     1
102
RTVSPropertyOp17
 70
     1
102
RTVSPropertyOp18
 70
     1
102
RTVSPropertyOp19
 70
     1
102
RTVSPropertyOp20
 70
     1
102
RTVSPropertyOp21
 70
     1
102
RTVSPropertyOp22
 70
     1
102
RTVSPropertyOp23
 70
     1
102
RTVSPropertyOp24
 70
     1
102
RTVSPropertyOp25
 70
     1
102
RTVSPropertyOp26
 70
     1
102
RTVSPropertyOp27
 70
     1
102
RTVSPropertyOp28
 70
     1
102
RTVSPropertyOp29
 70
     1
102
RTVSPropertyOp30
 70
     1
102
RTVSPropertyOp31
 70
     1
102
RTVSPropertyOp32
 70
     1
102
RTVSPropertyOp33
 70
     1
102
RTVSPropertyOp34
 70
     1
102
RTVSPropertyOp35
 70
     1
102
RTVSPropertyOp36
 70
     1
102
RTVSPropertyOp37
 70
     1
102
RTVSPropertyOp38
 70
     1
102
RTVSPropertyOp39
 70
     1
102
RTVSPropertyOp40
 70
     1
102
RTVSPropertyOp41
 70
     1
102
RTVSPropertyOp42
 70
     1
102
RTVSPropertyOp43
 70
     1
102
RTVSPropertyOp44
 70
     1
102
RTVSPropertyOp45
 70
     1
102
RTVSPropertyOp46
 70
     1
102
RTVSPropertyOp47
 70
     1
102
RTVSPropertyOp48
 70
     1
102
RTVSPropertyOp49
 70
     1
102
RTVSPropertyOp50
 70
     1
102
RTVSPropertyOp51
 70
     0
102
RTVSPropertyOp52
 70
     0
102
RTVSPropertyOp53
 70
     1
102
RTVSPropertyOp54
 70
     1
102
RTVSPropertyOp55
 70
     1
102
RTVSPropertyOp56
 70
     1
102
RTVSPropertyOp57
 70
     1
102
RTVSPropertyOp58
 70
     1
102
RTVSPropertyOp59
 70
     1
102
RTVSPropertyOp60
 70
     1
102
RTVSPropertyOp61
 70
     1
102
RTVSPropertyOp62
 70
     1
  0
XRECORD
  5
A289
102
{ACAD_REACTORS
330
A288
102
}
330
A288
100
AcDbXrecord
280
     1
102
RTVSPost2010Prop28
280
     0
102
RTVSPost2010PropOp28
 70
     1
102
RTVSPost2010Prop29
280
     1
102
RTVSPost2010PropOp29
 70
     1
102
RTVSPost2010Prop30
280
     1
102
RTVSPost2010PropOp30
 70
     1
102
RTVSPost2010Prop31
280
     0
102
RTVSPost2010PropOp31
 70
     1
102
RTVSPost2010Prop32
280
     0
102
RTVSPost2010PropOp32
 70
     1
102
RTVSPost2010Prop33
280
     0
102
RTVSPost2010PropOp33
 70
     1
102
RTVSPost2010Prop34
280
     0
102
RTVSPost2010PropOp34
 70
     1
102
RTVSPost2010Prop35
280
     0
102
RTVSPost2010PropOp35
 70
     1
102
RTVSPost2010Prop36
280
     0
102
RTVSPost2010PropOp36
 70
     1
102
RTVSPost2010Prop37
 90
       50
102
RTVSPost2010PropOp37
 70
     1
102
RTVSPost2010Prop38
140
0.0
102
RTVSPost2010PropOp38
 70
     1
102
RTVSPost2010Prop39
140
1.0
102
RTVSPost2010PropOp39
 70
     1
102
RTVSPost2010Prop40
 90
        0
102
RTVSPost2010PropOp40
 70
     1
102
RTVSPost2010Prop41ColorIndex
 90
       18
102
RTVSPost2010Prop41ColorRGB
 90
        0
102
RTVSPost2010PropOp41
 70
     1
102
RTVSPost2010Prop42
 90
       50
102
RTVSPost2010PropOp42
 70
     1
102
RTVSPost2010Prop43
 90
        3
102
RTVSPost2010PropOp43
 70
     1
102
RTVSPost2010Prop44ColorIndex
 90
        5
102
RTVSPost2010Prop44ColorRGB
 90
      255
102
RTVSPost2010PropOp44
 70
     1
102
RTVSPost2010Prop45
280
     0
102
RTVSPost2010PropOp45
 70
     1
102
RTVSPost2010Prop46
 90
       50
102
RTVSPost2010PropOp46
 70
     1
102
RTVSPost2010Prop47
 90
       50
102
RTVSPost2010PropOp47
 70
     1
102
RTVSPost2010Prop48
 90
       50
102
RTVSPost2010PropOp48
 70
     1
102
RTVSPost2010Prop49
280
     0
102
RTVSPost2010PropOp49
 70
     1
102
RTVSPost2010Prop50
 90
       50
102
RTVSPost2010PropOp50
 70
     1
102
RTVSPost2010Prop51ColorIndex
 90
      256
102
RTVSPost2010Prop51ColorRGB
 90
-16777216
102
RTVSPost2010PropOp51
 70
     0
102
RTVSPost2010Prop52
140
1.0
102
RTVSPost2010PropOp52
 70
     0
102
RTVSPost2010Prop53
 90
        2
102
RTVSPost2010PropOp53
 70
     1
102
RTVSPost2010Prop54
  1
strokes_ogs.tif
102
RTVSPost2010PropOp54
 70
     1
102
RTVSPost2010Prop55
280
     0
102
RTVSPost2010PropOp55
 70
     1
102
RTVSPost2010Prop56
140
1.0
102
RTVSPost2010PropOp56
 70
     1
102
RTVSPost2010Prop57
140
1.0
102
RTVSPost2010PropOp57
 70
     1
102
RTVSPropertyOp0
 70
     1
102
RTVSPropertyOp1
 70
     1
102
RTVSPropertyOp2
 70
     1
102
RTVSPropertyOp3
 70
     1
102
RTVSPropertyOp4
 70
     1
102
RTVSPropertyOp5
 70
     1
102
RTVSPropertyOp6
 70
     1
102
RTVSPropertyOp7
 70
     1
102
RTVSPropertyOp8
 70
     1
102
RTVSPropertyOp9
 70
     1
102
RTVSPropertyOp10
 70
     1
102
RTVSPropertyOp11
 70
     1
102
RTVSPropertyOp12
 70
     1
102
RTVSPropertyOp13
 70
     1
102
RTVSPropertyOp14
 70
     1
102
RTVSPropertyOp15
 70
     1
102
RTVSPropertyOp16
 70
     1
102
RTVSPropertyOp17
 70
     1
102
RTVSPropertyOp18
 70
     1
102
RTVSPropertyOp19
 70
     1
102
RTVSPropertyOp20
 70
     1
102
RTVSPropertyOp21
 70
     1
102
RTVSPropertyOp22
 70
     1
102
RTVSPropertyOp23
 70
     1
102
RTVSPropertyOp24
 70
     1
102
RTVSPropertyOp25
 70
     1
102
RTVSPropertyOp26
 70
     1
102
RTVSPropertyOp27
 70
     1
102
RTVSPropertyOp28
 70
     1
102
RTVSPropertyOp29
 70
     1
102
RTVSPropertyOp30
 70
     1
102
RTVSPropertyOp31
 70
     1
102
RTVSPropertyOp32
 70
     1
102
RTVSPropertyOp33
 70
     1
102
RTVSPropertyOp34
 70
     1
102
RTVSPropertyOp35
 70
     1
102
RTVSPropertyOp36
 70
     1
102
RTVSPropertyOp37
 70
     1
102
RTVSPropertyOp38
 70
     1
102
RTVSPropertyOp39
 70
     1
102
RTVSPropertyOp40
 70
     1
102
RTVSPropertyOp41
 70
     1
102
RTVSPropertyOp42
 70
     1
102
RTVSPropertyOp43
 70
     1
102
RTVSPropertyOp44
 70
     1
102
RTVSPropertyOp45
 70
     1
102
RTVSPropertyOp46
 70
     1
102
RTVSPropertyOp47
 70
     1
102
RTVSPropertyOp48
 70
     1
102
RTVSPropertyOp49
 70
     1
102
RTVSPropertyOp50
 70
     1
102
RTVSPropertyOp51
 70
     0
102
RTVSPropertyOp52
 70
     0
102
RTVSPropertyOp53
 70
     1
102
RTVSPropertyOp54
 70
     1
102
RTVSPropertyOp55
 70
     1
102
RTVSPropertyOp56
 70
     1
102
RTVSPropertyOp57
 70
     1
102
RTVSPropertyOp58
 70
     1
102
RTVSPropertyOp59
 70
     1
102
RTVSPropertyOp60
 70
     1
102
RTVSPropertyOp61
 70
     1
102
RTVSPropertyOp62
 70
     1
  0
XRECORD
  5
A28B
102
{ACAD_REACTORS
330
A28A
102
}
330
A28A
100
AcDbXrecord
280
     1
102
RTVSPost2010Prop28
280
     0
102
RTVSPost2010PropOp28
 70
     1
102
RTVSPost2010Prop29
280
     1
102
RTVSPost2010PropOp29
 70
     1
102
RTVSPost2010Prop30
280
     1
102
RTVSPost2010PropOp30
 70
     1
102
RTVSPost2010Prop31
280
     0
102
RTVSPost2010PropOp31
 70
     1
102
RTVSPost2010Prop32
280
     0
102
RTVSPost2010PropOp32
 70
     1
102
RTVSPost2010Prop33
280
     0
102
RTVSPost2010PropOp33
 70
     1
102
RTVSPost2010Prop34
280
     0
102
RTVSPost2010PropOp34
 70
     1
102
RTVSPost2010Prop35
280
     0
102
RTVSPost2010PropOp35
 70
     1
102
RTVSPost2010Prop36
280
     0
102
RTVSPost2010PropOp36
 70
     1
102
RTVSPost2010Prop37
 90
       50
102
RTVSPost2010PropOp37
 70
     1
102
RTVSPost2010Prop38
140
0.0
102
RTVSPost2010PropOp38
 70
     1
102
RTVSPost2010Prop39
140
1.0
102
RTVSPost2010PropOp39
 70
     1
102
RTVSPost2010Prop40
 90
        0
102
RTVSPost2010PropOp40
 70
     1
102
RTVSPost2010Prop41ColorIndex
 90
       18
102
RTVSPost2010Prop41ColorRGB
 90
        0
102
RTVSPost2010PropOp41
 70
     1
102
RTVSPost2010Prop42
 90
       50
102
RTVSPost2010PropOp42
 70
     1
102
RTVSPost2010Prop43
 90
        3
102
RTVSPost2010PropOp43
 70
     1
102
RTVSPost2010Prop44ColorIndex
 90
        5
102
RTVSPost2010Prop44ColorRGB
 90
      255
102
RTVSPost2010PropOp44
 70
     1
102
RTVSPost2010Prop45
280
     0
102
RTVSPost2010PropOp45
 70
     1
102
RTVSPost2010Prop46
 90
       50
102
RTVSPost2010PropOp46
 70
     1
102
RTVSPost2010Prop47
 90
       50
102
RTVSPost2010PropOp47
 70
     1
102
RTVSPost2010Prop48
 90
       50
102
RTVSPost2010PropOp48
 70
     1
102
RTVSPost2010Prop49
280
     0
102
RTVSPost2010PropOp49
 70
     1
102
RTVSPost2010Prop50
 90
       50
102
RTVSPost2010PropOp50
 70
     1
102
RTVSPost2010Prop51ColorIndex
 90
      256
102
RTVSPost2010Prop51ColorRGB
 90
-16777216
102
RTVSPost2010PropOp51
 70
     0
102
RTVSPost2010Prop52
140
1.0
102
RTVSPost2010PropOp52
 70
     0
102
RTVSPost2010Prop53
 90
        2
102
RTVSPost2010PropOp53
 70
     1
102
RTVSPost2010Prop54
  1
strokes_ogs.tif
102
RTVSPost2010PropOp54
 70
     1
102
RTVSPost2010Prop55
280
     0
102
RTVSPost2010PropOp55
 70
     1
102
RTVSPost2010Prop56
140
1.0
102
RTVSPost2010PropOp56
 70
     1
102
RTVSPost2010Prop57
140
1.0
102
RTVSPost2010PropOp57
 70
     1
102
RTVSPropertyOp0
 70
     1
102
RTVSPropertyOp1
 70
     1
102
RTVSPropertyOp2
 70
     1
102
RTVSPropertyOp3
 70
     1
102
RTVSPropertyOp4
 70
     1
102
RTVSPropertyOp5
 70
     1
102
RTVSPropertyOp6
 70
     1
102
RTVSPropertyOp7
 70
     1
102
RTVSPropertyOp8
 70
     1
102
RTVSPropertyOp9
 70
     1
102
RTVSPropertyOp10
 70
     1
102
RTVSPropertyOp11
 70
     1
102
RTVSPropertyOp12
 70
     1
102
RTVSPropertyOp13
 70
     1
102
RTVSPropertyOp14
 70
     1
102
RTVSPropertyOp15
 70
     1
102
RTVSPropertyOp16
 70
     1
102
RTVSPropertyOp17
 70
     1
102
RTVSPropertyOp18
 70
     1
102
RTVSPropertyOp19
 70
     1
102
RTVSPropertyOp20
 70
     1
102
RTVSPropertyOp21
 70
     1
102
RTVSPropertyOp22
 70
     1
102
RTVSPropertyOp23
 70
     1
102
RTVSPropertyOp24
 70
     1
102
RTVSPropertyOp25
 70
     1
102
RTVSPropertyOp26
 70
     1
102
RTVSPropertyOp27
 70
     1
102
RTVSPropertyOp28
 70
     1
102
RTVSPropertyOp29
 70
     1
102
RTVSPropertyOp30
 70
     1
102
RTVSPropertyOp31
 70
     1
102
RTVSPropertyOp32
 70
     1
102
RTVSPropertyOp33
 70
     1
102
RTVSPropertyOp34
 70
     1
102
RTVSPropertyOp35
 70
     1
102
RTVSPropertyOp36
 70
     1
102
RTVSPropertyOp37
 70
     1
102
RTVSPropertyOp38
 70
     1
102
RTVSPropertyOp39
 70
     1
102
RTVSPropertyOp40
 70
     1
102
RTVSPropertyOp41
 70
     1
102
RTVSPropertyOp42
 70
     1
102
RTVSPropertyOp43
 70
     1
102
RTVSPropertyOp44
 70
     1
102
RTVSPropertyOp45
 70
     1
102
RTVSPropertyOp46
 70
     1
102
RTVSPropertyOp47
 70
     1
102
RTVSPropertyOp48
 70
     1
102
RTVSPropertyOp49
 70
     1
102
RTVSPropertyOp50
 70
     1
102
RTVSPropertyOp51
 70
     0
102
RTVSPropertyOp52
 70
     0
102
RTVSPropertyOp53
 70
     1
102
RTVSPropertyOp54
 70
     1
102
RTVSPropertyOp55
 70
     1
102
RTVSPropertyOp56
 70
     1
102
RTVSPropertyOp57
 70
     1
102
RTVSPropertyOp58
 70
     1
102
RTVSPropertyOp59
 70
     1
102
RTVSPropertyOp60
 70
     1
102
RTVSPropertyOp61
 70
     1
102
RTVSPropertyOp62
 70
     1
  0
XRECORD
  5
A293
102
{ACAD_REACTORS
330
A292
102
}
330
A292
100
AcDbXrecord
280
     1
102
RTVSPost2010Prop28
280
     0
102
RTVSPost2010PropOp28
 70
     1
102
RTVSPost2010Prop29
280
     1
102
RTVSPost2010PropOp29
 70
     1
102
RTVSPost2010Prop30
280
     1
102
RTVSPost2010PropOp30
 70
     1
102
RTVSPost2010Prop31
280
     0
102
RTVSPost2010PropOp31
 70
     1
102
RTVSPost2010Prop32
280
     0
102
RTVSPost2010PropOp32
 70
     1
102
RTVSPost2010Prop33
280
     0
102
RTVSPost2010PropOp33
 70
     1
102
RTVSPost2010Prop34
280
     0
102
RTVSPost2010PropOp34
 70
     1
102
RTVSPost2010Prop35
280
     0
102
RTVSPost2010PropOp35
 70
     1
102
RTVSPost2010Prop36
280
     0
102
RTVSPost2010PropOp36
 70
     1
102
RTVSPost2010Prop37
 90
       50
102
RTVSPost2010PropOp37
 70
     1
102
RTVSPost2010Prop38
140
0.0
102
RTVSPost2010PropOp38
 70
     1
102
RTVSPost2010Prop39
140
1.0
102
RTVSPost2010PropOp39
 70
     1
102
RTVSPost2010Prop40
 90
        0
102
RTVSPost2010PropOp40
 70
     1
102
RTVSPost2010Prop41ColorIndex
 90
       18
102
RTVSPost2010Prop41ColorRGB
 90
        0
102
RTVSPost2010PropOp41
 70
     1
102
RTVSPost2010Prop42
 90
       50
102
RTVSPost2010PropOp42
 70
     1
102
RTVSPost2010Prop43
 90
        3
102
RTVSPost2010PropOp43
 70
     1
102
RTVSPost2010Prop44ColorIndex
 90
        5
102
RTVSPost2010Prop44ColorRGB
 90
      255
102
RTVSPost2010PropOp44
 70
     1
102
RTVSPost2010Prop45
280
     0
102
RTVSPost2010PropOp45
 70
     1
102
RTVSPost2010Prop46
 90
       50
102
RTVSPost2010PropOp46
 70
     1
102
RTVSPost2010Prop47
 90
       50
102
RTVSPost2010PropOp47
 70
     1
102
RTVSPost2010Prop48
 90
       50
102
RTVSPost2010PropOp48
 70
     1
102
RTVSPost2010Prop49
280
     0
102
RTVSPost2010PropOp49
 70
     1
102
RTVSPost2010Prop50
 90
       50
102
RTVSPost2010PropOp50
 70
     1
102
RTVSPost2010Prop51ColorIndex
 90
      256
102
RTVSPost2010Prop51ColorRGB
 90
-16777216
102
RTVSPost2010PropOp51
 70
     0
102
RTVSPost2010Prop52
140
1.0
102
RTVSPost2010PropOp52
 70
     0
102
RTVSPost2010Prop53
 90
        2
102
RTVSPost2010PropOp53
 70
     1
102
RTVSPost2010Prop54
  1
strokes_ogs.tif
102
RTVSPost2010PropOp54
 70
     1
102
RTVSPost2010Prop55
280
     0
102
RTVSPost2010PropOp55
 70
     1
102
RTVSPost2010Prop56
140
1.0
102
RTVSPost2010PropOp56
 70
     1
102
RTVSPost2010Prop57
140
1.0
102
RTVSPost2010PropOp57
 70
     1
102
RTVSPropertyOp0
 70
     1
102
RTVSPropertyOp1
 70
     1
102
RTVSPropertyOp2
 70
     1
102
RTVSPropertyOp3
 70
     1
102
RTVSPropertyOp4
 70
     1
102
RTVSPropertyOp5
 70
     1
102
RTVSPropertyOp6
 70
     1
102
RTVSPropertyOp7
 70
     1
102
RTVSPropertyOp8
 70
     1
102
RTVSPropertyOp9
 70
     1
102
RTVSPropertyOp10
 70
     1
102
RTVSPropertyOp11
 70
     1
102
RTVSPropertyOp12
 70
     1
102
RTVSPropertyOp13
 70
     1
102
RTVSPropertyOp14
 70
     1
102
RTVSPropertyOp15
 70
     1
102
RTVSPropertyOp16
 70
     1
102
RTVSPropertyOp17
 70
     1
102
RTVSPropertyOp18
 70
     1
102
RTVSPropertyOp19
 70
     1
102
RTVSPropertyOp20
 70
     1
102
RTVSPropertyOp21
 70
     1
102
RTVSPropertyOp22
 70
     1
102
RTVSPropertyOp23
 70
     1
102
RTVSPropertyOp24
 70
     1
102
RTVSPropertyOp25
 70
     1
102
RTVSPropertyOp26
 70
     1
102
RTVSPropertyOp27
 70
     1
102
RTVSPropertyOp28
 70
     1
102
RTVSPropertyOp29
 70
     1
102
RTVSPropertyOp30
 70
     1
102
RTVSPropertyOp31
 70
     1
102
RTVSPropertyOp32
 70
     1
102
RTVSPropertyOp33
 70
     1
102
RTVSPropertyOp34
 70
     1
102
RTVSPropertyOp35
 70
     1
102
RTVSPropertyOp36
 70
     1
102
RTVSPropertyOp37
 70
     1
102
RTVSPropertyOp38
 70
     1
102
RTVSPropertyOp39
 70
     1
102
RTVSPropertyOp40
 70
     1
102
RTVSPropertyOp41
 70
     1
102
RTVSPropertyOp42
 70
     1
102
RTVSPropertyOp43
 70
     1
102
RTVSPropertyOp44
 70
     1
102
RTVSPropertyOp45
 70
     1
102
RTVSPropertyOp46
 70
     1
102
RTVSPropertyOp47
 70
     1
102
RTVSPropertyOp48
 70
     1
102
RTVSPropertyOp49
 70
     1
102
RTVSPropertyOp50
 70
     1
102
RTVSPropertyOp51
 70
     0
102
RTVSPropertyOp52
 70
     0
102
RTVSPropertyOp53
 70
     1
102
RTVSPropertyOp54
 70
     1
102
RTVSPropertyOp55
 70
     1
102
RTVSPropertyOp56
 70
     1
102
RTVSPropertyOp57
 70
     1
102
RTVSPropertyOp58
 70
     1
102
RTVSPropertyOp59
 70
     1
102
RTVSPropertyOp60
 70
     1
102
RTVSPropertyOp61
 70
     1
102
RTVSPropertyOp62
 70
     1
  0
XRECORD
  5
A2AF
102
{ACAD_REACTORS
330
A2AE
102
}
330
A2AE
100
AcDbXrecord
280
     1
102
RTVSPost2010Prop28
280
     0
102
RTVSPost2010PropOp28
 70
     1
102
RTVSPost2010Prop29
280
     1
102
RTVSPost2010PropOp29
 70
     1
102
RTVSPost2010Prop30
280
     1
102
RTVSPost2010PropOp30
 70
     1
102
RTVSPost2010Prop31
280
     0
102
RTVSPost2010PropOp31
 70
     1
102
RTVSPost2010Prop32
280
     0
102
RTVSPost2010PropOp32
 70
     1
102
RTVSPost2010Prop33
280
     0
102
RTVSPost2010PropOp33
 70
     1
102
RTVSPost2010Prop34
280
     0
102
RTVSPost2010PropOp34
 70
     1
102
RTVSPost2010Prop35
280
     0
102
RTVSPost2010PropOp35
 70
     1
102
RTVSPost2010Prop36
280
     0
102
RTVSPost2010PropOp36
 70
     1
102
RTVSPost2010Prop37
 90
       50
102
RTVSPost2010PropOp37
 70
     0
102
RTVSPost2010Prop38
140
0.0
102
RTVSPost2010PropOp38
 70
     0
102
RTVSPost2010Prop39
140
1.0
102
RTVSPost2010PropOp39
 70
     0
102
RTVSPost2010Prop40
 90
        0
102
RTVSPost2010PropOp40
 70
     0
102
RTVSPost2010Prop41ColorIndex
 90
       18
102
RTVSPost2010Prop41ColorRGB
 90
        0
102
RTVSPost2010PropOp41
 70
     0
102
RTVSPost2010Prop42
 90
       50
102
RTVSPost2010PropOp42
 70
     0
102
RTVSPost2010Prop43
 90
        3
102
RTVSPost2010PropOp43
 70
     0
102
RTVSPost2010Prop44ColorIndex
 90
        5
102
RTVSPost2010Prop44ColorRGB
 90
      255
102
RTVSPost2010PropOp44
 70
     0
102
RTVSPost2010Prop45
280
     0
102
RTVSPost2010PropOp45
 70
     1
102
RTVSPost2010Prop46
 90
       50
102
RTVSPost2010PropOp46
 70
     0
102
RTVSPost2010Prop47
 90
       50
102
RTVSPost2010PropOp47
 70
     0
102
RTVSPost2010Prop48
 90
       50
102
RTVSPost2010PropOp48
 70
     0
102
RTVSPost2010Prop49
280
     0
102
RTVSPost2010PropOp49
 70
     1
102
RTVSPost2010Prop50
 90
       50
102
RTVSPost2010PropOp50
 70
     0
102
RTVSPost2010Prop51ColorIndex
 90
      256
102
RTVSPost2010Prop51ColorRGB
 90
-16777216
102
RTVSPost2010PropOp51
 70
     0
102
RTVSPost2010Prop52
140
1.0
102
RTVSPost2010PropOp52
 70
     0
102
RTVSPost2010Prop53
 90
        2
102
RTVSPost2010PropOp53
 70
     0
102
RTVSPost2010Prop54
  1
strokes_ogs.tif
102
RTVSPost2010PropOp54
 70
     0
102
RTVSPost2010Prop55
280
     0
102
RTVSPost2010PropOp55
 70
     1
102
RTVSPost2010Prop56
140
1.0
102
RTVSPost2010PropOp56
 70
     0
102
RTVSPost2010Prop57
140
1.0
102
RTVSPost2010PropOp57
 70
     0
102
RTVSPropertyOp0
 70
     0
102
RTVSPropertyOp1
 70
     0
102
RTVSPropertyOp2
 70
     0
102
RTVSPropertyOp3
 70
     0
102
RTVSPropertyOp4
 70
     0
102
RTVSPropertyOp5
 70
     0
102
RTVSPropertyOp6
 70
     0
102
RTVSPropertyOp7
 70
     0
102
RTVSPropertyOp8
 70
     0
102
RTVSPropertyOp9
 70
     0
102
RTVSPropertyOp10
 70
     0
102
RTVSPropertyOp11
 70
     0
102
RTVSPropertyOp12
 70
     0
102
RTVSPropertyOp13
 70
     0
102
RTVSPropertyOp14
 70
     2
102
RTVSPropertyOp15
 70
     0
102
RTVSPropertyOp16
 70
     0
102
RTVSPropertyOp17
 70
     0
102
RTVSPropertyOp18
 70
     0
102
RTVSPropertyOp19
 70
     0
102
RTVSPropertyOp20
 70
     0
102
RTVSPropertyOp21
 70
     0
102
RTVSPropertyOp22
 70
     0
102
RTVSPropertyOp23
 70
     0
102
RTVSPropertyOp24
 70
     0
102
RTVSPropertyOp25
 70
     0
102
RTVSPropertyOp26
 70
     0
102
RTVSPropertyOp27
 70
     0
102
RTVSPropertyOp28
 70
     1
102
RTVSPropertyOp29
 70
     1
102
RTVSPropertyOp30
 70
     1
102
RTVSPropertyOp31
 70
     1
102
RTVSPropertyOp32
 70
     1
102
RTVSPropertyOp33
 70
     1
102
RTVSPropertyOp34
 70
     1
102
RTVSPropertyOp35
 70
     1
102
RTVSPropertyOp36
 70
     1
102
RTVSPropertyOp37
 70
     0
102
RTVSPropertyOp38
 70
     0
102
RTVSPropertyOp39
 70
     0
102
RTVSPropertyOp40
 70
     0
102
RTVSPropertyOp41
 70
     0
102
RTVSPropertyOp42
 70
     0
102
RTVSPropertyOp43
 70
     0
102
RTVSPropertyOp44
 70
     0
102
RTVSPropertyOp45
 70
     1
102
RTVSPropertyOp46
 70
     0
102
RTVSPropertyOp47
 70
     0
102
RTVSPropertyOp48
 70
     0
102
RTVSPropertyOp49
 70
     1
102
RTVSPropertyOp50
 70
     0
102
RTVSPropertyOp51
 70
     0
102
RTVSPropertyOp52
 70
     0
102
RTVSPropertyOp53
 70
     0
102
RTVSPropertyOp54
 70
     0
102
RTVSPropertyOp55
 70
     1
102
RTVSPropertyOp56
 70
     0
102
RTVSPropertyOp57
 70
     0
102
RTVSPropertyOp58
 70
     0
102
RTVSPropertyOp59
 70
     0
102
RTVSPropertyOp60
 70
     0
102
RTVSPropertyOp61
 70
     0
102
RTVSPropertyOp62
 70
     0
  0
XRECORD
  5
A29F
102
{ACAD_REACTORS
330
A29E
102
}
330
A29E
100
AcDbXrecord
280
     1
102
RTVSPost2010Prop28
280
     0
102
RTVSPost2010PropOp28
 70
     1
102
RTVSPost2010Prop29
280
     1
102
RTVSPost2010PropOp29
 70
     1
102
RTVSPost2010Prop30
280
     1
102
RTVSPost2010PropOp30
 70
     1
102
RTVSPost2010Prop31
280
     0
102
RTVSPost2010PropOp31
 70
     1
102
RTVSPost2010Prop32
280
     0
102
RTVSPost2010PropOp32
 70
     1
102
RTVSPost2010Prop33
280
     0
102
RTVSPost2010PropOp33
 70
     1
102
RTVSPost2010Prop34
280
     0
102
RTVSPost2010PropOp34
 70
     1
102
RTVSPost2010Prop35
280
     0
102
RTVSPost2010PropOp35
 70
     1
102
RTVSPost2010Prop36
280
     0
102
RTVSPost2010PropOp36
 70
     1
102
RTVSPost2010Prop37
 90
       50
102
RTVSPost2010PropOp37
 70
     1
102
RTVSPost2010Prop38
140
0.0
102
RTVSPost2010PropOp38
 70
     1
102
RTVSPost2010Prop39
140
1.0
102
RTVSPost2010PropOp39
 70
     1
102
RTVSPost2010Prop40
 90
        0
102
RTVSPost2010PropOp40
 70
     1
102
RTVSPost2010Prop41ColorIndex
 90
       18
102
RTVSPost2010Prop41ColorRGB
 90
        0
102
RTVSPost2010PropOp41
 70
     1
102
RTVSPost2010Prop42
 90
       50
102
RTVSPost2010PropOp42
 70
     1
102
RTVSPost2010Prop43
 90
        3
102
RTVSPost2010PropOp43
 70
     1
102
RTVSPost2010Prop44ColorIndex
 90
        5
102
RTVSPost2010Prop44ColorRGB
 90
      255
102
RTVSPost2010PropOp44
 70
     1
102
RTVSPost2010Prop45
280
     0
102
RTVSPost2010PropOp45
 70
     1
102
RTVSPost2010Prop46
 90
       50
102
RTVSPost2010PropOp46
 70
     1
102
RTVSPost2010Prop47
 90
       50
102
RTVSPost2010PropOp47
 70
     1
102
RTVSPost2010Prop48
 90
       50
102
RTVSPost2010PropOp48
 70
     1
102
RTVSPost2010Prop49
280
     0
102
RTVSPost2010PropOp49
 70
     1
102
RTVSPost2010Prop50
 90
       50
102
RTVSPost2010PropOp50
 70
     1
102
RTVSPost2010Prop51ColorIndex
 90
      256
102
RTVSPost2010Prop51ColorRGB
 90
-16777216
102
RTVSPost2010PropOp51
 70
     0
102
RTVSPost2010Prop52
140
1.0
102
RTVSPost2010PropOp52
 70
     0
102
RTVSPost2010Prop53
 90
        2
102
RTVSPost2010PropOp53
 70
     1
102
RTVSPost2010Prop54
  1
strokes_ogs.tif
102
RTVSPost2010PropOp54
 70
     1
102
RTVSPost2010Prop55
280
     0
102
RTVSPost2010PropOp55
 70
     1
102
RTVSPost2010Prop56
140
1.0
102
RTVSPost2010PropOp56
 70
     1
102
RTVSPost2010Prop57
140
1.0
102
RTVSPost2010PropOp57
 70
     1
102
RTVSPropertyOp0
 70
     1
102
RTVSPropertyOp1
 70
     1
102
RTVSPropertyOp2
 70
     1
102
RTVSPropertyOp3
 70
     1
102
RTVSPropertyOp4
 70
     1
102
RTVSPropertyOp5
 70
     1
102
RTVSPropertyOp6
 70
     1
102
RTVSPropertyOp7
 70
     1
102
RTVSPropertyOp8
 70
     1
102
RTVSPropertyOp9
 70
     1
102
RTVSPropertyOp10
 70
     1
102
RTVSPropertyOp11
 70
     1
102
RTVSPropertyOp12
 70
     1
102
RTVSPropertyOp13
 70
     1
102
RTVSPropertyOp14
 70
     1
102
RTVSPropertyOp15
 70
     1
102
RTVSPropertyOp16
 70
     1
102
RTVSPropertyOp17
 70
     1
102
RTVSPropertyOp18
 70
     1
102
RTVSPropertyOp19
 70
     1
102
RTVSPropertyOp20
 70
     1
102
RTVSPropertyOp21
 70
     1
102
RTVSPropertyOp22
 70
     1
102
RTVSPropertyOp23
 70
     1
102
RTVSPropertyOp24
 70
     1
102
RTVSPropertyOp25
 70
     1
102
RTVSPropertyOp26
 70
     1
102
RTVSPropertyOp27
 70
     1
102
RTVSPropertyOp28
 70
     1
102
RTVSPropertyOp29
 70
     1
102
RTVSPropertyOp30
 70
     1
102
RTVSPropertyOp31
 70
     1
102
RTVSPropertyOp32
 70
     1
102
RTVSPropertyOp33
 70
     1
102
RTVSPropertyOp34
 70
     1
102
RTVSPropertyOp35
 70
     1
102
RTVSPropertyOp36
 70
     1
102
RTVSPropertyOp37
 70
     1
102
RTVSPropertyOp38
 70
     1
102
RTVSPropertyOp39
 70
     1
102
RTVSPropertyOp40
 70
     1
102
RTVSPropertyOp41
 70
     1
102
RTVSPropertyOp42
 70
     1
102
RTVSPropertyOp43
 70
     1
102
RTVSPropertyOp44
 70
     1
102
RTVSPropertyOp45
 70
     1
102
RTVSPropertyOp46
 70
     1
102
RTVSPropertyOp47
 70
     1
102
RTVSPropertyOp48
 70
     1
102
RTVSPropertyOp49
 70
     1
102
RTVSPropertyOp50
 70
     1
102
RTVSPropertyOp51
 70
     0
102
RTVSPropertyOp52
 70
     0
102
RTVSPropertyOp53
 70
     1
102
RTVSPropertyOp54
 70
     1
102
RTVSPropertyOp55
 70
     1
102
RTVSPropertyOp56
 70
     1
102
RTVSPropertyOp57
 70
     1
102
RTVSPropertyOp58
 70
     1
102
RTVSPropertyOp59
 70
     1
102
RTVSPropertyOp60
 70
     1
102
RTVSPropertyOp61
 70
     1
102
RTVSPropertyOp62
 70
     1
  0
XRECORD
  5
A2B1
102
{ACAD_REACTORS
330
A2B0
102
}
330
A2B0
100
AcDbXrecord
280
     1
102
RTVSPost2010Prop28
280
     0
102
RTVSPost2010PropOp28
 70
     1
102
RTVSPost2010Prop29
280
     1
102
RTVSPost2010PropOp29
 70
     1
102
RTVSPost2010Prop30
280
     1
102
RTVSPost2010PropOp30
 70
     1
102
RTVSPost2010Prop31
280
     0
102
RTVSPost2010PropOp31
 70
     1
102
RTVSPost2010Prop32
280
     0
102
RTVSPost2010PropOp32
 70
     1
102
RTVSPost2010Prop33
280
     0
102
RTVSPost2010PropOp33
 70
     1
102
RTVSPost2010Prop34
280
     0
102
RTVSPost2010PropOp34
 70
     1
102
RTVSPost2010Prop35
280
     0
102
RTVSPost2010PropOp35
 70
     1
102
RTVSPost2010Prop36
280
     0
102
RTVSPost2010PropOp36
 70
     1
102
RTVSPost2010Prop37
 90
       50
102
RTVSPost2010PropOp37
 70
     0
102
RTVSPost2010Prop38
140
0.0
102
RTVSPost2010PropOp38
 70
     0
102
RTVSPost2010Prop39
140
1.0
102
RTVSPost2010PropOp39
 70
     0
102
RTVSPost2010Prop40
 90
        0
102
RTVSPost2010PropOp40
 70
     0
102
RTVSPost2010Prop41ColorIndex
 90
       18
102
RTVSPost2010Prop41ColorRGB
 90
        0
102
RTVSPost2010PropOp41
 70
     0
102
RTVSPost2010Prop42
 90
       50
102
RTVSPost2010PropOp42
 70
     0
102
RTVSPost2010Prop43
 90
        3
102
RTVSPost2010PropOp43
 70
     0
102
RTVSPost2010Prop44ColorIndex
 90
        5
102
RTVSPost2010Prop44ColorRGB
 90
      255
102
RTVSPost2010PropOp44
 70
     0
102
RTVSPost2010Prop45
280
     0
102
RTVSPost2010PropOp45
 70
     1
102
RTVSPost2010Prop46
 90
       50
102
RTVSPost2010PropOp46
 70
     0
102
RTVSPost2010Prop47
 90
       50
102
RTVSPost2010PropOp47
 70
     0
102
RTVSPost2010Prop48
 90
       50
102
RTVSPost2010PropOp48
 70
     0
102
RTVSPost2010Prop49
280
     0
102
RTVSPost2010PropOp49
 70
     1
102
RTVSPost2010Prop50
 90
       50
102
RTVSPost2010PropOp50
 70
     0
102
RTVSPost2010Prop51ColorIndex
 90
      256
102
RTVSPost2010Prop51ColorRGB
 90
-16777216
102
RTVSPost2010PropOp51
 70
     0
102
RTVSPost2010Prop52
140
1.0
102
RTVSPost2010PropOp52
 70
     0
102
RTVSPost2010Prop53
 90
        2
102
RTVSPost2010PropOp53
 70
     0
102
RTVSPost2010Prop54
  1
strokes_ogs.tif
102
RTVSPost2010PropOp54
 70
     0
102
RTVSPost2010Prop55
280
     0
102
RTVSPost2010PropOp55
 70
     1
102
RTVSPost2010Prop56
140
1.0
102
RTVSPost2010PropOp56
 70
     0
102
RTVSPost2010Prop57
140
1.0
102
RTVSPost2010PropOp57
 70
     0
102
RTVSPropertyOp0
 70
     0
102
RTVSPropertyOp1
 70
     0
102
RTVSPropertyOp2
 70
     0
102
RTVSPropertyOp3
 70
     0
102
RTVSPropertyOp4
 70
     0
102
RTVSPropertyOp5
 70
     0
102
RTVSPropertyOp6
 70
     0
102
RTVSPropertyOp7
 70
     0
102
RTVSPropertyOp8
 70
     0
102
RTVSPropertyOp9
 70
     0
102
RTVSPropertyOp10
 70
     0
102
RTVSPropertyOp11
 70
     0
102
RTVSPropertyOp12
 70
     0
102
RTVSPropertyOp13
 70
     0
102
RTVSPropertyOp14
 70
     2
102
RTVSPropertyOp15
 70
     0
102
RTVSPropertyOp16
 70
     0
102
RTVSPropertyOp17
 70
     0
102
RTVSPropertyOp18
 70
     0
102
RTVSPropertyOp19
 70
     0
102
RTVSPropertyOp20
 70
     0
102
RTVSPropertyOp21
 70
     0
102
RTVSPropertyOp22
 70
     0
102
RTVSPropertyOp23
 70
     0
102
RTVSPropertyOp24
 70
     0
102
RTVSPropertyOp25
 70
     0
102
RTVSPropertyOp26
 70
     0
102
RTVSPropertyOp27
 70
     0
102
RTVSPropertyOp28
 70
     1
102
RTVSPropertyOp29
 70
     1
102
RTVSPropertyOp30
 70
     1
102
RTVSPropertyOp31
 70
     1
102
RTVSPropertyOp32
 70
     1
102
RTVSPropertyOp33
 70
     1
102
RTVSPropertyOp34
 70
     1
102
RTVSPropertyOp35
 70
     1
102
RTVSPropertyOp36
 70
     1
102
RTVSPropertyOp37
 70
     0
102
RTVSPropertyOp38
 70
     0
102
RTVSPropertyOp39
 70
     0
102
RTVSPropertyOp40
 70
     0
102
RTVSPropertyOp41
 70
     0
102
RTVSPropertyOp42
 70
     0
102
RTVSPropertyOp43
 70
     0
102
RTVSPropertyOp44
 70
     0
102
RTVSPropertyOp45
 70
     1
102
RTVSPropertyOp46
 70
     0
102
RTVSPropertyOp47
 70
     0
102
RTVSPropertyOp48
 70
     0
102
RTVSPropertyOp49
 70
     1
102
RTVSPropertyOp50
 70
     0
102
RTVSPropertyOp51
 70
     0
102
RTVSPropertyOp52
 70
     0
102
RTVSPropertyOp53
 70
     0
102
RTVSPropertyOp54
 70
     0
102
RTVSPropertyOp55
 70
     1
102
RTVSPropertyOp56
 70
     0
102
RTVSPropertyOp57
 70
     0
102
RTVSPropertyOp58
 70
     0
102
RTVSPropertyOp59
 70
     0
102
RTVSPropertyOp60
 70
     0
102
RTVSPropertyOp61
 70
     0
102
RTVSPropertyOp62
 70
     0
  0
XRECORD
  5
A297
102
{ACAD_REACTORS
330
A296
102
}
330
A296
100
AcDbXrecord
280
     1
102
RTVSPost2010Prop28
280
     0
102
RTVSPost2010PropOp28
 70
     1
102
RTVSPost2010Prop29
280
     1
102
RTVSPost2010PropOp29
 70
     1
102
RTVSPost2010Prop30
280
     1
102
RTVSPost2010PropOp30
 70
     1
102
RTVSPost2010Prop31
280
     0
102
RTVSPost2010PropOp31
 70
     1
102
RTVSPost2010Prop32
280
     0
102
RTVSPost2010PropOp32
 70
     1
102
RTVSPost2010Prop33
280
     0
102
RTVSPost2010PropOp33
 70
     1
102
RTVSPost2010Prop34
280
     0
102
RTVSPost2010PropOp34
 70
     1
102
RTVSPost2010Prop35
280
     0
102
RTVSPost2010PropOp35
 70
     1
102
RTVSPost2010Prop36
280
     0
102
RTVSPost2010PropOp36
 70
     1
102
RTVSPost2010Prop37
 90
       50
102
RTVSPost2010PropOp37
 70
     1
102
RTVSPost2010Prop38
140
0.0
102
RTVSPost2010PropOp38
 70
     1
102
RTVSPost2010Prop39
140
1.0
102
RTVSPost2010PropOp39
 70
     1
102
RTVSPost2010Prop40
 90
        0
102
RTVSPost2010PropOp40
 70
     1
102
RTVSPost2010Prop41ColorIndex
 90
       18
102
RTVSPost2010Prop41ColorRGB
 90
        0
102
RTVSPost2010PropOp41
 70
     1
102
RTVSPost2010Prop42
 90
       50
102
RTVSPost2010PropOp42
 70
     1
102
RTVSPost2010Prop43
 90
        3
102
RTVSPost2010PropOp43
 70
     1
102
RTVSPost2010Prop44ColorIndex
 90
        5
102
RTVSPost2010Prop44ColorRGB
 90
      255
102
RTVSPost2010PropOp44
 70
     1
102
RTVSPost2010Prop45
280
     0
102
RTVSPost2010PropOp45
 70
     1
102
RTVSPost2010Prop46
 90
       50
102
RTVSPost2010PropOp46
 70
     1
102
RTVSPost2010Prop47
 90
       50
102
RTVSPost2010PropOp47
 70
     1
102
RTVSPost2010Prop48
 90
       50
102
RTVSPost2010PropOp48
 70
     1
102
RTVSPost2010Prop49
280
     0
102
RTVSPost2010PropOp49
 70
     1
102
RTVSPost2010Prop50
 90
       50
102
RTVSPost2010PropOp50
 70
     1
102
RTVSPost2010Prop51ColorIndex
 90
      256
102
RTVSPost2010Prop51ColorRGB
 90
-16777216
102
RTVSPost2010PropOp51
 70
     0
102
RTVSPost2010Prop52
140
1.0
102
RTVSPost2010PropOp52
 70
     0
102
RTVSPost2010Prop53
 90
        2
102
RTVSPost2010PropOp53
 70
     1
102
RTVSPost2010Prop54
  1
strokes_ogs.tif
102
RTVSPost2010PropOp54
 70
     1
102
RTVSPost2010Prop55
280
     0
102
RTVSPost2010PropOp55
 70
     1
102
RTVSPost2010Prop56
140
1.0
102
RTVSPost2010PropOp56
 70
     1
102
RTVSPost2010Prop57
140
1.0
102
RTVSPost2010PropOp57
 70
     1
102
RTVSPropertyOp0
 70
     1
102
RTVSPropertyOp1
 70
     1
102
RTVSPropertyOp2
 70
     1
102
RTVSPropertyOp3
 70
     1
102
RTVSPropertyOp4
 70
     1
102
RTVSPropertyOp5
 70
     1
102
RTVSPropertyOp6
 70
     1
102
RTVSPropertyOp7
 70
     1
102
RTVSPropertyOp8
 70
     1
102
RTVSPropertyOp9
 70
     1
102
RTVSPropertyOp10
 70
     1
102
RTVSPropertyOp11
 70
     1
102
RTVSPropertyOp12
 70
     1
102
RTVSPropertyOp13
 70
     1
102
RTVSPropertyOp14
 70
     1
102
RTVSPropertyOp15
 70
     1
102
RTVSPropertyOp16
 70
     1
102
RTVSPropertyOp17
 70
     1
102
RTVSPropertyOp18
 70
     1
102
RTVSPropertyOp19
 70
     1
102
RTVSPropertyOp20
 70
     1
102
RTVSPropertyOp21
 70
     1
102
RTVSPropertyOp22
 70
     1
102
RTVSPropertyOp23
 70
     1
102
RTVSPropertyOp24
 70
     1
102
RTVSPropertyOp25
 70
     1
102
RTVSPropertyOp26
 70
     1
102
RTVSPropertyOp27
 70
     1
102
RTVSPropertyOp28
 70
     1
102
RTVSPropertyOp29
 70
     1
102
RTVSPropertyOp30
 70
     1
102
RTVSPropertyOp31
 70
     1
102
RTVSPropertyOp32
 70
     1
102
RTVSPropertyOp33
 70
     1
102
RTVSPropertyOp34
 70
     1
102
RTVSPropertyOp35
 70
     1
102
RTVSPropertyOp36
 70
     1
102
RTVSPropertyOp37
 70
     1
102
RTVSPropertyOp38
 70
     1
102
RTVSPropertyOp39
 70
     1
102
RTVSPropertyOp40
 70
     1
102
RTVSPropertyOp41
 70
     1
102
RTVSPropertyOp42
 70
     1
102
RTVSPropertyOp43
 70
     1
102
RTVSPropertyOp44
 70
     1
102
RTVSPropertyOp45
 70
     1
102
RTVSPropertyOp46
 70
     1
102
RTVSPropertyOp47
 70
     1
102
RTVSPropertyOp48
 70
     1
102
RTVSPropertyOp49
 70
     1
102
RTVSPropertyOp50
 70
     1
102
RTVSPropertyOp51
 70
     0
102
RTVSPropertyOp52
 70
     0
102
RTVSPropertyOp53
 70
     1
102
RTVSPropertyOp54
 70
     1
102
RTVSPropertyOp55
 70
     1
102
RTVSPropertyOp56
 70
     1
102
RTVSPropertyOp57
 70
     1
102
RTVSPropertyOp58
 70
     1
102
RTVSPropertyOp59
 70
     1
102
RTVSPropertyOp60
 70
     1
102
RTVSPropertyOp61
 70
     1
102
RTVSPropertyOp62
 70
     1
  0
XRECORD
  5
A2AD
102
{ACAD_REACTORS
330
A2AC
102
}
330
A2AC
100
AcDbXrecord
280
     1
102
RTVSPost2010Prop28
280
     0
102
RTVSPost2010PropOp28
 70
     1
102
RTVSPost2010Prop29
280
     1
102
RTVSPost2010PropOp29
 70
     1
102
RTVSPost2010Prop30
280
     1
102
RTVSPost2010PropOp30
 70
     1
102
RTVSPost2010Prop31
280
     0
102
RTVSPost2010PropOp31
 70
     1
102
RTVSPost2010Prop32
280
     0
102
RTVSPost2010PropOp32
 70
     1
102
RTVSPost2010Prop33
280
     0
102
RTVSPost2010PropOp33
 70
     1
102
RTVSPost2010Prop34
280
     0
102
RTVSPost2010PropOp34
 70
     1
102
RTVSPost2010Prop35
280
     0
102
RTVSPost2010PropOp35
 70
     1
102
RTVSPost2010Prop36
280
     0
102
RTVSPost2010PropOp36
 70
     1
102
RTVSPost2010Prop37
 90
       50
102
RTVSPost2010PropOp37
 70
     1
102
RTVSPost2010Prop38
140
0.0
102
RTVSPost2010PropOp38
 70
     1
102
RTVSPost2010Prop39
140
1.0
102
RTVSPost2010PropOp39
 70
     1
102
RTVSPost2010Prop40
 90
        0
102
RTVSPost2010PropOp40
 70
     1
102
RTVSPost2010Prop41ColorIndex
 90
       18
102
RTVSPost2010Prop41ColorRGB
 90
        0
102
RTVSPost2010PropOp41
 70
     1
102
RTVSPost2010Prop42
 90
       50
102
RTVSPost2010PropOp42
 70
     1
102
RTVSPost2010Prop43
 90
        3
102
RTVSPost2010PropOp43
 70
     1
102
RTVSPost2010Prop44ColorIndex
 90
        5
102
RTVSPost2010Prop44ColorRGB
 90
      255
102
RTVSPost2010PropOp44
 70
     1
102
RTVSPost2010Prop45
280
     0
102
RTVSPost2010PropOp45
 70
     1
102
RTVSPost2010Prop46
 90
       50
102
RTVSPost2010PropOp46
 70
     1
102
RTVSPost2010Prop47
 90
       50
102
RTVSPost2010PropOp47
 70
     1
102
RTVSPost2010Prop48
 90
       50
102
RTVSPost2010PropOp48
 70
     1
102
RTVSPost2010Prop49
280
     0
102
RTVSPost2010PropOp49
 70
     1
102
RTVSPost2010Prop50
 90
       50
102
RTVSPost2010PropOp50
 70
     1
102
RTVSPost2010Prop51ColorIndex
 90
      256
102
RTVSPost2010Prop51ColorRGB
 90
-16777216
102
RTVSPost2010PropOp51
 70
     0
102
RTVSPost2010Prop52
140
1.0
102
RTVSPost2010PropOp52
 70
     0
102
RTVSPost2010Prop53
 90
        2
102
RTVSPost2010PropOp53
 70
     1
102
RTVSPost2010Prop54
  1
strokes_ogs.tif
102
RTVSPost2010PropOp54
 70
     1
102
RTVSPost2010Prop55
280
     0
102
RTVSPost2010PropOp55
 70
     1
102
RTVSPost2010Prop56
140
1.0
102
RTVSPost2010PropOp56
 70
     1
102
RTVSPost2010Prop57
140
1.0
102
RTVSPost2010PropOp57
 70
     1
102
RTVSPropertyOp0
 70
     1
102
RTVSPropertyOp1
 70
     1
102
RTVSPropertyOp2
 70
     1
102
RTVSPropertyOp3
 70
     1
102
RTVSPropertyOp4
 70
     1
102
RTVSPropertyOp5
 70
     1
102
RTVSPropertyOp6
 70
     1
102
RTVSPropertyOp7
 70
     1
102
RTVSPropertyOp8
 70
     1
102
RTVSPropertyOp9
 70
     1
102
RTVSPropertyOp10
 70
     1
102
RTVSPropertyOp11
 70
     1
102
RTVSPropertyOp12
 70
     1
102
RTVSPropertyOp13
 70
     1
102
RTVSPropertyOp14
 70
     1
102
RTVSPropertyOp15
 70
     1
102
RTVSPropertyOp16
 70
     1
102
RTVSPropertyOp17
 70
     1
102
RTVSPropertyOp18
 70
     1
102
RTVSPropertyOp19
 70
     1
102
RTVSPropertyOp20
 70
     1
102
RTVSPropertyOp21
 70
     1
102
RTVSPropertyOp22
 70
     1
102
RTVSPropertyOp23
 70
     1
102
RTVSPropertyOp24
 70
     1
102
RTVSPropertyOp25
 70
     1
102
RTVSPropertyOp26
 70
     1
102
RTVSPropertyOp27
 70
     1
102
RTVSPropertyOp28
 70
     1
102
RTVSPropertyOp29
 70
     1
102
RTVSPropertyOp30
 70
     1
102
RTVSPropertyOp31
 70
     1
102
RTVSPropertyOp32
 70
     1
102
RTVSPropertyOp33
 70
     1
102
RTVSPropertyOp34
 70
     1
102
RTVSPropertyOp35
 70
     1
102
RTVSPropertyOp36
 70
     1
102
RTVSPropertyOp37
 70
     1
102
RTVSPropertyOp38
 70
     1
102
RTVSPropertyOp39
 70
     1
102
RTVSPropertyOp40
 70
     1
102
RTVSPropertyOp41
 70
     1
102
RTVSPropertyOp42
 70
     1
102
RTVSPropertyOp43
 70
     1
102
RTVSPropertyOp44
 70
     1
102
RTVSPropertyOp45
 70
     1
102
RTVSPropertyOp46
 70
     1
102
RTVSPropertyOp47
 70
     1
102
RTVSPropertyOp48
 70
     1
102
RTVSPropertyOp49
 70
     1
102
RTVSPropertyOp50
 70
     1
102
RTVSPropertyOp51
 70
     0
102
RTVSPropertyOp52
 70
     0
102
RTVSPropertyOp53
 70
     1
102
RTVSPropertyOp54
 70
     1
102
RTVSPropertyOp55
 70
     1
102
RTVSPropertyOp56
 70
     1
102
RTVSPropertyOp57
 70
     1
102
RTVSPropertyOp58
 70
     1
102
RTVSPropertyOp59
 70
     1
102
RTVSPropertyOp60
 70
     1
102
RTVSPropertyOp61
 70
     1
102
RTVSPropertyOp62
 70
     1
  0
XRECORD
  5
A2AB
102
{ACAD_REACTORS
330
A2AA
102
}
330
A2AA
100
AcDbXrecord
280
     1
102
RTVSPost2010Prop28
280
     0
102
RTVSPost2010PropOp28
 70
     1
102
RTVSPost2010Prop29
280
     1
102
RTVSPost2010PropOp29
 70
     1
102
RTVSPost2010Prop30
280
     1
102
RTVSPost2010PropOp30
 70
     1
102
RTVSPost2010Prop31
280
     0
102
RTVSPost2010PropOp31
 70
     1
102
RTVSPost2010Prop32
280
     0
102
RTVSPost2010PropOp32
 70
     1
102
RTVSPost2010Prop33
280
     0
102
RTVSPost2010PropOp33
 70
     1
102
RTVSPost2010Prop34
280
     0
102
RTVSPost2010PropOp34
 70
     1
102
RTVSPost2010Prop35
280
     0
102
RTVSPost2010PropOp35
 70
     1
102
RTVSPost2010Prop36
280
     0
102
RTVSPost2010PropOp36
 70
     1
102
RTVSPost2010Prop37
 90
       50
102
RTVSPost2010PropOp37
 70
     1
102
RTVSPost2010Prop38
140
0.0
102
RTVSPost2010PropOp38
 70
     1
102
RTVSPost2010Prop39
140
1.0
102
RTVSPost2010PropOp39
 70
     1
102
RTVSPost2010Prop40
 90
        0
102
RTVSPost2010PropOp40
 70
     1
102
RTVSPost2010Prop41ColorIndex
 90
       18
102
RTVSPost2010Prop41ColorRGB
 90
        0
102
RTVSPost2010PropOp41
 70
     1
102
RTVSPost2010Prop42
 90
       50
102
RTVSPost2010PropOp42
 70
     1
102
RTVSPost2010Prop43
 90
        3
102
RTVSPost2010PropOp43
 70
     1
102
RTVSPost2010Prop44ColorIndex
 90
        5
102
RTVSPost2010Prop44ColorRGB
 90
      255
102
RTVSPost2010PropOp44
 70
     1
102
RTVSPost2010Prop45
280
     0
102
RTVSPost2010PropOp45
 70
     1
102
RTVSPost2010Prop46
 90
       50
102
RTVSPost2010PropOp46
 70
     1
102
RTVSPost2010Prop47
 90
       50
102
RTVSPost2010PropOp47
 70
     1
102
RTVSPost2010Prop48
 90
       50
102
RTVSPost2010PropOp48
 70
     1
102
RTVSPost2010Prop49
280
     0
102
RTVSPost2010PropOp49
 70
     1
102
RTVSPost2010Prop50
 90
       50
102
RTVSPost2010PropOp50
 70
     1
102
RTVSPost2010Prop51ColorIndex
 90
      256
102
RTVSPost2010Prop51ColorRGB
 90
-16777216
102
RTVSPost2010PropOp51
 70
     0
102
RTVSPost2010Prop52
140
1.0
102
RTVSPost2010PropOp52
 70
     0
102
RTVSPost2010Prop53
 90
        2
102
RTVSPost2010PropOp53
 70
     1
102
RTVSPost2010Prop54
  1
strokes_ogs.tif
102
RTVSPost2010PropOp54
 70
     1
102
RTVSPost2010Prop55
280
     0
102
RTVSPost2010PropOp55
 70
     1
102
RTVSPost2010Prop56
140
1.0
102
RTVSPost2010PropOp56
 70
     1
102
RTVSPost2010Prop57
140
1.0
102
RTVSPost2010PropOp57
 70
     1
102
RTVSPropertyOp0
 70
     1
102
RTVSPropertyOp1
 70
     1
102
RTVSPropertyOp2
 70
     1
102
RTVSPropertyOp3
 70
     1
102
RTVSPropertyOp4
 70
     1
102
RTVSPropertyOp5
 70
     1
102
RTVSPropertyOp6
 70
     1
102
RTVSPropertyOp7
 70
     1
102
RTVSPropertyOp8
 70
     1
102
RTVSPropertyOp9
 70
     1
102
RTVSPropertyOp10
 70
     1
102
RTVSPropertyOp11
 70
     1
102
RTVSPropertyOp12
 70
     1
102
RTVSPropertyOp13
 70
     1
102
RTVSPropertyOp14
 70
     1
102
RTVSPropertyOp15
 70
     1
102
RTVSPropertyOp16
 70
     1
102
RTVSPropertyOp17
 70
     1
102
RTVSPropertyOp18
 70
     1
102
RTVSPropertyOp19
 70
     1
102
RTVSPropertyOp20
 70
     1
102
RTVSPropertyOp21
 70
     1
102
RTVSPropertyOp22
 70
     1
102
RTVSPropertyOp23
 70
     1
102
RTVSPropertyOp24
 70
     1
102
RTVSPropertyOp25
 70
     1
102
RTVSPropertyOp26
 70
     1
102
RTVSPropertyOp27
 70
     1
102
RTVSPropertyOp28
 70
     1
102
RTVSPropertyOp29
 70
     1
102
RTVSPropertyOp30
 70
     1
102
RTVSPropertyOp31
 70
     1
102
RTVSPropertyOp32
 70
     1
102
RTVSPropertyOp33
 70
     1
102
RTVSPropertyOp34
 70
     1
102
RTVSPropertyOp35
 70
     1
102
RTVSPropertyOp36
 70
     1
102
RTVSPropertyOp37
 70
     1
102
RTVSPropertyOp38
 70
     1
102
RTVSPropertyOp39
 70
     1
102
RTVSPropertyOp40
 70
     1
102
RTVSPropertyOp41
 70
     1
102
RTVSPropertyOp42
 70
     1
102
RTVSPropertyOp43
 70
     1
102
RTVSPropertyOp44
 70
     1
102
RTVSPropertyOp45
 70
     1
102
RTVSPropertyOp46
 70
     1
102
RTVSPropertyOp47
 70
     1
102
RTVSPropertyOp48
 70
     1
102
RTVSPropertyOp49
 70
     1
102
RTVSPropertyOp50
 70
     1
102
RTVSPropertyOp51
 70
     0
102
RTVSPropertyOp52
 70
     0
102
RTVSPropertyOp53
 70
     1
102
RTVSPropertyOp54
 70
     1
102
RTVSPropertyOp55
 70
     1
102
RTVSPropertyOp56
 70
     1
102
RTVSPropertyOp57
 70
     1
102
RTVSPropertyOp58
 70
     1
102
RTVSPropertyOp59
 70
     1
102
RTVSPropertyOp60
 70
     1
102
RTVSPropertyOp61
 70
     1
102
RTVSPropertyOp62
 70
     1
  0
XRECORD
  5
A2A5
102
{ACAD_REACTORS
330
A2A4
102
}
330
A2A4
100
AcDbXrecord
280
     1
102
RTVSPost2010Prop28
280
     0
102
RTVSPost2010PropOp28
 70
     1
102
RTVSPost2010Prop29
280
     1
102
RTVSPost2010PropOp29
 70
     1
102
RTVSPost2010Prop30
280
     1
102
RTVSPost2010PropOp30
 70
     1
102
RTVSPost2010Prop31
280
     0
102
RTVSPost2010PropOp31
 70
     1
102
RTVSPost2010Prop32
280
     0
102
RTVSPost2010PropOp32
 70
     1
102
RTVSPost2010Prop33
280
     0
102
RTVSPost2010PropOp33
 70
     1
102
RTVSPost2010Prop34
280
     0
102
RTVSPost2010PropOp34
 70
     1
102
RTVSPost2010Prop35
280
     0
102
RTVSPost2010PropOp35
 70
     1
102
RTVSPost2010Prop36
280
     0
102
RTVSPost2010PropOp36
 70
     1
102
RTVSPost2010Prop37
 90
       50
102
RTVSPost2010PropOp37
 70
     1
102
RTVSPost2010Prop38
140
0.0
102
RTVSPost2010PropOp38
 70
     1
102
RTVSPost2010Prop39
140
1.0
102
RTVSPost2010PropOp39
 70
     1
102
RTVSPost2010Prop40
 90
        0
102
RTVSPost2010PropOp40
 70
     1
102
RTVSPost2010Prop41ColorIndex
 90
       18
102
RTVSPost2010Prop41ColorRGB
 90
        0
102
RTVSPost2010PropOp41
 70
     1
102
RTVSPost2010Prop42
 90
       50
102
RTVSPost2010PropOp42
 70
     1
102
RTVSPost2010Prop43
 90
        3
102
RTVSPost2010PropOp43
 70
     1
102
RTVSPost2010Prop44ColorIndex
 90
        5
102
RTVSPost2010Prop44ColorRGB
 90
      255
102
RTVSPost2010PropOp44
 70
     1
102
RTVSPost2010Prop45
280
     0
102
RTVSPost2010PropOp45
 70
     1
102
RTVSPost2010Prop46
 90
       50
102
RTVSPost2010PropOp46
 70
     1
102
RTVSPost2010Prop47
 90
       50
102
RTVSPost2010PropOp47
 70
     1
102
RTVSPost2010Prop48
 90
       50
102
RTVSPost2010PropOp48
 70
     1
102
RTVSPost2010Prop49
280
     0
102
RTVSPost2010PropOp49
 70
     1
102
RTVSPost2010Prop50
 90
       50
102
RTVSPost2010PropOp50
 70
     1
102
RTVSPost2010Prop51ColorIndex
 90
      256
102
RTVSPost2010Prop51ColorRGB
 90
-16777216
102
RTVSPost2010PropOp51
 70
     0
102
RTVSPost2010Prop52
140
1.0
102
RTVSPost2010PropOp52
 70
     0
102
RTVSPost2010Prop53
 90
        2
102
RTVSPost2010PropOp53
 70
     1
102
RTVSPost2010Prop54
  1
strokes_ogs.tif
102
RTVSPost2010PropOp54
 70
     1
102
RTVSPost2010Prop55
280
     0
102
RTVSPost2010PropOp55
 70
     1
102
RTVSPost2010Prop56
140
1.0
102
RTVSPost2010PropOp56
 70
     1
102
RTVSPost2010Prop57
140
1.0
102
RTVSPost2010PropOp57
 70
     1
102
RTVSPropertyOp0
 70
     1
102
RTVSPropertyOp1
 70
     1
102
RTVSPropertyOp2
 70
     1
102
RTVSPropertyOp3
 70
     1
102
RTVSPropertyOp4
 70
     1
102
RTVSPropertyOp5
 70
     1
102
RTVSPropertyOp6
 70
     1
102
RTVSPropertyOp7
 70
     1
102
RTVSPropertyOp8
 70
     1
102
RTVSPropertyOp9
 70
     1
102
RTVSPropertyOp10
 70
     1
102
RTVSPropertyOp11
 70
     1
102
RTVSPropertyOp12
 70
     1
102
RTVSPropertyOp13
 70
     1
102
RTVSPropertyOp14
 70
     1
102
RTVSPropertyOp15
 70
     1
102
RTVSPropertyOp16
 70
     1
102
RTVSPropertyOp17
 70
     1
102
RTVSPropertyOp18
 70
     1
102
RTVSPropertyOp19
 70
     1
102
RTVSPropertyOp20
 70
     1
102
RTVSPropertyOp21
 70
     1
102
RTVSPropertyOp22
 70
     1
102
RTVSPropertyOp23
 70
     1
102
RTVSPropertyOp24
 70
     1
102
RTVSPropertyOp25
 70
     1
102
RTVSPropertyOp26
 70
     1
102
RTVSPropertyOp27
 70
     1
102
RTVSPropertyOp28
 70
     1
102
RTVSPropertyOp29
 70
     1
102
RTVSPropertyOp30
 70
     1
102
RTVSPropertyOp31
 70
     1
102
RTVSPropertyOp32
 70
     1
102
RTVSPropertyOp33
 70
     1
102
RTVSPropertyOp34
 70
     1
102
RTVSPropertyOp35
 70
     1
102
RTVSPropertyOp36
 70
     1
102
RTVSPropertyOp37
 70
     1
102
RTVSPropertyOp38
 70
     1
102
RTVSPropertyOp39
 70
     1
102
RTVSPropertyOp40
 70
     1
102
RTVSPropertyOp41
 70
     1
102
RTVSPropertyOp42
 70
     1
102
RTVSPropertyOp43
 70
     1
102
RTVSPropertyOp44
 70
     1
102
RTVSPropertyOp45
 70
     1
102
RTVSPropertyOp46
 70
     1
102
RTVSPropertyOp47
 70
     1
102
RTVSPropertyOp48
 70
     1
102
RTVSPropertyOp49
 70
     1
102
RTVSPropertyOp50
 70
     1
102
RTVSPropertyOp51
 70
     0
102
RTVSPropertyOp52
 70
     0
102
RTVSPropertyOp53
 70
     1
102
RTVSPropertyOp54
 70
     1
102
RTVSPropertyOp55
 70
     1
102
RTVSPropertyOp56
 70
     1
102
RTVSPropertyOp57
 70
     1
102
RTVSPropertyOp58
 70
     1
102
RTVSPropertyOp59
 70
     1
102
RTVSPropertyOp60
 70
     1
102
RTVSPropertyOp61
 70
     1
102
RTVSPropertyOp62
 70
     1
  0
XRECORD
  5
A2A7
102
{ACAD_REACTORS
330
A2A6
102
}
330
A2A6
100
AcDbXrecord
280
     1
102
RTVSPost2010Prop28
280
     0
102
RTVSPost2010PropOp28
 70
     1
102
RTVSPost2010Prop29
280
     1
102
RTVSPost2010PropOp29
 70
     1
102
RTVSPost2010Prop30
280
     1
102
RTVSPost2010PropOp30
 70
     1
102
RTVSPost2010Prop31
280
     0
102
RTVSPost2010PropOp31
 70
     1
102
RTVSPost2010Prop32
280
     0
102
RTVSPost2010PropOp32
 70
     1
102
RTVSPost2010Prop33
280
     0
102
RTVSPost2010PropOp33
 70
     1
102
RTVSPost2010Prop34
280
     0
102
RTVSPost2010PropOp34
 70
     1
102
RTVSPost2010Prop35
280
     0
102
RTVSPost2010PropOp35
 70
     1
102
RTVSPost2010Prop36
280
     0
102
RTVSPost2010PropOp36
 70
     1
102
RTVSPost2010Prop37
 90
       50
102
RTVSPost2010PropOp37
 70
     1
102
RTVSPost2010Prop38
140
0.0
102
RTVSPost2010PropOp38
 70
     1
102
RTVSPost2010Prop39
140
1.0
102
RTVSPost2010PropOp39
 70
     1
102
RTVSPost2010Prop40
 90
        0
102
RTVSPost2010PropOp40
 70
     1
102
RTVSPost2010Prop41ColorIndex
 90
       18
102
RTVSPost2010Prop41ColorRGB
 90
        0
102
RTVSPost2010PropOp41
 70
     1
102
RTVSPost2010Prop42
 90
       50
102
RTVSPost2010PropOp42
 70
     1
102
RTVSPost2010Prop43
 90
        3
102
RTVSPost2010PropOp43
 70
     1
102
RTVSPost2010Prop44ColorIndex
 90
        5
102
RTVSPost2010Prop44ColorRGB
 90
      255
102
RTVSPost2010PropOp44
 70
     1
102
RTVSPost2010Prop45
280
     0
102
RTVSPost2010PropOp45
 70
     1
102
RTVSPost2010Prop46
 90
       50
102
RTVSPost2010PropOp46
 70
     1
102
RTVSPost2010Prop47
 90
       50
102
RTVSPost2010PropOp47
 70
     1
102
RTVSPost2010Prop48
 90
       50
102
RTVSPost2010PropOp48
 70
     1
102
RTVSPost2010Prop49
280
     0
102
RTVSPost2010PropOp49
 70
     1
102
RTVSPost2010Prop50
 90
       50
102
RTVSPost2010PropOp50
 70
     1
102
RTVSPost2010Prop51ColorIndex
 90
      256
102
RTVSPost2010Prop51ColorRGB
 90
-16777216
102
RTVSPost2010PropOp51
 70
     0
102
RTVSPost2010Prop52
140
1.0
102
RTVSPost2010PropOp52
 70
     0
102
RTVSPost2010Prop53
 90
        2
102
RTVSPost2010PropOp53
 70
     1
102
RTVSPost2010Prop54
  1
strokes_ogs.tif
102
RTVSPost2010PropOp54
 70
     1
102
RTVSPost2010Prop55
280
     0
102
RTVSPost2010PropOp55
 70
     1
102
RTVSPost2010Prop56
140
1.0
102
RTVSPost2010PropOp56
 70
     1
102
RTVSPost2010Prop57
140
1.0
102
RTVSPost2010PropOp57
 70
     1
102
RTVSPropertyOp0
 70
     1
102
RTVSPropertyOp1
 70
     1
102
RTVSPropertyOp2
 70
     1
102
RTVSPropertyOp3
 70
     1
102
RTVSPropertyOp4
 70
     1
102
RTVSPropertyOp5
 70
     1
102
RTVSPropertyOp6
 70
     1
102
RTVSPropertyOp7
 70
     1
102
RTVSPropertyOp8
 70
     1
102
RTVSPropertyOp9
 70
     1
102
RTVSPropertyOp10
 70
     1
102
RTVSPropertyOp11
 70
     1
102
RTVSPropertyOp12
 70
     1
102
RTVSPropertyOp13
 70
     1
102
RTVSPropertyOp14
 70
     1
102
RTVSPropertyOp15
 70
     1
102
RTVSPropertyOp16
 70
     1
102
RTVSPropertyOp17
 70
     1
102
RTVSPropertyOp18
 70
     1
102
RTVSPropertyOp19
 70
     1
102
RTVSPropertyOp20
 70
     1
102
RTVSPropertyOp21
 70
     1
102
RTVSPropertyOp22
 70
     1
102
RTVSPropertyOp23
 70
     1
102
RTVSPropertyOp24
 70
     1
102
RTVSPropertyOp25
 70
     1
102
RTVSPropertyOp26
 70
     1
102
RTVSPropertyOp27
 70
     1
102
RTVSPropertyOp28
 70
     1
102
RTVSPropertyOp29
 70
     1
102
RTVSPropertyOp30
 70
     1
102
RTVSPropertyOp31
 70
     1
102
RTVSPropertyOp32
 70
     1
102
RTVSPropertyOp33
 70
     1
102
RTVSPropertyOp34
 70
     1
102
RTVSPropertyOp35
 70
     1
102
RTVSPropertyOp36
 70
     1
102
RTVSPropertyOp37
 70
     1
102
RTVSPropertyOp38
 70
     1
102
RTVSPropertyOp39
 70
     1
102
RTVSPropertyOp40
 70
     1
102
RTVSPropertyOp41
 70
     1
102
RTVSPropertyOp42
 70
     1
102
RTVSPropertyOp43
 70
     1
102
RTVSPropertyOp44
 70
     1
102
RTVSPropertyOp45
 70
     1
102
RTVSPropertyOp46
 70
     1
102
RTVSPropertyOp47
 70
     1
102
RTVSPropertyOp48
 70
     1
102
RTVSPropertyOp49
 70
     1
102
RTVSPropertyOp50
 70
     1
102
RTVSPropertyOp51
 70
     0
102
RTVSPropertyOp52
 70
     0
102
RTVSPropertyOp53
 70
     1
102
RTVSPropertyOp54
 70
     1
102
RTVSPropertyOp55
 70
     1
102
RTVSPropertyOp56
 70
     1
102
RTVSPropertyOp57
 70
     1
102
RTVSPropertyOp58
 70
     1
102
RTVSPropertyOp59
 70
     1
102
RTVSPropertyOp60
 70
     1
102
RTVSPropertyOp61
 70
     1
102
RTVSPropertyOp62
 70
     1
  0
XRECORD
  5
A29D
102
{ACAD_REACTORS
330
A29C
102
}
330
A29C
100
AcDbXrecord
280
     1
102
RTVSPost2010Prop28
280
     0
102
RTVSPost2010PropOp28
 70
     1
102
RTVSPost2010Prop29
280
     1
102
RTVSPost2010PropOp29
 70
     1
102
RTVSPost2010Prop30
280
     1
102
RTVSPost2010PropOp30
 70
     1
102
RTVSPost2010Prop31
280
     0
102
RTVSPost2010PropOp31
 70
     1
102
RTVSPost2010Prop32
280
     0
102
RTVSPost2010PropOp32
 70
     1
102
RTVSPost2010Prop33
280
     0
102
RTVSPost2010PropOp33
 70
     1
102
RTVSPost2010Prop34
280
     0
102
RTVSPost2010PropOp34
 70
     1
102
RTVSPost2010Prop35
280
     0
102
RTVSPost2010PropOp35
 70
     1
102
RTVSPost2010Prop36
280
     0
102
RTVSPost2010PropOp36
 70
     1
102
RTVSPost2010Prop37
 90
       50
102
RTVSPost2010PropOp37
 70
     1
102
RTVSPost2010Prop38
140
0.0
102
RTVSPost2010PropOp38
 70
     1
102
RTVSPost2010Prop39
140
1.0
102
RTVSPost2010PropOp39
 70
     1
102
RTVSPost2010Prop40
 90
        0
102
RTVSPost2010PropOp40
 70
     1
102
RTVSPost2010Prop41ColorIndex
 90
       18
102
RTVSPost2010Prop41ColorRGB
 90
        0
102
RTVSPost2010PropOp41
 70
     1
102
RTVSPost2010Prop42
 90
       50
102
RTVSPost2010PropOp42
 70
     1
102
RTVSPost2010Prop43
 90
        3
102
RTVSPost2010PropOp43
 70
     1
102
RTVSPost2010Prop44ColorIndex
 90
        5
102
RTVSPost2010Prop44ColorRGB
 90
      255
102
RTVSPost2010PropOp44
 70
     1
102
RTVSPost2010Prop45
280
     0
102
RTVSPost2010PropOp45
 70
     1
102
RTVSPost2010Prop46
 90
       50
102
RTVSPost2010PropOp46
 70
     1
102
RTVSPost2010Prop47
 90
       50
102
RTVSPost2010PropOp47
 70
     1
102
RTVSPost2010Prop48
 90
       50
102
RTVSPost2010PropOp48
 70
     1
102
RTVSPost2010Prop49
280
     0
102
RTVSPost2010PropOp49
 70
     1
102
RTVSPost2010Prop50
 90
       50
102
RTVSPost2010PropOp50
 70
     1
102
RTVSPost2010Prop51ColorIndex
 90
      256
102
RTVSPost2010Prop51ColorRGB
 90
-16777216
102
RTVSPost2010PropOp51
 70
     0
102
RTVSPost2010Prop52
140
1.0
102
RTVSPost2010PropOp52
 70
     0
102
RTVSPost2010Prop53
 90
        2
102
RTVSPost2010PropOp53
 70
     1
102
RTVSPost2010Prop54
  1
strokes_ogs.tif
102
RTVSPost2010PropOp54
 70
     1
102
RTVSPost2010Prop55
280
     0
102
RTVSPost2010PropOp55
 70
     1
102
RTVSPost2010Prop56
140
1.0
102
RTVSPost2010PropOp56
 70
     1
102
RTVSPost2010Prop57
140
1.0
102
RTVSPost2010PropOp57
 70
     1
102
RTVSPropertyOp0
 70
     1
102
RTVSPropertyOp1
 70
     1
102
RTVSPropertyOp2
 70
     1
102
RTVSPropertyOp3
 70
     1
102
RTVSPropertyOp4
 70
     1
102
RTVSPropertyOp5
 70
     1
102
RTVSPropertyOp6
 70
     1
102
RTVSPropertyOp7
 70
     1
102
RTVSPropertyOp8
 70
     1
102
RTVSPropertyOp9
 70
     1
102
RTVSPropertyOp10
 70
     1
102
RTVSPropertyOp11
 70
     1
102
RTVSPropertyOp12
 70
     1
102
RTVSPropertyOp13
 70
     1
102
RTVSPropertyOp14
 70
     1
102
RTVSPropertyOp15
 70
     1
102
RTVSPropertyOp16
 70
     1
102
RTVSPropertyOp17
 70
     1
102
RTVSPropertyOp18
 70
     1
102
RTVSPropertyOp19
 70
     1
102
RTVSPropertyOp20
 70
     1
102
RTVSPropertyOp21
 70
     1
102
RTVSPropertyOp22
 70
     1
102
RTVSPropertyOp23
 70
     1
102
RTVSPropertyOp24
 70
     1
102
RTVSPropertyOp25
 70
     1
102
RTVSPropertyOp26
 70
     1
102
RTVSPropertyOp27
 70
     1
102
RTVSPropertyOp28
 70
     1
102
RTVSPropertyOp29
 70
     1
102
RTVSPropertyOp30
 70
     1
102
RTVSPropertyOp31
 70
     1
102
RTVSPropertyOp32
 70
     1
102
RTVSPropertyOp33
 70
     1
102
RTVSPropertyOp34
 70
     1
102
RTVSPropertyOp35
 70
     1
102
RTVSPropertyOp36
 70
     1
102
RTVSPropertyOp37
 70
     1
102
RTVSPropertyOp38
 70
     1
102
RTVSPropertyOp39
 70
     1
102
RTVSPropertyOp40
 70
     1
102
RTVSPropertyOp41
 70
     1
102
RTVSPropertyOp42
 70
     1
102
RTVSPropertyOp43
 70
     1
102
RTVSPropertyOp44
 70
     1
102
RTVSPropertyOp45
 70
     1
102
RTVSPropertyOp46
 70
     1
102
RTVSPropertyOp47
 70
     1
102
RTVSPropertyOp48
 70
     1
102
RTVSPropertyOp49
 70
     1
102
RTVSPropertyOp50
 70
     1
102
RTVSPropertyOp51
 70
     0
102
RTVSPropertyOp52
 70
     0
102
RTVSPropertyOp53
 70
     1
102
RTVSPropertyOp54
 70
     1
102
RTVSPropertyOp55
 70
     1
102
RTVSPropertyOp56
 70
     1
102
RTVSPropertyOp57
 70
     1
102
RTVSPropertyOp58
 70
     1
102
RTVSPropertyOp59
 70
     1
102
RTVSPropertyOp60
 70
     1
102
RTVSPropertyOp61
 70
     1
102
RTVSPropertyOp62
 70
     1
  0
XRECORD
  5
A291
102
{ACAD_REACTORS
330
A290
102
}
330
A290
100
AcDbXrecord
280
     1
102
RTVSPost2010Prop28
280
     0
102
RTVSPost2010PropOp28
 70
     1
102
RTVSPost2010Prop29
280
     1
102
RTVSPost2010PropOp29
 70
     1
102
RTVSPost2010Prop30
280
     1
102
RTVSPost2010PropOp30
 70
     1
102
RTVSPost2010Prop31
280
     0
102
RTVSPost2010PropOp31
 70
     1
102
RTVSPost2010Prop32
280
     0
102
RTVSPost2010PropOp32
 70
     1
102
RTVSPost2010Prop33
280
     0
102
RTVSPost2010PropOp33
 70
     1
102
RTVSPost2010Prop34
280
     0
102
RTVSPost2010PropOp34
 70
     1
102
RTVSPost2010Prop35
280
     0
102
RTVSPost2010PropOp35
 70
     1
102
RTVSPost2010Prop36
280
     0
102
RTVSPost2010PropOp36
 70
     1
102
RTVSPost2010Prop37
 90
       50
102
RTVSPost2010PropOp37
 70
     1
102
RTVSPost2010Prop38
140
0.0
102
RTVSPost2010PropOp38
 70
     1
102
RTVSPost2010Prop39
140
1.0
102
RTVSPost2010PropOp39
 70
     1
102
RTVSPost2010Prop40
 90
        0
102
RTVSPost2010PropOp40
 70
     1
102
RTVSPost2010Prop41ColorIndex
 90
       18
102
RTVSPost2010Prop41ColorRGB
 90
        0
102
RTVSPost2010PropOp41
 70
     1
102
RTVSPost2010Prop42
 90
       50
102
RTVSPost2010PropOp42
 70
     1
102
RTVSPost2010Prop43
 90
        3
102
RTVSPost2010PropOp43
 70
     1
102
RTVSPost2010Prop44ColorIndex
 90
        5
102
RTVSPost2010Prop44ColorRGB
 90
      255
102
RTVSPost2010PropOp44
 70
     1
102
RTVSPost2010Prop45
280
     0
102
RTVSPost2010PropOp45
 70
     1
102
RTVSPost2010Prop46
 90
       50
102
RTVSPost2010PropOp46
 70
     1
102
RTVSPost2010Prop47
 90
       50
102
RTVSPost2010PropOp47
 70
     1
102
RTVSPost2010Prop48
 90
       50
102
RTVSPost2010PropOp48
 70
     1
102
RTVSPost2010Prop49
280
     0
102
RTVSPost2010PropOp49
 70
     1
102
RTVSPost2010Prop50
 90
       50
102
RTVSPost2010PropOp50
 70
     1
102
RTVSPost2010Prop51ColorIndex
 90
      256
102
RTVSPost2010Prop51ColorRGB
 90
-16777216
102
RTVSPost2010PropOp51
 70
     0
102
RTVSPost2010Prop52
140
1.0
102
RTVSPost2010PropOp52
 70
     0
102
RTVSPost2010Prop53
 90
        2
102
RTVSPost2010PropOp53
 70
     1
102
RTVSPost2010Prop54
  1
strokes_ogs.tif
102
RTVSPost2010PropOp54
 70
     1
102
RTVSPost2010Prop55
280
     0
102
RTVSPost2010PropOp55
 70
     1
102
RTVSPost2010Prop56
140
1.0
102
RTVSPost2010PropOp56
 70
     1
102
RTVSPost2010Prop57
140
1.0
102
RTVSPost2010PropOp57
 70
     1
102
RTVSPropertyOp0
 70
     1
102
RTVSPropertyOp1
 70
     1
102
RTVSPropertyOp2
 70
     1
102
RTVSPropertyOp3
 70
     1
102
RTVSPropertyOp4
 70
     1
102
RTVSPropertyOp5
 70
     1
102
RTVSPropertyOp6
 70
     1
102
RTVSPropertyOp7
 70
     1
102
RTVSPropertyOp8
 70
     1
102
RTVSPropertyOp9
 70
     1
102
RTVSPropertyOp10
 70
     1
102
RTVSPropertyOp11
 70
     1
102
RTVSPropertyOp12
 70
     1
102
RTVSPropertyOp13
 70
     1
102
RTVSPropertyOp14
 70
     1
102
RTVSPropertyOp15
 70
     1
102
RTVSPropertyOp16
 70
     1
102
RTVSPropertyOp17
 70
     1
102
RTVSPropertyOp18
 70
     1
102
RTVSPropertyOp19
 70
     1
102
RTVSPropertyOp20
 70
     1
102
RTVSPropertyOp21
 70
     1
102
RTVSPropertyOp22
 70
     1
102
RTVSPropertyOp23
 70
     1
102
RTVSPropertyOp24
 70
     1
102
RTVSPropertyOp25
 70
     1
102
RTVSPropertyOp26
 70
     1
102
RTVSPropertyOp27
 70
     1
102
RTVSPropertyOp28
 70
     1
102
RTVSPropertyOp29
 70
     1
102
RTVSPropertyOp30
 70
     1
102
RTVSPropertyOp31
 70
     1
102
RTVSPropertyOp32
 70
     1
102
RTVSPropertyOp33
 70
     1
102
RTVSPropertyOp34
 70
     1
102
RTVSPropertyOp35
 70
     1
102
RTVSPropertyOp36
 70
     1
102
RTVSPropertyOp37
 70
     1
102
RTVSPropertyOp38
 70
     1
102
RTVSPropertyOp39
 70
     1
102
RTVSPropertyOp40
 70
     1
102
RTVSPropertyOp41
 70
     1
102
RTVSPropertyOp42
 70
     1
102
RTVSPropertyOp43
 70
     1
102
RTVSPropertyOp44
 70
     1
102
RTVSPropertyOp45
 70
     1
102
RTVSPropertyOp46
 70
     1
102
RTVSPropertyOp47
 70
     1
102
RTVSPropertyOp48
 70
     1
102
RTVSPropertyOp49
 70
     1
102
RTVSPropertyOp50
 70
     1
102
RTVSPropertyOp51
 70
     0
102
RTVSPropertyOp52
 70
     0
102
RTVSPropertyOp53
 70
     1
102
RTVSPropertyOp54
 70
     1
102
RTVSPropertyOp55
 70
     1
102
RTVSPropertyOp56
 70
     1
102
RTVSPropertyOp57
 70
     1
102
RTVSPropertyOp58
 70
     1
102
RTVSPropertyOp59
 70
     1
102
RTVSPropertyOp60
 70
     1
102
RTVSPropertyOp61
 70
     1
102
RTVSPropertyOp62
 70
     1
  0
XRECORD
  5
A2A9
102
{ACAD_REACTORS
330
A2A8
102
}
330
A2A8
100
AcDbXrecord
280
     1
102
RTVSPost2010Prop28
280
     0
102
RTVSPost2010PropOp28
 70
     1
102
RTVSPost2010Prop29
280
     1
102
RTVSPost2010PropOp29
 70
     1
102
RTVSPost2010Prop30
280
     1
102
RTVSPost2010PropOp30
 70
     1
102
RTVSPost2010Prop31
280
     0
102
RTVSPost2010PropOp31
 70
     1
102
RTVSPost2010Prop32
280
     0
102
RTVSPost2010PropOp32
 70
     1
102
RTVSPost2010Prop33
280
     0
102
RTVSPost2010PropOp33
 70
     1
102
RTVSPost2010Prop34
280
     0
102
RTVSPost2010PropOp34
 70
     1
102
RTVSPost2010Prop35
280
     0
102
RTVSPost2010PropOp35
 70
     1
102
RTVSPost2010Prop36
280
     0
102
RTVSPost2010PropOp36
 70
     1
102
RTVSPost2010Prop37
 90
       50
102
RTVSPost2010PropOp37
 70
     1
102
RTVSPost2010Prop38
140
0.0
102
RTVSPost2010PropOp38
 70
     1
102
RTVSPost2010Prop39
140
1.0
102
RTVSPost2010PropOp39
 70
     1
102
RTVSPost2010Prop40
 90
        0
102
RTVSPost2010PropOp40
 70
     1
102
RTVSPost2010Prop41ColorIndex
 90
       18
102
RTVSPost2010Prop41ColorRGB
 90
        0
102
RTVSPost2010PropOp41
 70
     1
102
RTVSPost2010Prop42
 90
       50
102
RTVSPost2010PropOp42
 70
     1
102
RTVSPost2010Prop43
 90
        3
102
RTVSPost2010PropOp43
 70
     1
102
RTVSPost2010Prop44ColorIndex
 90
        5
102
RTVSPost2010Prop44ColorRGB
 90
      255
102
RTVSPost2010PropOp44
 70
     1
102
RTVSPost2010Prop45
280
     0
102
RTVSPost2010PropOp45
 70
     1
102
RTVSPost2010Prop46
 90
       50
102
RTVSPost2010PropOp46
 70
     1
102
RTVSPost2010Prop47
 90
       50
102
RTVSPost2010PropOp47
 70
     1
102
RTVSPost2010Prop48
 90
       50
102
RTVSPost2010PropOp48
 70
     1
102
RTVSPost2010Prop49
280
     0
102
RTVSPost2010PropOp49
 70
     1
102
RTVSPost2010Prop50
 90
       50
102
RTVSPost2010PropOp50
 70
     1
102
RTVSPost2010Prop51ColorIndex
 90
      256
102
RTVSPost2010Prop51ColorRGB
 90
-16777216
102
RTVSPost2010PropOp51
 70
     0
102
RTVSPost2010Prop52
140
1.0
102
RTVSPost2010PropOp52
 70
     0
102
RTVSPost2010Prop53
 90
        2
102
RTVSPost2010PropOp53
 70
     1
102
RTVSPost2010Prop54
  1
strokes_ogs.tif
102
RTVSPost2010PropOp54
 70
     1
102
RTVSPost2010Prop55
280
     0
102
RTVSPost2010PropOp55
 70
     1
102
RTVSPost2010Prop56
140
1.0
102
RTVSPost2010PropOp56
 70
     1
102
RTVSPost2010Prop57
140
1.0
102
RTVSPost2010PropOp57
 70
     1
102
RTVSPropertyOp0
 70
     1
102
RTVSPropertyOp1
 70
     1
102
RTVSPropertyOp2
 70
     1
102
RTVSPropertyOp3
 70
     1
102
RTVSPropertyOp4
 70
     1
102
RTVSPropertyOp5
 70
     1
102
RTVSPropertyOp6
 70
     1
102
RTVSPropertyOp7
 70
     1
102
RTVSPropertyOp8
 70
     1
102
RTVSPropertyOp9
 70
     1
102
RTVSPropertyOp10
 70
     1
102
RTVSPropertyOp11
 70
     1
102
RTVSPropertyOp12
 70
     1
102
RTVSPropertyOp13
 70
     1
102
RTVSPropertyOp14
 70
     1
102
RTVSPropertyOp15
 70
     1
102
RTVSPropertyOp16
 70
     1
102
RTVSPropertyOp17
 70
     1
102
RTVSPropertyOp18
 70
     1
102
RTVSPropertyOp19
 70
     1
102
RTVSPropertyOp20
 70
     1
102
RTVSPropertyOp21
 70
     1
102
RTVSPropertyOp22
 70
     1
102
RTVSPropertyOp23
 70
     1
102
RTVSPropertyOp24
 70
     1
102
RTVSPropertyOp25
 70
     1
102
RTVSPropertyOp26
 70
     1
102
RTVSPropertyOp27
 70
     1
102
RTVSPropertyOp28
 70
     1
102
RTVSPropertyOp29
 70
     1
102
RTVSPropertyOp30
 70
     1
102
RTVSPropertyOp31
 70
     1
102
RTVSPropertyOp32
 70
     1
102
RTVSPropertyOp33
 70
     1
102
RTVSPropertyOp34
 70
     1
102
RTVSPropertyOp35
 70
     1
102
RTVSPropertyOp36
 70
     1
102
RTVSPropertyOp37
 70
     1
102
RTVSPropertyOp38
 70
     1
102
RTVSPropertyOp39
 70
     1
102
RTVSPropertyOp40
 70
     1
102
RTVSPropertyOp41
 70
     1
102
RTVSPropertyOp42
 70
     1
102
RTVSPropertyOp43
 70
     1
102
RTVSPropertyOp44
 70
     1
102
RTVSPropertyOp45
 70
     1
102
RTVSPropertyOp46
 70
     1
102
RTVSPropertyOp47
 70
     1
102
RTVSPropertyOp48
 70
     1
102
RTVSPropertyOp49
 70
     1
102
RTVSPropertyOp50
 70
     1
102
RTVSPropertyOp51
 70
     0
102
RTVSPropertyOp52
 70
     0
102
RTVSPropertyOp53
 70
     1
102
RTVSPropertyOp54
 70
     1
102
RTVSPropertyOp55
 70
     1
102
RTVSPropertyOp56
 70
     1
102
RTVSPropertyOp57
 70
     1
102
RTVSPropertyOp58
 70
     1
102
RTVSPropertyOp59
 70
     1
102
RTVSPropertyOp60
 70
     1
102
RTVSPropertyOp61
 70
     1
102
RTVSPropertyOp62
 70
     1
  0
ENDSEC
  0
EOF
