  0
SECTION
  2
HEADER
  9
$ACADVER
  1
AC1015
  9
$ACADMAINTVER
 70
    20
  9
$DWGCODEPAGE
  3
ANSI_932
  9
$INSBASE
 10
0.0
 20
0.0
 30
0.0
  9
$EXTMIN
 10
9.99995
 20
9.999999999999998
 30
0.0
  9
$EXTMAX
 10
464.2999879999998
 20
636.3499759999997
 30
0.0
  9
$LIMMIN
 10
0.0
 20
0.0
  9
$LIMMAX
 10
950.3999999999999
 20
655.2000000000001
  9
$ORTHOMODE
 70
     1
  9
$REGENMODE
 70
     1
  9
$FILLMODE
 70
     1
  9
$QTEXTMODE
 70
     0
  9
$MIRRTEXT
 70
     1
  9
$LTSCALE
 40
20.0
  9
$ATTMODE
 70
     1
  9
$TEXTSIZE
 40
5.0
  9
$TRACEWID
 40
1.0
  9
$TEXTSTYLE
  7
STANDARD
  9
$CLAYER
  8
0
  9
$CELTYPE
  6
BYLAYER
  9
$CECOLOR
 62
   256
  9
$CELTSCALE
 40
1.0
  9
$DISPSILH
 70
     0
  9
$DIMSCALE
 40
1.0
  9
$DIMASZ
 40
3.0
  9
$DIMEXO
 40
1.0
  9
$DIMDLI
 40
10.0
  9
$DIMRND
 40
0.0
  9
$DIMDLE
 40
0.0
  9
$DIMEXE
 40
1.0
  9
$DIMTP
 40
0.0
  9
$DIMTM
 40
0.0
  9
$DIMTXT
 40
3.2
  9
$DIMCEN
 40
0.0
  9
$DIMTSZ
 40
0.0
  9
$DIMTOL
 70
     0
  9
$DIMLIM
 70
     0
  9
$DIMTIH
 70
     0
  9
$DIMTOH
 70
     0
  9
$DIMSE1
 70
     0
  9
$DIMSE2
 70
     0
  9
$DIMTAD
 70
     3
  9
$DIMZIN
 70
     8
  9
$DIMBLK
  1

  9
$DIMASO
 70
     1
  9
$DIMSHO
 70
     1
  9
$DIMPOST
  1

  9
$DIMAPOST
  1

  9
$DIMALT
 70
     0
  9
$DIMALTD
 70
     2
  9
$DIMALTF
 40
25.4
  9
$DIMLFAC
 40
1.0
  9
$DIMTOFL
 70
     1
  9
$DIMTVP
 40
0.0
  9
$DIMTIX
 70
     0
  9
$DIMSOXD
 70
     0
  9
$DIMSAH
 70
     1
  9
$DIMBLK1
  1

  9
$DIMBLK2
  1

  9
$DIMSTYLE
  2
STANDARD
  9
$DIMCLRD
 70
     0
  9
$DIMCLRE
 70
     0
  9
$DIMCLRT
 70
     0
  9
$DIMTFAC
 40
1.0
  9
$DIMGAP
 40
1.0
  9
$DIMJUST
 70
     0
  9
$DIMSD1
 70
     0
  9
$DIMSD2
 70
     0
  9
$DIMTOLJ
 70
     1
  9
$DIMTZIN
 70
     0
  9
$DIMALTZ
 70
     0
  9
$DIMALTTZ
 70
     0
  9
$DIMUPT
 70
     0
  9
$DIMDEC
 70
     4
  9
$DIMTDEC
 70
     4
  9
$DIMALTU
 70
     2
  9
$DIMALTTD
 70
     2
  9
$DIMTXSTY
  7
STANDARD
  9
$DIMAUNIT
 70
     0
  9
$DIMADEC
 70
     0
  9
$DIMALTRND
 40
0.0
  9
$DIMAZIN
 70
     0
  9
$DIMDSEP
 70
    46
  9
$DIMATFIT
 70
     3
  9
$DIMFRAC
 70
     0
  9
$DIMLDRBLK
  1

  9
$DIMLUNIT
 70
     2
  9
$DIMLWD
 70
    -2
  9
$DIMLWE
 70
    -2
  9
$DIMTMOVE
 70
     0
  9
$LUNITS
 70
     2
  9
$LUPREC
 70
     4
  9
$SKETCHINC
 40
1.0
  9
$FILLETRAD
 40
2.0
  9
$AUNITS
 70
     0
  9
$AUPREC
 70
     2
  9
$MENU
  1
.
  9
$ELEVATION
 40
0.0
  9
$PELEVATION
 40
0.0
  9
$THICKNESS
 40
0.0
  9
$LIMCHECK
 70
     0
  9
$CHAMFERA
 40
10.0
  9
$CHAMFERB
 40
10.0
  9
$CHAMFERC
 40
0.0
  9
$CHAMFERD
 40
0.0
  9
$SKPOLY
 70
     0
  9
$TDCREATE
 40
2451065.505926620
  9
$TDUCREATE
 40
2451065.130926620
  9
$TDUPDATE
 40
2457192.622718576
  9
$TDUUPDATE
 40
2457192.247718577
  9
$TDINDWG
 40
0.0261640972
  9
$TDUSRTIMER
 40
0.0261636227
  9
$USRTIMER
 70
     1
  9
$ANGBASE
 50
0.0
  9
$ANGDIR
 70
     0
  9
$PDMODE
 70
     0
  9
$PDSIZE
 40
0.0
  9
$PLINEWID
 40
0.0
  9
$SPLFRAME
 70
     0
  9
$SPLINETYPE
 70
     6
  9
$SPLINESEGS
 70
     8
  9
$HANDSEED
  5
A460
  9
$SURFTAB1
 70
     6
  9
$SURFTAB2
 70
     6
  9
$SURFTYPE
 70
     6
  9
$SURFU
 70
     6
  9
$SURFV
 70
     6
  9
$UCSBASE
  2

  9
$UCSNAME
  2

  9
$UCSORG
 10
0.0
 20
0.0
 30
0.0
  9
$UCSXDIR
 10
1.0
 20
0.0
 30
0.0
  9
$UCSYDIR
 10
0.0
 20
1.0
 30
0.0
  9
$UCSORTHOREF
  2

  9
$UCSORTHOVIEW
 70
     0
  9
$UCSORGTOP
 10
0.0
 20
0.0
 30
0.0
  9
$UCSORGBOTTOM
 10
0.0
 20
0.0
 30
0.0
  9
$UCSORGLEFT
 10
0.0
 20
0.0
 30
0.0
  9
$UCSORGRIGHT
 10
0.0
 20
0.0
 30
0.0
  9
$UCSORGFRONT
 10
0.0
 20
0.0
 30
0.0
  9
$UCSORGBACK
 10
0.0
 20
0.0
 30
0.0
  9
$PUCSBASE
  2

  9
$PUCSNAME
  2

  9
$PUCSORG
 10
0.0
 20
0.0
 30
0.0
  9
$PUCSXDIR
 10
1.0
 20
0.0
 30
0.0
  9
$PUCSYDIR
 10
0.0
 20
1.0
 30
0.0
  9
$PUCSORTHOREF
  2

  9
$PUCSORTHOVIEW
 70
     0
  9
$PUCSORGTOP
 10
0.0
 20
0.0
 30
0.0
  9
$PUCSORGBOTTOM
 10
0.0
 20
0.0
 30
0.0
  9
$PUCSORGLEFT
 10
0.0
 20
0.0
 30
0.0
  9
$PUCSORGRIGHT
 10
0.0
 20
0.0
 30
0.0
  9
$PUCSORGFRONT
 10
0.0
 20
0.0
 30
0.0
  9
$PUCSORGBACK
 10
0.0
 20
0.0
 30
0.0
  9
$USERI1
 70
     0
  9
$USERI2
 70
     0
  9
$USERI3
 70
     0
  9
$USERI4
 70
     0
  9
$USERI5
 70
     0
  9
$USERR1
 40
0.0
  9
$USERR2
 40
0.0
  9
$USERR3
 40
0.0
  9
$USERR4
 40
0.0
  9
$USERR5
 40
0.0
  9
$WORLDVIEW
 70
     1
  9
$SHADEDGE
 70
     3
  9
$SHADEDIF
 70
    70
  9
$TILEMODE
 70
     1
  9
$MAXACTVP
 70
    16
  9
$PINSBASE
 10
0.0
 20
0.0
 30
0.0
  9
$PLIMCHECK
 70
     0
  9
$PEXTMIN
 10
1.000000000000000E+20
 20
1.000000000000000E+20
 30
1.000000000000000E+20
  9
$PEXTMAX
 10
-1.000000000000000E+20
 20
-1.000000000000000E+20
 30
-1.000000000000000E+20
  9
$PLIMMIN
 10
0.0
 20
0.0
  9
$PLIMMAX
 10
420.0
 20
297.0
  9
$UNITMODE
 70
     0
  9
$VISRETAIN
 70
     0
  9
$PLINEGEN
 70
     0
  9
$PSLTSCALE
 70
     0
  9
$TREEDEPTH
 70
  3020
  9
$CMLSTYLE
  2
STANDARD
  9
$CMLJUST
 70
     0
  9
$CMLSCALE
 40
1.0
  9
$PROXYGRAPHICS
 70
     1
  9
$MEASUREMENT
 70
     0
  9
$CELWEIGHT
370
    -1
  9
$ENDCAPS
280
     0
  9
$JOINSTYLE
280
     0
  9
$LWDISPLAY
290
     0
  9
$INSUNITS
 70
     0
  9
$HYPERLINKBASE
  1

  9
$STYLESHEET
  1

  9
$XEDIT
290
     1
  9
$CEPSNTYPE
380
     0
  9
$PSTYLEMODE
290
     1
  9
$FINGERPRINTGUID
  2
{00A6CC15-8E8A-4BD8-B360-3C4D55305D2A}
  9
$VERSIONGUID
  2
{BE747EA9-2C42-47EF-A1C1-7338CB3A18B0}
  9
$EXTNAMES
290
     1
  9
$PSVPSCALE
 40
0.0
  9
$OLESTARTUP
290
     0
  0
ENDSEC
  0
SECTION
  2
CLASSES
  0
CLASS
  1
ACDBDICTIONARYWDFLT
  2
AcDbDictionaryWithDefault
  3
ObjectDBX Classes
 90
        0
280
     0
281
     0
  0
CLASS
  1
ACDBPLACEHOLDER
  2
AcDbPlaceHolder
  3
ObjectDBX Classes
 90
        0
280
     0
281
     0
  0
CLASS
  1
LAYOUT
  2
AcDbLayout
  3
ObjectDBX Classes
 90
        0
280
     0
281
     0
  0
CLASS
  1
DICTIONARYVAR
  2
AcDbDictionaryVar
  3
ObjectDBX Classes
 90
        0
280
     0
281
     0
  0
CLASS
  1
MATERIAL
  2
AcDbMaterial
  3
ObjectDBX Classes
 90
     1153
280
     0
281
     0
  0
CLASS
  1
VISUALSTYLE
  2
AcDbVisualStyle
  3
ObjectDBX Classes
 90
     4095
280
     0
281
     0
  0
CLASS
  1
TABLESTYLE
  2
AcDbTableStyle
  3
ObjectDBX Classes
 90
     4095
280
     0
281
     0
  0
CLASS
  1
SCALE
  2
AcDbScale
  3
ObjectDBX Classes
 90
     1153
280
     0
281
     0
  0
CLASS
  1
MLEADERSTYLE
  2
AcDbMLeaderStyle
  3
ACDB_MLEADERSTYLE_CLASS
 90
     4095
280
     0
281
     0
  0
CLASS
  1
ACDBSECTIONVIEWSTYLE
  2
AcDbSectionViewStyle
  3
ObjectDBX Classes
 90
     1025
280
     0
281
     0
  0
CLASS
  1
ACDBDETAILVIEWSTYLE
  2
AcDbDetailViewStyle
  3
ObjectDBX Classes
 90
     1025
280
     0
281
     0
  0
CLASS
  1
CELLSTYLEMAP
  2
AcDbCellStyleMap
  3
ObjectDBX Classes
 90
     1152
280
     0
281
     0
  0
ENDSEC
  0
SECTION
  2
TABLES
  0
TABLE
  2
VPORT
  5
9E2C
330
0
100
AcDbSymbolTable
 70
     1
  0
VPORT
  5
A3AB
330
9E2C
100
AcDbSymbolTableRecord
100
AcDbViewportTableRecord
  2
*ACTIVE
 70
     0
 10
0.0
 20
0.0
 11
1.0
 21
1.0
 12
494.9587443591337
 22
323.176081842622
 13
0.0
 23
0.0
 14
10.0
 24
10.0
 15
10.0
 25
10.0
 16
0.0
 26
0.0
 36
1.0
 17
0.0
 27
0.0
 37
0.0
 40
631.2688692960265
 41
1.899603698811096
 42
50.0
 43
0.0
 44
0.0
 50
0.0
 51
0.0
 71
     0
 72
   100
 73
     1
 74
     0
 75
     0
 76
     0
 77
     0
 78
     0
281
     0
 65
     1
110
0.0
120
0.0
130
0.0
111
1.0
121
0.0
131
0.0
112
0.0
122
1.0
132
0.0
 79
     0
146
0.0
1001
ACAD_NAV_VCDISPLAY
1070
     3
  0
ENDTAB
  0
TABLE
  2
LTYPE
  5
9E29
330
0
100
AcDbSymbolTable
 70
     4
  0
LTYPE
  5
9E37
330
9E29
100
AcDbSymbolTableRecord
100
AcDbLinetypeTableRecord
  2
BYBLOCK
 70
     0
  3

 72
    65
 73
     0
 40
0.0
  0
LTYPE
  5
9E38
330
9E29
100
AcDbSymbolTableRecord
100
AcDbLinetypeTableRecord
  2
BYLAYER
 70
     0
  3

 72
    65
 73
     0
 40
0.0
  0
LTYPE
  5
9E39
330
9E29
100
AcDbSymbolTableRecord
100
AcDbLinetypeTableRecord
  2
CONTINUOUS
 70
     0
  3
Solid line
 72
    65
 73
     0
 40
0.0
  0
LTYPE
  5
9E47
330
9E29
100
AcDbSymbolTableRecord
100
AcDbLinetypeTableRecord
  2
DASHED
 70
     0
  3
__ __ __ __ __ __ __ __ __ __ __ __ __ __ __ __
 72
    65
 73
     2
 40
0.75
 49
0.5
 74
     0
 49
-0.25
 74
     0
  0
LTYPE
  5
9E48
330
9E29
100
AcDbSymbolTableRecord
100
AcDbLinetypeTableRecord
  2
CENTER
 70
     0
  3
____ _ ____ _ ____ _ ____ _ ____ _ ____ _ ____ 
 72
    65
 73
     4
 40
2.0
 49
1.25
 74
     0
 49
-0.25
 74
     0
 49
0.25
 74
     0
 49
-0.25
 74
     0
  0
LTYPE
  5
9E49
330
9E29
100
AcDbSymbolTableRecord
100
AcDbLinetypeTableRecord
  2
PHANTOM
 70
     0
  3
______  __  __  ______  __  __  ______  __  __ 
 72
    65
 73
     6
 40
2.5
 49
1.25
 74
     0
 49
-0.25
 74
     0
 49
0.25
 74
     0
 49
-0.25
 74
     0
 49
0.25
 74
     0
 49
-0.25
 74
     0
  0
ENDTAB
  0
TABLE
  2
LAYER
  5
9E26
330
0
100
AcDbSymbolTable
 70
     8
  0
LAYER
  5
9E34
102
{ACAD_XDICTIONARY
360
A404
102
}
330
9E26
100
AcDbSymbolTableRecord
100
AcDbLayerTableRecord
  2
0
 70
     0
 62
     7
  6
CONTINUOUS
370
    -3
390
A3B2
  0
LAYER
  5
9E4A
102
{ACAD_XDICTIONARY
360
A406
102
}
330
9E26
100
AcDbSymbolTableRecord
100
AcDbLayerTableRecord
  2
4
 70
     0
 62
     1
  6
CENTER
370
    -3
390
A3B2
  0
LAYER
  5
9E4B
102
{ACAD_XDICTIONARY
360
A408
102
}
330
9E26
100
AcDbSymbolTableRecord
100
AcDbLayerTableRecord
  2
5
 70
     0
 62
     6
  6
PHANTOM
370
    -3
390
A3B2
  0
LAYER
  5
9E4C
102
{ACAD_XDICTIONARY
360
A40A
102
}
330
9E26
100
AcDbSymbolTableRecord
100
AcDbLayerTableRecord
  2
1
 70
     0
 62
     7
  6
CONTINUOUS
370
    -3
390
A3B2
  0
LAYER
  5
9E4D
102
{ACAD_XDICTIONARY
360
A40C
102
}
330
9E26
100
AcDbSymbolTableRecord
100
AcDbLayerTableRecord
  2
2
 70
     0
 62
     4
  6
CONTINUOUS
370
    -3
390
A3B2
  0
LAYER
  5
9E4E
102
{ACAD_XDICTIONARY
360
A40E
102
}
330
9E26
100
AcDbSymbolTableRecord
100
AcDbLayerTableRecord
  2
3
 70
     0
 62
     2
  6
DASHED
370
    -3
390
A3B2
  0
LAYER
  5
9E4F
102
{ACAD_XDICTIONARY
360
A410
102
}
330
9E26
100
AcDbSymbolTableRecord
100
AcDbLayerTableRecord
  2
6
 70
     0
 62
     5
  6
CONTINUOUS
370
    -3
390
A3B2
  0
LAYER
  5
9E50
102
{ACAD_XDICTIONARY
360
A412
102
}
330
9E26
100
AcDbSymbolTableRecord
100
AcDbLayerTableRecord
  2
7
 70
     0
 62
     3
  6
CONTINUOUS
370
    -3
390
A3B2
  0
ENDTAB
  0
TABLE
  2
STYLE
  5
9E27
330
0
100
AcDbSymbolTable
 70
     1
  0
STYLE
  5
9E35
330
9E27
100
AcDbSymbolTableRecord
100
AcDbTextStyleTableRecord
  2
STANDARD
 70
     0
 40
0.0
 41
1.0
 50
0.0
 71
     0
 42
5.0
  3
txt
  4

  0
ENDTAB
  0
TABLE
  2
VIEW
  5
9E2A
330
0
100
AcDbSymbolTable
 70
     0
  0
ENDTAB
  0
TABLE
  2
UCS
  5
9E2B
330
0
100
AcDbSymbolTable
 70
     0
  0
ENDTAB
  0
TABLE
  2
APPID
  5
9E2D
330
0
100
AcDbSymbolTable
 70
     3
  0
APPID
  5
9E36
330
9E2D
100
AcDbSymbolTableRecord
100
AcDbRegAppTableRecord
  2
ACAD
 70
     0
  0
APPID
  5
A41E
330
9E2D
100
AcDbSymbolTableRecord
100
AcDbRegAppTableRecord
  2
ACAD_NAV_VCDISPLAY
 70
     0
  0
APPID
  5
A457
330
9E2D
100
AcDbSymbolTableRecord
100
AcDbRegAppTableRecord
  2
ACAD_MLEADERVER
 70
     0
  0
ENDTAB
  0
TABLE
  2
DIMSTYLE
  5
9E2E
330
0
100
AcDbSymbolTable
 70
     1
100
AcDbDimStyleTable
 71
     0
  0
DIMSTYLE
105
9E52
330
9E2E
100
AcDbSymbolTableRecord
100
AcDbDimStyleTableRecord
  2
STANDARD
 70
     0
 41
3.0
 42
1.0
 43
10.0
 44
1.0
 73
     0
 74
     0
 77
     3
 78
     8
140
3.2
141
0.0
147
1.0
172
     1
173
     1
284
     8
285
     8
286
     8
340
9E35
  0
ENDTAB
  0
TABLE
  2
BLOCK_RECORD
  5
9E25
330
0
100
AcDbSymbolTable
 70
     0
  0
BLOCK_RECORD
  5
9E42
102
{ACAD_XDICTIONARY
360
A0EA
102
}
330
9E25
100
AcDbSymbolTableRecord
100
AcDbBlockTableRecord
  2
*MODEL_SPACE
340
A400
  0
BLOCK_RECORD
  5
9E3E
102
{ACAD_XDICTIONARY
360
A0E8
102
}
330
9E25
100
AcDbSymbolTableRecord
100
AcDbBlockTableRecord
  2
*PAPER_SPACE
340
A401
  0
ENDTAB
  0
ENDSEC
  0
SECTION
  2
BLOCKS
  0
BLOCK
  5
9E43
330
9E42
100
AcDbEntity
  8
0
100
AcDbBlockBegin
  2
*MODEL_SPACE
 70
     0
 10
0.0
 20
0.0
 30
0.0
  3
*MODEL_SPACE
  1

  0
ENDBLK
  5
9E44
330
9E42
100
AcDbEntity
  8
0
100
AcDbBlockEnd
  0
BLOCK
  5
9E3F
330
9E3E
100
AcDbEntity
 67
     1
  8
0
100
AcDbBlockBegin
  2
*PAPER_SPACE
 70
     0
 10
0.0
 20
0.0
 30
0.0
  3
*PAPER_SPACE
  1

  0
ENDBLK
  5
9E40
330
9E3E
100
AcDbEntity
 67
     1
  8
0
100
AcDbBlockEnd
  0
ENDSEC
  0
SECTION
  2
ENTITIES
  0
LINE
  5
9E5A
330
9E42
100
AcDbEntity
  8
1
  6
Continuous
100
AcDbLine
 10
189.0
 20
174.5
 30
0.0
 11
189.0
 21
374.5
 31
0.0
  0
LINE
  5
9E5B
330
9E42
100
AcDbEntity
  8
1
  6
Continuous
100
AcDbLine
 10
177.0
 20
174.5
 30
0.0
 11
177.0
 21
374.5
 31
0.0
  0
LINE
  5
9E5C
330
9E42
100
AcDbEntity
  8
1
  6
Continuous
100
AcDbLine
 10
189.0
 20
174.5
 30
0.0
 11
177.0
 21
174.5
 31
0.0
  0
LINE
  5
9E5D
330
9E42
100
AcDbEntity
  8
1
  6
Continuous
100
AcDbLine
 10
189.0
 20
374.5
 30
0.0
 11
177.0
 21
374.5
 31
0.0
  0
LINE
  5
9E5E
330
9E42
100
AcDbEntity
  8
1
  6
Continuous
100
AcDbLine
 10
184.4999999999997
 20
356.0
 30
0.0
 11
181.0
 21
356.0
 31
0.0
  0
LINE
  5
9E5F
330
9E42
100
AcDbEntity
  8
1
  6
Continuous
100
AcDbLine
 10
184.4999999999997
 20
328.0
 30
0.0
 11
181.0
 21
328.0
 31
0.0
  0
LINE
  5
9E60
330
9E42
100
AcDbEntity
  8
1
  6
Continuous
100
AcDbLine
 10
180.0
 20
329.0
 30
0.0
 11
180.0
 21
355.0
 31
0.0
  0
LINE
  5
9E61
330
9E42
100
AcDbEntity
  8
1
  6
Continuous
100
AcDbLine
 10
185.5
 20
329.0
 30
0.0
 11
185.5
 21
355.0
 31
0.0
  0
LINE
  5
9E62
330
9E42
100
AcDbEntity
  8
4
  6
CENTER
 48
0.2
100
AcDbLine
 10
161.6999969999999
 20
184.0
 30
0.0
 11
201.699997
 21
184.0
 31
0.0
  0
LINE
  5
9E63
330
9E42
100
AcDbEntity
  8
4
  6
CENTER
 48
0.2
100
AcDbLine
 10
168.4961089999999
 20
494.0
 30
0.0
 11
201.6286159999999
 21
494.0
 31
0.0
  0
LINE
  5
9E64
330
9E42
100
AcDbEntity
  8
1
  6
Continuous
100
AcDbLine
 10
187.399994
 20
504.0
 30
0.0
 11
179.100006
 21
504.0
 31
0.0
  0
LINE
  5
9E65
330
9E42
100
AcDbEntity
  8
1
  6
Continuous
100
AcDbLine
 10
179.100006
 20
374.5
 30
0.0
 11
179.100006
 21
504.0
 31
0.0
  0
LINE
  5
9E66
330
9E42
100
AcDbEntity
  8
1
  6
Continuous
100
AcDbLine
 10
187.399994
 20
374.5
 30
0.0
 11
187.399994
 21
504.0
 31
0.0
  0
LINE
  5
9E67
330
9E42
100
AcDbEntity
  8
1
  6
Continuous
100
AcDbLine
 10
196.6999969999999
 20
169.0
 30
0.0
 11
196.6999969999999
 21
199.0
 31
0.0
  0
LINE
  5
9E68
330
9E42
100
AcDbEntity
  8
1
  6
Continuous
100
AcDbLine
 10
166.6999969999999
 20
171.0
 30
0.0
 11
166.6999969999999
 21
197.0
 31
0.0
  0
LINE
  5
9E69
330
9E42
100
AcDbEntity
  8
1
  6
Continuous
100
AcDbLine
 10
168.699997
 20
169.0
 30
0.0
 11
196.6999969999999
 21
169.0
 31
0.0
  0
LINE
  5
9E6A
330
9E42
100
AcDbEntity
  8
1
  6
Continuous
100
AcDbLine
 10
168.699997
 20
199.0
 30
0.0
 11
177.0
 21
199.0
 31
0.0
  0
LINE
  5
9E6B
330
9E42
100
AcDbEntity
  8
4
  6
CENTER
 48
0.2
100
AcDbLine
 10
174.699997
 20
169.699997
 30
0.0
 11
174.699997
 21
180.3000029999997
 31
0.0
  0
LINE
  5
9E6C
330
9E42
100
AcDbEntity
  8
4
  6
CENTER
 48
0.2
100
AcDbLine
 10
169.3999939999999
 20
175.0
 30
0.0
 11
180.0
 21
175.0
 31
0.0
  0
LINE
  5
9E6D
330
9E42
100
AcDbEntity
  8
4
  6
CENTER
 48
0.2
100
AcDbLine
 10
174.699997
 20
187.6999969999999
 30
0.0
 11
174.699997
 21
198.300003
 31
0.0
  0
LINE
  5
9E6E
330
9E42
100
AcDbEntity
  8
4
  6
CENTER
 48
0.2
100
AcDbLine
 10
169.3999939999999
 20
193.0
 30
0.0
 11
180.0
 21
193.0
 31
0.0
  0
LINE
  5
9E6F
330
9E42
100
AcDbEntity
  8
1
  6
Continuous
100
AcDbLine
 10
189.0
 20
199.0
 30
0.0
 11
196.6999969999999
 21
199.0
 31
0.0
  0
LINE
  5
9E70
330
9E42
100
AcDbEntity
  8
1
  6
Continuous
100
AcDbLine
 10
174.0
 20
177.5
 30
0.0
 11
174.0
 21
190.5
 31
0.0
  0
LINE
  5
9E71
330
9E42
100
AcDbEntity
  8
1
  6
Continuous
100
AcDbLine
 10
175.0
 20
191.5
 30
0.0
 11
177.0
 21
191.5
 31
0.0
  0
LINE
  5
9E72
330
9E42
100
AcDbEntity
  8
1
  6
Continuous
100
AcDbLine
 10
175.0
 20
176.5
 30
0.0
 11
177.0
 21
176.5
 31
0.0
  0
LINE
  5
9E73
330
9E42
100
AcDbEntity
  8
1
  6
Continuous
100
AcDbLine
 10
174.0
 20
177.5
 30
0.0
 11
175.0
 21
176.5
 31
0.0
  0
LINE
  5
9E74
330
9E42
100
AcDbEntity
  8
1
  6
Continuous
100
AcDbLine
 10
174.0
 20
190.5
 30
0.0
 11
175.0
 21
191.5
 31
0.0
  0
LINE
  5
9E75
330
9E42
100
AcDbEntity
  8
1
  6
Continuous
100
AcDbLine
 10
175.0
 20
176.5
 30
0.0
 11
175.0
 21
191.5
 31
0.0
  0
LINE
  5
9E76
330
9E42
100
AcDbEntity
  8
1
  6
Continuous
100
AcDbLine
 10
195.1
 20
181.0
 30
0.0
 11
195.1
 21
183.4999999999998
 31
0.0
  0
LINE
  5
9E77
330
9E42
100
AcDbEntity
  8
1
  6
Continuous
100
AcDbLine
 10
189.0
 20
192.850006
 30
0.0
 11
190.600006
 21
192.850006
 31
0.0
  0
LINE
  5
9E78
330
9E42
100
AcDbEntity
  8
1
  6
Continuous
100
AcDbLine
 10
189.0
 20
175.1499939999999
 30
0.0
 11
190.600006
 21
175.1499939999999
 31
0.0
  0
LINE
  5
9E79
330
9E42
100
AcDbEntity
  8
1
  6
Continuous
100
AcDbLine
 10
193.5999999999999
 20
169.0
 30
0.0
 11
193.5999999999999
 21
199.0
 31
0.0
  0
LINE
  5
9E7A
330
9E42
100
AcDbEntity
  8
1
  6
Continuous
100
AcDbLine
 10
177.100006
 20
501.4999999999998
 30
0.0
 11
179.100006
 21
501.4999999999998
 31
0.0
  0
LINE
  5
9E7B
330
9E42
100
AcDbEntity
  8
1
  6
Continuous
100
AcDbLine
 10
177.100006
 20
486.5
 30
0.0
 11
179.100006
 21
486.5
 31
0.0
  0
LINE
  5
9E7C
330
9E42
100
AcDbEntity
  8
1
  6
Continuous
100
AcDbLine
 10
176.100006
 20
487.5
 30
0.0
 11
176.100006
 21
500.4999999999998
 31
0.0
  0
LINE
  5
9E7D
330
9E42
100
AcDbEntity
  8
1
  6
Continuous
100
AcDbLine
 10
176.0999909999999
 20
487.5
 30
0.0
 11
177.099991
 21
486.5
 31
0.0
  0
LINE
  5
9E7E
330
9E42
100
AcDbEntity
  8
1
  6
Continuous
100
AcDbLine
 10
176.100006
 20
500.4999999999998
 30
0.0
 11
177.100006
 21
501.4999999999998
 31
0.0
  0
LINE
  5
9E7F
330
9E42
100
AcDbEntity
  8
1
  6
Continuous
100
AcDbLine
 10
177.100006
 20
486.5
 30
0.0
 11
177.100006
 21
501.4999999999998
 31
0.0
  0
LINE
  5
9E80
330
9E42
100
AcDbEntity
  8
1
  6
Continuous
100
AcDbLine
 10
189.0
 20
485.149994
 30
0.0
 11
189.0
 21
504.100006
 31
0.0
  0
LINE
  5
9E81
330
9E42
100
AcDbEntity
  8
1
  6
Continuous
100
AcDbLine
 10
187.399994
 20
502.8500059999998
 30
0.0
 11
189.0
 21
502.8500059999998
 31
0.0
  0
LINE
  5
9E82
330
9E42
100
AcDbEntity
  8
1
  6
Continuous
100
AcDbLine
 10
187.399994
 20
485.149994
 30
0.0
 11
189.0
 21
485.149994
 31
0.0
  0
LINE
  5
9E83
330
9E42
100
AcDbEntity
  8
1
  6
Continuous
100
AcDbLine
 10
191.8999939999999
 20
486.0
 30
0.0
 11
191.8999939999999
 21
504.100006
 31
0.0
  0
LINE
  5
9E84
330
9E42
100
AcDbEntity
  8
1
  6
Continuous
100
AcDbLine
 10
165.0
 20
522.0
 30
0.0
 11
192.100006
 21
522.0
 31
0.0
  0
LINE
  5
9E85
330
9E42
100
AcDbEntity
  8
1
  6
Continuous
100
AcDbLine
 10
191.8999939999999
 20
507.0
 30
0.0
 11
192.100006
 21
507.0
 31
0.0
  0
LINE
  5
9E86
330
9E42
100
AcDbEntity
  8
1
  6
Continuous
100
AcDbLine
 10
195.0
 20
507.0
 30
0.0
 11
195.0
 21
519.0999759999998
 31
0.0
  0
LINE
  5
9E87
330
9E42
100
AcDbEntity
  8
1
  6
Continuous
100
AcDbLine
 10
191.8999939999999
 20
504.100006
 30
0.0
 11
192.100006
 21
504.100006
 31
0.0
  0
LINE
  5
9E88
330
9E42
100
AcDbEntity
  8
1
  6
Continuous
100
AcDbLine
 10
165.0
 20
519.0999759999998
 30
0.0
 11
192.100006
 21
519.0999759999998
 31
0.0
  0
LINE
  5
9E89
330
9E42
100
AcDbEntity
  8
4
  6
CENTER
 48
0.2
100
AcDbLine
 10
187.7499999999997
 20
513.0
 30
0.0
 11
199.350006
 21
513.0
 31
0.0
  0
LINE
  5
9E8A
330
9E42
100
AcDbEntity
  8
4
  6
CENTER
 48
0.2
100
AcDbLine
 10
173.0
 20
514.7499999999999
 30
0.0
 11
173.0
 21
526.349976
 31
0.0
  0
LINE
  5
9E8B
330
9E42
100
AcDbEntity
  8
1
  6
Continuous
100
AcDbLine
 10
25.0
 20
169.0
 30
0.0
 11
46.0
 21
169.0
 31
0.0
  0
LINE
  5
9E8C
330
9E42
100
AcDbEntity
  8
1
  6
Continuous
100
AcDbLine
 10
25.0
 20
199.0
 30
0.0
 11
40.49999999999999
 21
199.0
 31
0.0
  0
LINE
  5
9E8D
330
9E42
100
AcDbEntity
  8
4
  6
CENTER
100
AcDbLine
 10
53.0
 20
164.0
 30
0.0
 11
53.0
 21
527.0
 31
0.0
  0
LINE
  5
9E8E
330
9E42
100
AcDbEntity
  8
1
  6
Continuous
100
AcDbLine
 10
300.4999999999999
 20
174.5
 30
0.0
 11
300.4999999999999
 21
374.5
 31
0.0
  0
LINE
  5
9E8F
330
9E42
100
AcDbEntity
  8
1
  6
Continuous
100
AcDbLine
 10
325.4999999999999
 20
199.0
 30
0.0
 11
325.4999999999999
 21
374.5
 31
0.0
  0
LINE
  5
9E90
330
9E42
100
AcDbEntity
  8
1
  6
Continuous
100
AcDbLine
 10
308.391815
 20
174.5
 30
0.0
 11
300.4999999999999
 21
174.5
 31
0.0
  0
LINE
  5
9E91
330
9E42
100
AcDbEntity
  8
1
  6
Continuous
100
AcDbLine
 10
25.0
 20
169.0
 30
0.0
 11
25.0
 21
199.0
 31
0.0
  0
LINE
  5
9E92
330
9E42
100
AcDbEntity
  8
4
  6
CENTER
 48
0.2
100
AcDbLine
 10
20.0
 20
184.0
 30
0.0
 11
68.0
 21
184.0
 31
0.0
  0
LINE
  5
9E93
330
9E42
100
AcDbEntity
  8
1
  6
Continuous
100
AcDbLine
 10
189.0
 20
486.0
 30
0.0
 11
191.8999939999999
 21
486.0
 31
0.0
  0
LINE
  5
9E94
330
9E42
100
AcDbEntity
  8
1
  6
Continuous
100
AcDbLine
 10
27.9
 20
169.0
 30
0.0
 11
27.9
 21
199.0
 31
0.0
  0
LINE
  5
9E95
330
9E42
100
AcDbEntity
  8
4
  6
CENTER
 48
0.2
100
AcDbLine
 10
34.0
 20
169.699997
 30
0.0
 11
34.0
 21
180.3000029999997
 31
0.0
  0
LINE
  5
9E96
330
9E42
100
AcDbEntity
  8
4
  6
CENTER
 48
0.2
100
AcDbLine
 10
20.64999999999999
 20
175.0
 30
0.0
 11
39.299999
 21
175.0
 31
0.0
  0
LINE
  5
9E97
330
9E42
100
AcDbEntity
  8
4
  6
CENTER
 48
0.2
100
AcDbLine
 10
34.0
 20
187.6999969999999
 30
0.0
 11
34.0
 21
198.300003
 31
0.0
  0
LINE
  5
9E98
330
9E42
100
AcDbEntity
  8
4
  6
CENTER
 48
0.2
100
AcDbLine
 10
20.64999999999999
 20
193.0
 30
0.0
 11
39.299999
 21
193.0
 31
0.0
  0
LINE
  5
9E99
330
9E42
100
AcDbEntity
  8
1
  6
Continuous
100
AcDbLine
 10
38.0
 20
522.0
 30
0.0
 11
68.0
 21
522.0
 31
0.0
  0
LINE
  5
9E9A
330
9E42
100
AcDbEntity
  8
1
  6
Continuous
100
AcDbLine
 10
38.0
 20
519.0999759999998
 30
0.0
 11
68.0
 21
519.0999759999998
 31
0.0
  0
LINE
  5
9E9B
330
9E42
100
AcDbEntity
  8
1
  6
Continuous
100
AcDbLine
 10
38.0
 20
507.0
 30
0.0
 11
68.0
 21
507.0
 31
0.0
  0
LINE
  5
9E9C
330
9E42
100
AcDbEntity
  8
1
  6
Continuous
100
AcDbLine
 10
38.0
 20
501.0
 30
0.0
 11
38.0
 21
522.0
 31
0.0
  0
LINE
  5
9E9D
330
9E42
100
AcDbEntity
  8
1
  6
Continuous
100
AcDbLine
 10
68.0
 20
501.0
 30
0.0
 11
68.0
 21
522.0
 31
0.0
  0
LINE
  5
9E9E
330
9E42
100
AcDbEntity
  8
1
  6
Continuous
100
AcDbLine
 10
42.5
 20
504.0
 30
0.0
 11
63.5
 21
504.0
 31
0.0
  0
LINE
  5
9E9F
330
9E42
100
AcDbEntity
  8
4
  6
CENTER
 48
0.2
100
AcDbLine
 10
62.0
 20
507.700012
 30
0.0
 11
62.0
 21
526.349976
 31
0.0
  0
LINE
  5
9EA0
330
9E42
100
AcDbEntity
  8
4
  6
CENTER
 48
0.2
100
AcDbLine
 10
57.349998
 20
513.0
 30
0.0
 11
66.650002
 21
513.0
 31
0.0
  0
LINE
  5
9EA1
330
9E42
100
AcDbEntity
  8
4
  6
CENTER
 48
0.2
100
AcDbLine
 10
44.0
 20
507.700012
 30
0.0
 11
44.0
 21
526.349976
 31
0.0
  0
LINE
  5
9EA2
330
9E42
100
AcDbEntity
  8
4
  6
CENTER
 48
0.2
100
AcDbLine
 10
39.34999799999999
 20
513.0
 30
0.0
 11
48.650002
 21
513.0
 31
0.0
  0
LINE
  5
9EA3
330
9E42
100
AcDbEntity
  8
4
  6
CENTER
 48
0.2
100
AcDbLine
 10
38.0
 20
494.0
 30
0.0
 11
68.0
 21
494.0
 31
0.0
  0
LINE
  5
9EA4
330
9E42
100
AcDbEntity
  8
1
  6
Continuous
100
AcDbLine
 10
40.0
 20
169.0
 30
0.0
 11
40.0
 21
199.0
 31
0.0
  0
LINE
  5
9EA5
330
9E42
100
AcDbEntity
  8
1
  6
Continuous
100
AcDbLine
 10
341.0
 20
199.0
 30
0.0
 11
320.0
 21
199.0
 31
0.0
  0
LINE
  5
9EA6
330
9E42
100
AcDbEntity
  8
1
  6
Continuous
100
AcDbLine
 10
341.0
 20
169.0
 30
0.0
 11
320.0
 21
169.0
 31
0.0
  0
LINE
  5
9EA7
330
9E42
100
AcDbEntity
  8
4
  6
CENTER
100
AcDbLine
 10
313.0
 20
164.0
 30
0.0
 11
313.0
 21
527.0
 31
0.0
  0
LINE
  5
9EA8
330
9E42
100
AcDbEntity
  8
1
  6
Continuous
100
AcDbLine
 10
40.49999999999999
 20
174.5
 30
0.0
 11
65.5
 21
174.5
 31
0.0
  0
LINE
  5
9EA9
330
9E42
100
AcDbEntity
  8
4
  6
CENTER
 48
0.2
100
AcDbLine
 10
332.0
 20
169.699997
 30
0.0
 11
332.0
 21
180.3000029999997
 31
0.0
  0
LINE
  5
9EAA
330
9E42
100
AcDbEntity
  8
1
  6
Continuous
100
AcDbLine
 10
341.0
 20
169.0
 30
0.0
 11
341.0
 21
199.0
 31
0.0
  0
LINE
  5
9EAB
330
9E42
100
AcDbEntity
  8
4
  6
CENTER
 48
0.2
100
AcDbLine
 10
346.0
 20
184.0
 30
0.0
 11
300.0
 21
184.0
 31
0.0
  0
LINE
  5
9EAC
330
9E42
100
AcDbEntity
  8
4
  6
CENTER
 48
0.2
100
AcDbLine
 10
346.0
 20
175.0
 30
0.0
 11
326.700012
 21
175.0
 31
0.0
  0
LINE
  5
9EAD
330
9E42
100
AcDbEntity
  8
4
  6
CENTER
 48
0.2
100
AcDbLine
 10
332.0
 20
187.6999969999999
 30
0.0
 11
332.0
 21
198.300003
 31
0.0
  0
LINE
  5
9EAE
330
9E42
100
AcDbEntity
  8
4
  6
CENTER
 48
0.2
100
AcDbLine
 10
346.0
 20
193.0
 30
0.0
 11
326.700012
 21
193.0
 31
0.0
  0
LINE
  5
9EAF
330
9E42
100
AcDbEntity
  8
1
  6
Continuous
100
AcDbLine
 10
167.0
 20
589.0
 30
0.0
 11
195.0
 21
589.0
 31
0.0
  0
LINE
  5
9EB0
330
9E42
100
AcDbEntity
  8
1
  6
Continuous
100
AcDbLine
 10
167.0
 20
619.0
 30
0.0
 11
195.0
 21
619.0
 31
0.0
  0
LINE
  5
9EB1
330
9E42
100
AcDbEntity
  8
1
  6
Continuous
100
AcDbLine
 10
184.3000029999998
 20
337.0
 30
0.0
 11
180.3000029999997
 21
337.0
 31
0.0
  0
LINE
  5
9EB2
330
9E42
100
AcDbEntity
  8
1
  6
Continuous
100
AcDbLine
 10
184.3000029999998
 20
336.0
 30
0.0
 11
180.3000029999997
 21
336.0
 31
0.0
  0
LINE
  5
9EB3
330
9E42
100
AcDbEntity
  8
1
  6
Continuous
100
AcDbLine
 10
184.074997
 20
338.0
 30
0.0
 11
181.0749969999999
 21
338.0
 31
0.0
  0
LINE
  5
9EB4
330
9E42
100
AcDbEntity
  8
1
  6
Continuous
100
AcDbLine
 10
300.4999999999999
 20
344.0
 30
0.0
 11
299.0568539999998
 21
338.9090879999999
 31
0.0
  0
LINE
  5
9EB5
330
9E42
100
AcDbEntity
  8
1
  6
Continuous
100
AcDbLine
 10
325.4999999999999
 20
374.5
 30
0.0
 11
300.4999999999999
 21
374.5
 31
0.0
  0
LINE
  5
9EB6
330
9E42
100
AcDbEntity
  8
1
  6
Continuous
100
AcDbLine
 10
63.5
 20
374.5
 30
0.0
 11
63.5
 21
504.0
 31
0.0
  0
LINE
  5
9EB7
330
9E42
100
AcDbEntity
  8
1
  6
Continuous
100
AcDbLine
 10
42.5
 20
374.5
 30
0.0
 11
42.5
 21
504.0
 31
0.0
  0
LINE
  5
9EB8
330
9E42
100
AcDbEntity
  8
1
  6
Continuous
100
AcDbLine
 10
323.4999999999998
 20
374.5
 30
0.0
 11
323.4999999999998
 21
490.287872
 31
0.0
  0
LINE
  5
9EB9
330
9E42
100
AcDbEntity
  8
1
  6
Continuous
100
AcDbLine
 10
302.4999999999999
 20
374.5
 30
0.0
 11
302.4999999999999
 21
490.287872
 31
0.0
  0
LINE
  5
9EBA
330
9E42
100
AcDbEntity
  8
1
  6
Continuous
100
AcDbLine
 10
325.4999999999999
 20
360.4999999999998
 30
0.0
 11
325.4999999999999
 21
360.4999999999998
 31
0.0
  0
LINE
  5
9EBB
330
9E42
100
AcDbEntity
  8
1
  6
Continuous
100
AcDbLine
 10
325.4999999999999
 20
356.4999999999998
 30
0.0
 11
325.4999999999999
 21
356.4999999999998
 31
0.0
  0
LINE
  5
9EBC
330
9E42
100
AcDbEntity
  8
1
  6
Continuous
100
AcDbLine
 10
325.4999999999999
 20
370.5
 30
0.0
 11
325.4999999999999
 21
370.5
 31
0.0
  0
LINE
  5
9EBD
330
9E42
100
AcDbEntity
  8
1
  6
Continuous
100
AcDbLine
 10
325.4999999999999
 20
366.5
 30
0.0
 11
325.4999999999999
 21
366.5
 31
0.0
  0
LINE
  5
9EBE
330
9E42
100
AcDbEntity
  8
1
  6
Continuous
100
AcDbLine
 10
195.099985
 20
184.499985
 30
0.0
 11
194.3500149999999
 21
184.0
 31
0.0
  0
LINE
  5
9EBF
330
9E42
100
AcDbEntity
  8
1
  6
Continuous
100
AcDbLine
 10
194.35
 20
184.0000149999999
 30
0.0
 11
195.1
 21
183.5000149999999
 31
0.0
  0
LINE
  5
9EC0
330
9E42
100
AcDbEntity
  8
1
  6
Continuous
100
AcDbLine
 10
195.1
 20
184.4999999999997
 30
0.0
 11
195.1
 21
187.0
 31
0.0
  0
LINE
  5
9EC1
330
9E42
100
AcDbEntity
  8
1
  6
Continuous
100
AcDbLine
 10
165.0
 20
519.0999759999998
 30
0.0
 11
165.0
 21
522.0
 31
0.0
  0
LINE
  5
9EC2
330
9E42
100
AcDbEntity
  8
1
  6
Continuous
100
AcDbLine
 10
193.3999939999999
 20
494.5
 30
0.0
 11
193.3999939999999
 21
497.0
 31
0.0
  0
LINE
  5
9EC3
330
9E42
100
AcDbEntity
  8
1
  6
Continuous
100
AcDbLine
 10
193.3999939999999
 20
491.0
 30
0.0
 11
193.3999939999999
 21
493.5
 31
0.0
  0
LINE
  5
9EC4
330
9E42
100
AcDbEntity
  8
1
  6
Continuous
100
AcDbLine
 10
193.4000089999999
 20
494.5
 30
0.0
 11
192.649994
 21
494.0
 31
0.0
  0
LINE
  5
9EC5
330
9E42
100
AcDbEntity
  8
1
  6
Continuous
100
AcDbLine
 10
192.649979
 20
493.999969
 30
0.0
 11
193.399979
 21
493.499969
 31
0.0
  0
LINE
  5
9EC6
330
9E42
100
AcDbEntity
  8
1
  6
Continuous
100
AcDbLine
 10
310.041962
 20
183.4999999999998
 30
0.0
 11
312.5
 21
183.4999999999998
 31
0.0
  0
LINE
  5
9EC7
330
9E42
100
AcDbEntity
  8
1
  6
Continuous
100
AcDbLine
 10
310.041962
 20
184.4999999999997
 30
0.0
 11
312.5
 21
184.4999999999997
 31
0.0
  0
LINE
  5
9EC8
330
9E42
100
AcDbEntity
  8
1
  6
Continuous
100
AcDbLine
 10
312.5
 20
181.041962
 30
0.0
 11
312.5
 21
183.4999999999998
 31
0.0
  0
LINE
  5
9EC9
330
9E42
100
AcDbEntity
  8
1
  6
Continuous
100
AcDbLine
 10
313.5
 20
181.041962
 30
0.0
 11
313.5
 21
183.4999999999998
 31
0.0
  0
LINE
  5
9ECA
330
9E42
100
AcDbEntity
  8
1
  6
Continuous
100
AcDbLine
 10
312.5
 20
184.4999999999997
 30
0.0
 11
312.5
 21
186.958038
 31
0.0
  0
LINE
  5
9ECB
330
9E42
100
AcDbEntity
  8
1
  6
Continuous
100
AcDbLine
 10
313.5
 20
184.4999999999997
 30
0.0
 11
313.5
 21
186.958038
 31
0.0
  0
LINE
  5
9ECC
330
9E42
100
AcDbEntity
  8
1
  6
Continuous
100
AcDbLine
 10
313.5
 20
183.4999999999998
 30
0.0
 11
315.9580379999998
 21
183.4999999999998
 31
0.0
  0
LINE
  5
9ECD
330
9E42
100
AcDbEntity
  8
1
  6
Continuous
100
AcDbLine
 10
313.5
 20
184.4999999999997
 30
0.0
 11
315.9580379999998
 21
184.4999999999997
 31
0.0
  0
LINE
  5
9ECE
330
9E42
100
AcDbEntity
  8
1
  6
Continuous
100
AcDbLine
 10
323.1000059999999
 20
169.0
 30
0.0
 11
323.1000059999999
 21
199.0
 31
0.0
  0
LINE
  5
9ECF
330
9E42
100
AcDbEntity
  8
1
  6
Continuous
100
AcDbLine
 10
191.8999939999999
 20
491.0
 30
0.0
 11
193.3999939999999
 21
491.0
 31
0.0
  0
LINE
  5
9ED0
330
9E42
100
AcDbEntity
  8
1
  6
Continuous
100
AcDbLine
 10
191.8999939999999
 20
497.0
 30
0.0
 11
193.3999939999999
 21
497.0
 31
0.0
  0
LINE
  5
9ED1
330
9E42
100
AcDbEntity
  8
1
  6
Continuous
100
AcDbLine
 10
193.5999999999999
 20
181.0
 30
0.0
 11
195.1
 21
181.0
 31
0.0
  0
LINE
  5
9ED2
330
9E42
100
AcDbEntity
  8
1
  6
Continuous
100
AcDbLine
 10
193.5999999999999
 20
187.0
 30
0.0
 11
195.1
 21
187.0
 31
0.0
  0
LINE
  5
9ED3
330
9E42
100
AcDbEntity
  8
1
  6
Continuous
100
AcDbLine
 10
298.0
 20
522.0
 30
0.0
 11
298.0
 21
501.0
 31
0.0
  0
LINE
  5
9ED4
330
9E42
100
AcDbEntity
  8
1
  6
Continuous
100
AcDbLine
 10
328.0
 20
522.0
 30
0.0
 11
328.0
 21
501.0
 31
0.0
  0
LINE
  5
9ED5
330
9E42
100
AcDbEntity
  8
4
  6
CENTER
 48
0.2
100
AcDbLine
 10
326.649994
 20
513.0
 30
0.0
 11
317.350006
 21
513.0
 31
0.0
  0
LINE
  5
9ED6
330
9E42
100
AcDbEntity
  8
1
  6
Continuous
100
AcDbLine
 10
328.0
 20
522.0
 30
0.0
 11
298.0
 21
522.0
 31
0.0
  0
LINE
  5
9ED7
330
9E42
100
AcDbEntity
  8
4
  6
CENTER
 48
0.2
100
AcDbLine
 10
322.0
 20
527.0
 30
0.0
 11
322.0
 21
508.3500059999998
 31
0.0
  0
LINE
  5
9ED8
330
9E42
100
AcDbEntity
  8
4
  6
CENTER
 48
0.2
100
AcDbLine
 10
308.6499939999999
 20
513.0
 30
0.0
 11
299.350006
 21
513.0
 31
0.0
  0
LINE
  5
9ED9
330
9E42
100
AcDbEntity
  8
4
  6
CENTER
 48
0.2
100
AcDbLine
 10
304.0
 20
527.0
 30
0.0
 11
304.0
 21
508.3500059999998
 31
0.0
  0
LINE
  5
9EDA
330
9E42
100
AcDbEntity
  8
1
  6
Continuous
100
AcDbLine
 10
313.5
 20
491.0419619999998
 30
0.0
 11
313.5
 21
493.5
 31
0.0
  0
LINE
  5
9EDB
330
9E42
100
AcDbEntity
  8
1
  6
Continuous
100
AcDbLine
 10
312.5
 20
491.0419619999998
 30
0.0
 11
312.5
 21
493.5
 31
0.0
  0
LINE
  5
9EDC
330
9E42
100
AcDbEntity
  8
1
  6
Continuous
100
AcDbLine
 10
315.9580379999998
 20
493.5
 30
0.0
 11
313.5
 21
493.5
 31
0.0
  0
LINE
  5
9EDD
330
9E42
100
AcDbEntity
  8
1
  6
Continuous
100
AcDbLine
 10
315.9580379999998
 20
494.5
 30
0.0
 11
313.5
 21
494.5
 31
0.0
  0
LINE
  5
9EDE
330
9E42
100
AcDbEntity
  8
1
  6
Continuous
100
AcDbLine
 10
312.5
 20
493.5
 30
0.0
 11
310.041962
 21
493.5
 31
0.0
  0
LINE
  5
9EDF
330
9E42
100
AcDbEntity
  8
1
  6
Continuous
100
AcDbLine
 10
312.5
 20
494.5
 30
0.0
 11
310.041962
 21
494.5
 31
0.0
  0
LINE
  5
9EE0
330
9E42
100
AcDbEntity
  8
1
  6
Continuous
100
AcDbLine
 10
313.5
 20
494.5
 30
0.0
 11
313.5
 21
496.958038
 31
0.0
  0
LINE
  5
9EE1
330
9E42
100
AcDbEntity
  8
1
  6
Continuous
100
AcDbLine
 10
312.5
 20
494.5
 30
0.0
 11
312.5
 21
496.958038
 31
0.0
  0
LINE
  5
9EE2
330
9E42
100
AcDbEntity
  8
1
  6
Continuous
100
AcDbLine
 10
328.0
 20
504.100006
 30
0.0
 11
298.0
 21
504.100006
 31
0.0
  0
LINE
  5
9EE3
330
9E42
100
AcDbEntity
  8
4
  6
CENTER
 48
0.2
100
AcDbLine
 10
306.4999999999999
 20
494.0
 30
0.0
 11
319.5
 21
494.0
 31
0.0
  0
LINE
  5
9EE4
330
9E42
100
AcDbEntity
  8
1
  6
Continuous
100
AcDbLine
 10
165.0
 20
591.0
 30
0.0
 11
165.0
 21
617.0
 31
0.0
  0
LINE
  5
9EE5
330
9E42
100
AcDbEntity
  8
1
  6
Continuous
100
AcDbLine
 10
195.0
 20
589.0
 30
0.0
 11
195.0
 21
619.0
 31
0.0
  0
LINE
  5
9EE6
330
9E42
100
AcDbEntity
  8
4
  6
CENTER
 48
0.2
100
AcDbLine
 10
160.149994
 20
604.0
 30
0.0
 11
200.0
 21
604.0
 31
0.0
  0
LINE
  5
9EE7
330
9E42
100
AcDbEntity
  8
4
  6
CENTER
 48
0.2
100
AcDbLine
 10
178.300003
 20
595.0
 30
0.0
 11
167.6999969999999
 21
595.0
 31
0.0
  0
LINE
  5
9EE8
330
9E42
100
AcDbEntity
  8
4
  6
CENTER
 48
0.2
100
AcDbLine
 10
173.0
 20
589.700012
 30
0.0
 11
173.0
 21
600.2999879999999
 31
0.0
  0
LINE
  5
9EE9
330
9E42
100
AcDbEntity
  8
4
  6
CENTER
 48
0.2
100
AcDbLine
 10
178.300003
 20
613.0
 30
0.0
 11
167.6999969999999
 21
613.0
 31
0.0
  0
LINE
  5
9EEA
330
9E42
100
AcDbEntity
  8
4
  6
CENTER
 48
0.2
100
AcDbLine
 10
173.0
 20
607.700012
 30
0.0
 11
173.0
 21
618.2999879999997
 31
0.0
  0
LINE
  5
9EEB
330
9E42
100
AcDbEntity
  8
1
  6
Continuous
100
AcDbLine
 10
166.6999969999999
 20
629.099976
 30
0.0
 11
166.6999969999999
 21
632.0
 31
0.0
  0
LINE
  5
9EEC
330
9E42
100
AcDbEntity
  8
1
  6
Continuous
100
AcDbLine
 10
196.6999969999999
 20
617.0
 30
0.0
 11
196.6999969999999
 21
629.099976
 31
0.0
  0
LINE
  5
9EED
330
9E42
100
AcDbEntity
  8
1
  6
Continuous
100
AcDbLine
 10
166.6999969999999
 20
632.0
 30
0.0
 11
193.8000029999997
 21
632.0
 31
0.0
  0
LINE
  5
9EEE
330
9E42
100
AcDbEntity
  8
1
  6
Continuous
100
AcDbLine
 10
166.6999969999999
 20
629.099976
 30
0.0
 11
193.8000029999997
 21
629.099976
 31
0.0
  0
LINE
  5
9EEF
330
9E42
100
AcDbEntity
  8
4
  6
CENTER
 48
0.2
100
AcDbLine
 10
189.449997
 20
623.0
 30
0.0
 11
201.050003
 21
623.0
 31
0.0
  0
LINE
  5
9EF0
330
9E42
100
AcDbEntity
  8
1
  6
Continuous
100
AcDbLine
 10
195.0
 20
84.0
 30
0.0
 11
195.0
 21
72.0
 31
0.0
  0
LINE
  5
9EF1
330
9E42
100
AcDbEntity
  8
4
  6
CENTER
 48
0.2
100
AcDbLine
 10
174.699997
 20
48.25
 30
0.0
 11
174.699997
 21
36.650002
 31
0.0
  0
LINE
  5
9EF2
330
9E42
100
AcDbEntity
  8
1
  6
Continuous
100
AcDbLine
 10
193.5999999999999
 20
56.0
 30
0.0
 11
193.8000029999997
 21
56.0
 31
0.0
  0
LINE
  5
9EF3
330
9E42
100
AcDbEntity
  8
1
  6
Continuous
100
AcDbLine
 10
190.600006
 20
77.849998
 30
0.0
 11
190.600006
 21
60.15000200000001
 31
0.0
  0
LINE
  5
9EF4
330
9E42
100
AcDbEntity
  8
1
  6
Continuous
100
AcDbLine
 10
177.0
 20
79.900002
 30
0.0
 11
177.0
 21
58.09999799999999
 31
0.0
  0
LINE
  5
9EF5
330
9E42
100
AcDbEntity
  8
1
  6
Continuous
100
AcDbLine
 10
193.5999999999999
 20
58.900002
 30
0.0
 11
193.8000029999997
 21
58.900002
 31
0.0
  0
LINE
  5
9EF6
330
9E42
100
AcDbEntity
  8
1
  6
Continuous
100
AcDbLine
 10
174.0
 20
75.5
 30
0.0
 11
174.0
 21
62.5
 31
0.0
  0
LINE
  5
9EF7
330
9E42
100
AcDbEntity
  8
1
  6
Continuous
100
AcDbLine
 10
196.6999969999999
 20
56.0
 30
0.0
 11
196.6999969999999
 21
43.900002
 31
0.0
  0
LINE
  5
9EF8
330
9E42
100
AcDbEntity
  8
4
  6
CENTER
 48
0.2
100
AcDbLine
 10
189.449997
 20
50.0
 30
0.0
 11
201.050003
 21
50.0
 31
0.0
  0
LINE
  5
9EF9
330
9E42
100
AcDbEntity
  8
1
  6
Continuous
100
AcDbLine
 10
166.6999969999999
 20
43.900002
 30
0.0
 11
193.8000029999997
 21
43.900002
 31
0.0
  0
LINE
  5
9EFA
330
9E42
100
AcDbEntity
  8
1
  6
Continuous
100
AcDbLine
 10
166.6999969999999
 20
41.0
 30
0.0
 11
193.8000029999997
 21
41.0
 31
0.0
  0
LINE
  5
9EFB
330
9E42
100
AcDbEntity
  8
1
  6
Continuous
100
AcDbLine
 10
166.6999969999999
 20
43.900002
 30
0.0
 11
166.6999969999999
 21
41.0
 31
0.0
  0
LINE
  5
9EFC
330
9E42
100
AcDbEntity
  8
1
  6
Continuous
100
AcDbLine
 10
189.0
 20
60.150002
 30
0.0
 11
190.600006
 21
60.150002
 31
0.0
  0
LINE
  5
9EFD
330
9E42
100
AcDbEntity
  8
1
  6
Continuous
100
AcDbLine
 10
195.1
 20
68.500008
 30
0.0
 11
194.35
 21
69.00000799999999
 31
0.0
  0
LINE
  5
9EFE
330
9E42
100
AcDbEntity
  8
1
  6
Continuous
100
AcDbLine
 10
190.700006
 20
77.0
 30
0.0
 11
193.5999999999999
 21
77.0
 31
0.0
  0
LINE
  5
9EFF
330
9E42
100
AcDbEntity
  8
1
  6
Continuous
100
AcDbLine
 10
193.5999999999999
 20
77.0
 30
0.0
 11
193.5999999999999
 21
58.900002
 31
0.0
  0
LINE
  5
9F00
330
9E42
100
AcDbEntity
  8
1
  6
Continuous
100
AcDbLine
 10
175.0
 20
76.5
 30
0.0
 11
175.0
 21
61.5
 31
0.0
  0
LINE
  5
9F01
330
9E42
100
AcDbEntity
  8
1
  6
Continuous
100
AcDbLine
 10
189.0
 20
77.849998
 30
0.0
 11
190.600006
 21
77.849998
 31
0.0
  0
LINE
  5
9F02
330
9E42
100
AcDbEntity
  8
1
  6
Continuous
100
AcDbLine
 10
175.0
 20
61.5
 30
0.0
 11
177.0
 21
61.5
 31
0.0
  0
LINE
  5
9F03
330
9E42
100
AcDbEntity
  8
1
  6
Continuous
100
AcDbLine
 10
175.0
 20
76.5
 30
0.0
 11
177.0
 21
76.5
 31
0.0
  0
LINE
  5
9F04
330
9E42
100
AcDbEntity
  8
1
  6
Continuous
100
AcDbLine
 10
174.0
 20
62.49999200000001
 30
0.0
 11
174.999985
 21
61.5
 31
0.0
  0
LINE
  5
9F05
330
9E42
100
AcDbEntity
  8
1
  6
Continuous
100
AcDbLine
 10
174.0
 20
75.5
 30
0.0
 11
175.0
 21
76.5
 31
0.0
  0
LINE
  5
9F06
330
9E42
100
AcDbEntity
  8
1
  6
Continuous
100
AcDbLine
 10
193.5999999999999
 20
66.0
 30
0.0
 11
195.1
 21
66.0
 31
0.0
  0
LINE
  5
9F07
330
9E42
100
AcDbEntity
  8
1
  6
Continuous
100
AcDbLine
 10
193.5999999999999
 20
72.0
 30
0.0
 11
195.1
 21
72.0
 31
0.0
  0
LINE
  5
9F08
330
9E42
100
AcDbEntity
  8
1
  6
Continuous
100
AcDbLine
 10
194.35
 20
69.0
 30
0.0
 11
195.1
 21
69.499992
 31
0.0
  0
LINE
  5
9F09
330
9E42
100
AcDbEntity
  8
1
  6
Continuous
100
AcDbLine
 10
167.0
 20
84.0
 30
0.0
 11
195.0
 21
84.0
 31
0.0
  0
LINE
  5
9F0A
330
9E42
100
AcDbEntity
  8
1
  6
Continuous
100
AcDbLine
 10
167.0
 20
54.0
 30
0.0
 11
193.8000029999997
 21
54.0
 31
0.0
  0
LINE
  5
9F0B
330
9E42
100
AcDbEntity
  8
4
  6
CENTER
 48
0.2
100
AcDbLine
 10
160.149994
 20
69.0
 30
0.0
 11
200.0
 21
69.0
 31
0.0
  0
LINE
  5
9F0C
330
9E42
100
AcDbEntity
  8
1
  6
Continuous
100
AcDbLine
 10
165.0
 20
82.0
 30
0.0
 11
165.0
 21
56.0
 31
0.0
  0
LINE
  5
9F0D
330
9E42
100
AcDbEntity
  8
1
  6
Continuous
100
AcDbLine
 10
189.0
 20
54.0
 30
0.0
 11
189.0
 21
84.0
 31
0.0
  0
LINE
  5
9F0E
330
9E42
100
AcDbEntity
  8
1
  6
Continuous
100
AcDbLine
 10
187.399994
 20
81.5
 30
0.0
 11
178.600006
 21
81.5
 31
0.0
  0
LINE
  5
9F0F
330
9E42
100
AcDbEntity
  8
1
  6
Continuous
100
AcDbLine
 10
187.399994
 20
56.5
 30
0.0
 11
178.600006
 21
56.5
 31
0.0
  0
LINE
  5
9F10
330
9E42
100
AcDbEntity
  8
1
  6
Continuous
100
AcDbLine
 10
187.399994
 20
58.09999799999999
 30
0.0
 11
187.399994
 21
79.900002
 31
0.0
  0
LINE
  5
9F11
330
9E42
100
AcDbEntity
  8
1
  6
Continuous
100
AcDbLine
 10
187.399994
 20
58.09999799999999
 30
0.0
 11
178.600006
 21
58.09999799999999
 31
0.0
  0
LINE
  5
9F12
330
9E42
100
AcDbEntity
  8
1
  6
Continuous
100
AcDbLine
 10
178.600006
 20
79.900002
 30
0.0
 11
178.600006
 21
58.09999799999999
 31
0.0
  0
LINE
  5
9F13
330
9E42
100
AcDbEntity
  8
1
  6
Continuous
100
AcDbLine
 10
187.399994
 20
79.900002
 30
0.0
 11
178.600006
 21
79.900002
 31
0.0
  0
LINE
  5
9F14
330
9E42
100
AcDbEntity
  8
1
  6
Continuous
100
AcDbLine
 10
187.399994
 20
65.0
 30
0.0
 11
178.600006
 21
65.0
 31
0.0
  0
LINE
  5
9F15
330
9E42
100
AcDbEntity
  8
1
  6
Continuous
100
AcDbLine
 10
187.399994
 20
73.0
 30
0.0
 11
178.600006
 21
73.0
 31
0.0
  0
LINE
  5
9F16
330
9E42
100
AcDbEntity
  8
1
  6
Continuous
100
AcDbLine
 10
186.8999939999999
 20
58.5
 30
0.0
 11
186.8999939999999
 21
65.0
 31
0.0
  0
LINE
  5
9F17
330
9E42
100
AcDbEntity
  8
1
  6
Continuous
100
AcDbLine
 10
185.300003
 20
79.5
 30
0.0
 11
180.1999969999999
 21
79.5
 31
0.0
  0
LINE
  5
9F18
330
9E42
100
AcDbEntity
  8
1
  6
Continuous
100
AcDbLine
 10
186.8999939999999
 20
58.5
 30
0.0
 11
185.300003
 21
58.5
 31
0.0
  0
LINE
  5
9F19
330
9E42
100
AcDbEntity
  8
1
  6
Continuous
100
AcDbLine
 10
185.300003
 20
58.5
 30
0.0
 11
185.300003
 21
65.0
 31
0.0
  0
LINE
  5
9F1A
330
9E42
100
AcDbEntity
  8
1
  6
Continuous
100
AcDbLine
 10
180.1999969999999
 20
58.5
 30
0.0
 11
180.1999969999999
 21
65.0
 31
0.0
  0
LINE
  5
9F1B
330
9E42
100
AcDbEntity
  8
1
  6
Continuous
100
AcDbLine
 10
185.300003
 20
77.900002
 30
0.0
 11
180.1999969999999
 21
77.900002
 31
0.0
  0
LINE
  5
9F1C
330
9E42
100
AcDbEntity
  8
1
  6
Continuous
100
AcDbLine
 10
180.1999969999999
 20
58.5
 30
0.0
 11
178.600006
 21
58.5
 31
0.0
  0
LINE
  5
9F1D
330
9E42
100
AcDbEntity
  8
1
  6
Continuous
100
AcDbLine
 10
185.300003
 20
73.0
 30
0.0
 11
185.300003
 21
77.900002
 31
0.0
  0
LINE
  5
9F1E
330
9E42
100
AcDbEntity
  8
1
  6
Continuous
100
AcDbLine
 10
186.8999939999999
 20
73.0
 30
0.0
 11
186.8999939999999
 21
77.900002
 31
0.0
  0
LINE
  5
9F1F
330
9E42
100
AcDbEntity
  8
1
  6
Continuous
100
AcDbLine
 10
180.1999969999999
 20
73.0
 30
0.0
 11
180.1999969999999
 21
77.900002
 31
0.0
  0
LINE
  5
9F20
330
9E42
100
AcDbEntity
  8
1
  6
Continuous
100
AcDbLine
 10
184.3000029999998
 20
61.599998
 30
0.0
 11
180.3000029999997
 21
61.599998
 31
0.0
  0
LINE
  5
9F21
330
9E42
100
AcDbEntity
  8
1
  6
Continuous
100
AcDbLine
 10
184.3000029999998
 20
76.400002
 30
0.0
 11
180.3000029999997
 21
76.400002
 31
0.0
  0
LINE
  5
9F22
330
9E42
100
AcDbEntity
  8
1
  6
Continuous
100
AcDbLine
 10
184.3000029999998
 20
58.09999799999999
 30
0.0
 11
184.3000029999998
 21
65.0
 31
0.0
  0
LINE
  5
9F23
330
9E42
100
AcDbEntity
  8
1
  6
Continuous
100
AcDbLine
 10
181.6999969999999
 20
58.09999799999999
 30
0.0
 11
181.6999969999999
 21
61.599998
 31
0.0
  0
LINE
  5
9F24
330
9E42
100
AcDbEntity
  8
4
  6
CENTER
 48
0.1
100
AcDbLine
 10
328.0
 20
358.4999999999998
 30
0.0
 11
323.005385
 21
358.4999999999998
 31
0.0
  0
LINE
  5
9F25
330
9E42
100
AcDbEntity
  8
4
  6
CENTER
 48
0.1
100
AcDbLine
 10
328.0
 20
368.5
 30
0.0
 11
322.796852
 21
368.5
 31
0.0
  0
LINE
  5
9F26
330
9E42
100
AcDbEntity
  8
4
  6
CENTER
 48
0.2
100
AcDbLine
 10
174.699997
 20
624.75
 30
0.0
 11
174.699997
 21
636.3499759999997
 31
0.0
  0
LINE
  5
9F27
330
9E42
100
AcDbEntity
  8
4
  6
CENTER
 48
0.2
100
AcDbLine
 10
447.0
 20
358.4999999999998
 30
0.0
 11
439.0
 21
358.4999999999998
 31
0.0
  0
LINE
  5
9F28
330
9E42
100
AcDbEntity
  8
4
  6
CENTER
 48
0.2
100
AcDbLine
 10
447.0
 20
368.5
 30
0.0
 11
439.0
 21
368.5
 31
0.0
  0
LINE
  5
9F29
330
9E42
100
AcDbEntity
  8
4
  6
CENTER
100
AcDbLine
 10
183.0
 20
164.0
 30
0.0
 11
183.0
 21
527.0
 31
0.0
  0
LINE
  5
9F2A
330
9E42
100
AcDbEntity
  8
4
  6
CENTER
 48
0.2
100
AcDbLine
 10
183.0
 20
584.0
 30
0.0
 11
183.0
 21
624.0
 31
0.0
  0
LINE
  5
9F2B
330
9E42
100
AcDbEntity
  8
4
  6
CENTER
 48
0.2
100
AcDbLine
 10
183.0
 20
49.0
 30
0.0
 11
183.0
 21
89.0
 31
0.0
  0
LINE
  5
9F2C
330
9E42
100
AcDbEntity
  8
1
  6
Continuous
100
AcDbLine
 10
190.700006
 20
169.0
 30
0.0
 11
190.700006
 21
199.0
 31
0.0
  0
LINE
  5
9F2D
330
9E42
100
AcDbEntity
  8
1
  6
Continuous
100
AcDbLine
 10
192.100006
 20
507.0
 30
0.0
 11
192.100006
 21
519.0999759999998
 31
0.0
  0
LINE
  5
9F2E
330
9E42
100
AcDbEntity
  8
1
  6
Continuous
100
AcDbLine
 10
180.3000029999997
 20
61.599998
 30
0.0
 11
180.3000029999997
 21
65.0
 31
0.0
  0
LINE
  5
9F2F
330
9E42
100
AcDbEntity
  8
1
  6
Continuous
100
AcDbLine
 10
184.3000029999998
 20
73.0
 30
0.0
 11
184.3000029999998
 21
77.900002
 31
0.0
  0
LINE
  5
9F30
330
9E42
100
AcDbEntity
  8
1
  6
Continuous
100
AcDbLine
 10
180.3000029999997
 20
73.0
 30
0.0
 11
180.3000029999997
 21
77.900002
 31
0.0
  0
LINE
  5
9F31
330
9E42
100
AcDbEntity
  8
1
  6
Continuous
100
AcDbLine
 10
180.1999969999999
 20
333.0
 30
0.0
 11
180.1999969999999
 21
355.600006
 31
0.0
  0
LINE
  5
9F32
330
9E42
100
AcDbEntity
  8
1
  6
Continuous
100
AcDbLine
 10
185.300003
 20
333.0
 30
0.0
 11
185.300003
 21
355.600006
 31
0.0
  0
LINE
  5
9F33
330
9E42
100
AcDbEntity
  8
1
  6
Continuous
100
AcDbLine
 10
185.300003
 20
349.0
 30
0.0
 11
185.1335599999999
 21
349.0
 31
0.0
  0
LINE
  5
9F34
330
9E42
100
AcDbEntity
  8
1
  6
Continuous
100
AcDbLine
 10
185.300003
 20
345.0
 30
0.0
 11
185.1335599999999
 21
345.0
 31
0.0
  0
LINE
  5
9F35
330
9E42
100
AcDbEntity
  8
1
  6
Continuous
100
AcDbLine
 10
185.0321659999999
 20
345.0
 30
0.0
 11
184.3000029999998
 21
345.0
 31
0.0
  0
LINE
  5
9F36
330
9E42
100
AcDbEntity
  8
1
  6
Continuous
100
AcDbLine
 10
185.0321659999999
 20
349.0
 30
0.0
 11
184.3000029999998
 21
349.0
 31
0.0
  0
LINE
  5
9F37
330
9E42
100
AcDbEntity
  8
1
  6
Continuous
100
AcDbLine
 10
184.3000029999998
 20
333.0
 30
0.0
 11
184.3000029999998
 21
356.0
 31
0.0
  0
LINE
  5
9F38
330
9E42
100
AcDbEntity
  8
1
  6
Continuous
100
AcDbLine
 10
180.3000029999997
 20
333.0
 30
0.0
 11
180.3000029999997
 21
355.7141419999999
 31
0.0
  0
LINE
  5
9F39
330
9E42
100
AcDbEntity
  8
4
  6
CENTER
 48
0.2
100
AcDbLine
 10
194.0
 20
347.0
 30
0.0
 11
172.0
 21
347.0
 31
0.0
  0
LINE
  5
9F3A
330
9E42
100
AcDbEntity
  8
1
  6
Continuous
100
AcDbLine
 10
457.299988
 20
169.0
 30
0.0
 11
429.2999879999999
 21
169.0
 31
0.0
  0
LINE
  5
9F3B
330
9E42
100
AcDbEntity
  8
1
  6
Continuous
100
AcDbLine
 10
429.2999879999999
 20
169.0
 30
0.0
 11
429.2999879999999
 21
199.0
 31
0.0
  0
LINE
  5
9F3C
330
9E42
100
AcDbEntity
  8
1
  6
Continuous
100
AcDbLine
 10
457.299988
 20
199.0
 30
0.0
 11
429.2999879999999
 21
199.0
 31
0.0
  0
LINE
  5
9F3D
330
9E42
100
AcDbEntity
  8
4
  6
CENTER
 48
0.2
100
AcDbLine
 10
451.2999879999998
 20
169.699997
 30
0.0
 11
451.2999879999998
 21
180.3000029999997
 31
0.0
  0
LINE
  5
9F3E
330
9E42
100
AcDbEntity
  8
4
  6
CENTER
 48
0.2
100
AcDbLine
 10
451.2999879999998
 20
187.6999969999999
 30
0.0
 11
451.2999879999998
 21
198.300003
 31
0.0
  0
LINE
  5
9F3F
330
9E42
100
AcDbEntity
  8
1
  6
Continuous
100
AcDbLine
 10
459.2999879999998
 20
171.0
 30
0.0
 11
459.2999879999998
 21
197.0
 31
0.0
  0
LINE
  5
9F40
330
9E42
100
AcDbEntity
  8
4
  6
CENTER
 48
0.2
100
AcDbLine
 10
456.6000059999998
 20
193.0
 30
0.0
 11
446.0
 21
193.0
 31
0.0
  0
LINE
  5
9F41
330
9E42
100
AcDbEntity
  8
4
  6
CENTER
 48
0.2
100
AcDbLine
 10
456.6000059999998
 20
175.0
 30
0.0
 11
446.0
 21
175.0
 31
0.0
  0
LINE
  5
9F42
330
9E42
100
AcDbEntity
  8
1
  6
Continuous
100
AcDbLine
 10
437.0
 20
374.5
 30
0.0
 11
449.0
 21
374.5
 31
0.0
  0
LINE
  5
9F43
330
9E42
100
AcDbEntity
  8
1
  6
Continuous
100
AcDbLine
 10
449.0
 20
199.0
 30
0.0
 11
449.0
 21
374.5
 31
0.0
  0
LINE
  5
9F44
330
9E42
100
AcDbEntity
  8
1
  6
Continuous
100
AcDbLine
 10
437.0
 20
199.0
 30
0.0
 11
437.0
 21
374.5
 31
0.0
  0
LINE
  5
9F45
330
9E42
100
AcDbEntity
  8
4
  6
CENTER
 48
0.2
100
AcDbLine
 10
464.2999879999998
 20
184.0
 30
0.0
 11
424.299988
 21
184.0
 31
0.0
  0
LINE
  5
9F46
330
9E42
100
AcDbEntity
  8
4
  6
CENTER
 48
0.2
100
AcDbLine
 10
432.0
 20
347.0
 30
0.0
 11
454.0
 21
347.0
 31
0.0
  0
LINE
  5
9F47
330
9E42
100
AcDbEntity
  8
4
  6
CENTER
 48
0.2
100
AcDbLine
 10
330.5
 20
347.0
 30
0.0
 11
295.5
 21
347.0
 31
0.0
  0
LINE
  5
9F48
330
9E42
100
AcDbEntity
  8
4
  6
CENTER
 48
0.2
100
AcDbLine
 10
70.0
 20
347.0
 30
0.0
 11
35.0
 21
347.0
 31
0.0
  0
LINE
  5
9F49
330
9E42
100
AcDbEntity
  8
4
  6
CENTER
 48
0.2
100
AcDbLine
 10
424.299988
 20
175.0
 30
0.0
 11
437.200012
 21
175.0
 31
0.0
  0
LINE
  5
9F4A
330
9E42
100
AcDbEntity
  8
4
  6
CENTER
 48
0.2
100
AcDbLine
 10
424.299988
 20
193.0
 30
0.0
 11
437.200012
 21
193.0
 31
0.0
  0
LINE
  5
9F4B
330
9E42
100
AcDbEntity
  8
4
  6
CENTER
 48
0.2
100
AcDbLine
 10
186.25
 20
175.0
 30
0.0
 11
197.850006
 21
175.0
 31
0.0
  0
LINE
  5
9F4C
330
9E42
100
AcDbEntity
  8
4
  6
CENTER
 48
0.2
100
AcDbLine
 10
186.25
 20
193.0
 30
0.0
 11
197.850006
 21
193.0
 31
0.0
  0
LINE
  5
9F4D
330
9E42
100
AcDbEntity
  8
5
  6
PHANTOM
 48
0.1
100
AcDbLine
 10
183.800003
 20
341.200012
 30
0.0
 11
180.800003
 21
341.200012
 31
0.0
  0
LINE
  5
9F4E
330
9E42
100
AcDbEntity
  8
4
  6
CENTER
 48
0.2
100
AcDbLine
 10
194.0
 20
348.600006
 30
0.0
 11
172.0
 21
348.600006
 31
0.0
  0
LINE
  5
9F4F
330
9E42
100
AcDbEntity
  8
5
  6
PHANTOM
 48
0.1
100
AcDbLine
 10
184.3000029999998
 20
349.600006
 30
0.0
 11
180.3000029999997
 21
349.600006
 31
0.0
  0
LINE
  5
9F50
330
9E42
100
AcDbEntity
  8
5
  6
PHANTOM
 48
0.1
100
AcDbLine
 10
184.3000029999998
 20
347.600006
 30
0.0
 11
180.3000029999997
 21
347.600006
 31
0.0
  0
LINE
  5
9F51
330
9E42
100
AcDbEntity
  8
5
  6
PHANTOM
 48
0.1
100
AcDbLine
 10
183.800003
 20
342.700012
 30
0.0
 11
181.1000059999997
 21
342.700012
 31
0.0
  0
LINE
  5
9F52
330
9E42
100
AcDbEntity
  8
5
  6
PHANTOM
 48
0.1
100
AcDbLine
 10
183.800003
 20
354.4999999999998
 30
0.0
 11
181.1000059999997
 21
354.4999999999998
 31
0.0
  0
LINE
  5
9F53
330
9E42
100
AcDbEntity
  8
5
  6
PHANTOM
 48
0.1
100
AcDbLine
 10
185.5
 20
334.600006
 30
0.0
 11
180.0
 21
334.600006
 31
0.0
  0
LINE
  5
9F54
330
9E42
100
AcDbEntity
  8
5
  6
PHANTOM
 48
0.1
100
AcDbLine
 10
300.0
 20
341.200012
 30
0.0
 11
298.4999999999999
 21
341.200012
 31
0.0
  0
LINE
  5
9F55
330
9E42
100
AcDbEntity
  8
5
  6
PHANTOM
 48
0.1
100
AcDbLine
 10
300.0
 20
356.0
 30
0.0
 11
298.4999999999999
 21
356.0
 31
0.0
  0
LINE
  5
9F56
330
9E42
100
AcDbEntity
  8
1
  6
Continuous
100
AcDbLine
 10
185.5
 20
333.0
 30
0.0
 11
180.0
 21
333.0
 31
0.0
  0
LINE
  5
9F57
330
9E42
100
AcDbEntity
  8
1
  6
Continuous
100
AcDbLine
 10
193.8000029999997
 20
56.0
 30
0.0
 11
193.8000029999997
 21
43.900002
 31
0.0
  0
LINE
  5
9F58
330
9E42
100
AcDbEntity
  8
4
  6
CENTER
 48
0.2
100
AcDbLine
 10
178.300003
 20
60.0
 30
0.0
 11
167.6999969999999
 21
60.0
 31
0.0
  0
LINE
  5
9F59
330
9E42
100
AcDbEntity
  8
4
  6
CENTER
 48
0.2
100
AcDbLine
 10
173.0
 20
54.700001
 30
0.0
 11
173.0
 21
65.30000300000001
 31
0.0
  0
LINE
  5
9F5A
330
9E42
100
AcDbEntity
  8
4
  6
CENTER
 48
0.2
100
AcDbLine
 10
178.300003
 20
78.0
 30
0.0
 11
167.6999969999999
 21
78.0
 31
0.0
  0
LINE
  5
9F5B
330
9E42
100
AcDbEntity
  8
4
  6
CENTER
 48
0.2
100
AcDbLine
 10
173.0
 20
72.69999699999998
 30
0.0
 11
173.0
 21
83.300003
 31
0.0
  0
LINE
  5
9F5C
330
9E42
100
AcDbEntity
  8
1
  6
Continuous
100
AcDbLine
 10
65.5
 20
174.5
 30
0.0
 11
65.5
 21
374.5
 31
0.0
  0
LINE
  5
9F5D
330
9E42
100
AcDbEntity
  8
1
  6
Continuous
100
AcDbLine
 10
40.49999999999999
 20
174.5
 30
0.0
 11
40.49999999999999
 21
374.5
 31
0.0
  0
LINE
  5
9F5E
330
9E42
100
AcDbEntity
  8
1
  6
Continuous
100
AcDbLine
 10
40.49999999999999
 20
374.5
 30
0.0
 11
65.5
 21
374.5
 31
0.0
  0
LINE
  5
9F5F
330
9E42
100
AcDbEntity
  8
1
  6
Continuous
100
AcDbLine
 10
65.50000799999999
 20
344.0
 30
0.0
 11
66.943146
 21
338.9090879999999
 31
0.0
  0
LINE
  5
9F60
330
9E42
100
AcDbEntity
  8
1
  6
Continuous
100
AcDbLine
 10
40.49999999999999
 20
360.4999999999998
 30
0.0
 11
40.49999999999999
 21
360.4999999999998
 31
0.0
  0
LINE
  5
9F61
330
9E42
100
AcDbEntity
  8
1
  6
Continuous
100
AcDbLine
 10
40.49999999999999
 20
356.4999999999998
 30
0.0
 11
40.49999999999999
 21
356.4999999999998
 31
0.0
  0
LINE
  5
9F62
330
9E42
100
AcDbEntity
  8
1
  6
Continuous
100
AcDbLine
 10
40.49999999999999
 20
370.5
 30
0.0
 11
40.49999999999999
 21
370.5
 31
0.0
  0
LINE
  5
9F63
330
9E42
100
AcDbEntity
  8
1
  6
Continuous
100
AcDbLine
 10
40.49999999999999
 20
366.5
 30
0.0
 11
40.49999999999999
 21
366.5
 31
0.0
  0
LINE
  5
9F64
330
9E42
100
AcDbEntity
  8
4
  6
CENTER
 48
0.1
100
AcDbLine
 10
37.93603199999999
 20
368.5
 30
0.0
 11
42.303683
 21
368.5
 31
0.0
  0
LINE
  5
9F65
330
9E42
100
AcDbEntity
  8
4
  6
CENTER
 48
0.1
100
AcDbLine
 10
37.93603199999999
 20
358.4999999999998
 30
0.0
 11
42.303683
 21
358.4999999999998
 31
0.0
  0
LINE
  5
9F66
330
9E42
100
AcDbEntity
  8
5
  6
PHANTOM
 48
0.1
100
AcDbLine
 10
66.0
 20
341.200012
 30
0.0
 11
67.5
 21
341.200012
 31
0.0
  0
LINE
  5
9F67
330
9E42
100
AcDbEntity
  8
5
  6
PHANTOM
 48
0.1
100
AcDbLine
 10
66.0
 20
356.0
 30
0.0
 11
67.5
 21
356.0
 31
0.0
  0
LINE
  5
9F68
330
9E42
100
AcDbEntity
  8
1
  6
Continuous
100
AcDbLine
 10
184.3000029999998
 20
83.0
 30
0.0
 11
180.3000029999997
 21
83.0
 31
0.0
  0
LINE
  5
9F69
330
9E42
100
AcDbEntity
  8
1
  6
Continuous
100
AcDbLine
 10
184.3000029999998
 20
81.5
 30
0.0
 11
184.3000029999998
 21
83.0
 31
0.0
  0
LINE
  5
9F6A
330
9E42
100
AcDbEntity
  8
1
  6
Continuous
100
AcDbLine
 10
180.3000029999997
 20
81.5
 30
0.0
 11
180.3000029999997
 21
83.0
 31
0.0
  0
LINE
  5
9F6B
330
9E42
100
AcDbEntity
  8
1
  6
Continuous
100
AcDbLine
 10
183.800003
 20
82.5
 30
0.0
 11
180.800003
 21
82.5
 31
0.0
  0
LINE
  5
9F6C
330
9E42
100
AcDbEntity
  8
1
  6
Continuous
100
AcDbLine
 10
185.325684
 20
366.3335879999999
 30
0.0
 11
180.674316
 21
366.3335879999999
 31
0.0
  0
LINE
  5
9F6D
330
9E42
100
AcDbEntity
  8
1
  6
Continuous
100
AcDbLine
 10
185.270203
 20
366.99942
 30
0.0
 11
180.729797
 21
366.99942
 31
0.0
  0
LINE
  5
9F6E
330
9E42
100
AcDbEntity
  8
1
  6
Continuous
100
AcDbLine
 10
180.927383
 20
367.6666259999998
 30
0.0
 11
182.2008669999999
 21
367.6666259999998
 31
0.0
  0
LINE
  5
9F6F
330
9E42
100
AcDbEntity
  8
1
  6
Continuous
100
AcDbLine
 10
184.731583
 20
368.3338009999998
 30
0.0
 11
181.2684169999999
 21
368.3338009999998
 31
0.0
  0
LINE
  5
9F70
330
9E42
100
AcDbEntity
  8
1
  6
Continuous
100
AcDbLine
 10
183.0006709999999
 20
366.3335879999999
 30
0.0
 11
183.0006709999999
 21
366.99942
 31
0.0
  0
LINE
  5
9F71
330
9E42
100
AcDbEntity
  8
1
  6
Continuous
100
AcDbLine
 10
183.800491
 20
367.6666259999998
 30
0.0
 11
185.0726169999999
 21
367.6666259999998
 31
0.0
  0
LINE
  5
9F72
330
9E42
100
AcDbEntity
  8
1
  6
Continuous
100
AcDbLine
 10
184.6449739999999
 20
368.9996339999999
 30
0.0
 11
181.356384
 21
368.9996339999999
 31
0.0
  0
LINE
  5
9F73
330
9E42
100
AcDbEntity
  8
1
  6
Continuous
100
AcDbLine
 10
181.7705079999998
 20
369.66684
 30
0.0
 11
184.229492
 21
369.66684
 31
0.0
  0
LINE
  5
9F74
330
9E42
100
AcDbEntity
  8
1
  6
Continuous
100
AcDbLine
 10
184.8290249999998
 20
370.332672
 30
0.0
 11
181.9545589999999
 21
370.332672
 31
0.0
  0
LINE
  5
9F75
330
9E42
100
AcDbEntity
  8
1
  6
Continuous
100
AcDbLine
 10
185.191711
 20
363.6675419999999
 30
0.0
 11
181.018051
 21
363.6675419999999
 31
0.0
  0
LINE
  5
9F76
330
9E42
100
AcDbEntity
  8
1
  6
Continuous
100
AcDbLine
 10
181.1181949999999
 20
364.333374
 30
0.0
 11
183.0006709999999
 21
364.333374
 31
0.0
  0
LINE
  5
9F77
330
9E42
100
AcDbEntity
  8
1
  6
Continuous
100
AcDbLine
 10
185.1944119999997
 20
365.0005799999998
 30
0.0
 11
180.8055879999997
 21
365.0005799999998
 31
0.0
  0
LINE
  5
9F78
330
9E42
100
AcDbEntity
  8
1
  6
Continuous
100
AcDbLine
 10
185.325684
 20
365.6664119999998
 30
0.0
 11
180.674316
 21
365.6664119999998
 31
0.0
  0
LINE
  5
9F79
330
9E42
100
AcDbEntity
  8
1
  6
Continuous
100
AcDbLine
 10
183.0006709999999
 20
360.282867
 30
0.0
 11
183.0006709999999
 21
361.660553
 31
0.0
  0
LINE
  5
9F7A
330
9E42
100
AcDbEntity
  8
1
  6
Continuous
100
AcDbLine
 10
181.7529139999997
 20
361.994812
 30
0.0
 11
184.562408
 21
361.2410279999999
 31
0.0
  0
LINE
  5
9F7B
330
9E42
100
AcDbEntity
  8
1
  6
Continuous
100
AcDbLine
 10
183.0006709999999
 20
362.66745
 30
0.0
 11
181.401047
 21
362.66745
 31
0.0
  0
LINE
  5
9F7C
330
9E42
100
AcDbEntity
  8
1
  6
Continuous
100
AcDbLine
 10
183.333603
 20
362.33316
 30
0.0
 11
184.757294
 21
362.33316
 31
0.0
  0
LINE
  5
9F7D
330
9E42
100
AcDbEntity
  8
1
  6
Continuous
100
AcDbLine
 10
184.8777469999999
 20
363.0003659999999
 30
0.0
 11
183.333603
 21
363.0003659999999
 31
0.0
  0
LINE
  5
9F7E
330
9E42
100
AcDbEntity
  8
1
  6
Continuous
100
AcDbLine
 10
183.0006709999999
 20
364.333374
 30
0.0
 11
183.0006709999999
 21
364.6662899999999
 31
0.0
  0
LINE
  5
9F7F
330
9E42
100
AcDbEntity
  8
1
  6
Continuous
100
AcDbLine
 10
183.800491
 20
364.333374
 30
0.0
 11
184.881805
 21
364.333374
 31
0.0
  0
LINE
  5
9F80
330
9E42
100
AcDbEntity
  8
1
  6
Continuous
100
AcDbLine
 10
432.6000059999998
 20
491.0
 30
0.0
 11
432.6000059999998
 21
493.5
 31
0.0
  0
LINE
  5
9F81
330
9E42
100
AcDbEntity
  8
4
  6
CENTER
 48
0.2
100
AcDbLine
 10
453.0
 20
514.7499999999999
 30
0.0
 11
453.0
 21
526.349976
 31
0.0
  0
LINE
  5
9F82
330
9E42
100
AcDbEntity
  8
1
  6
Continuous
100
AcDbLine
 10
434.1000059999998
 20
507.0
 30
0.0
 11
433.8999939999998
 21
507.0
 31
0.0
  0
LINE
  5
9F83
330
9E42
100
AcDbEntity
  8
1
  6
Continuous
100
AcDbLine
 10
438.6000059999998
 20
374.5
 30
0.0
 11
438.6000059999998
 21
504.0
 31
0.0
  0
LINE
  5
9F84
330
9E42
100
AcDbEntity
  8
4
  6
CENTER
100
AcDbLine
 10
443.0
 20
164.0
 30
0.0
 11
443.0
 21
526.349976
 31
0.0
  0
LINE
  5
9F85
330
9E42
100
AcDbEntity
  8
1
  6
Continuous
100
AcDbLine
 10
437.0
 20
485.149994
 30
0.0
 11
437.0
 21
504.100006
 31
0.0
  0
LINE
  5
9F86
330
9E42
100
AcDbEntity
  8
4
  6
CENTER
 48
0.2
100
AcDbLine
 10
457.5039059999999
 20
494.0
 30
0.0
 11
424.3713679999998
 21
494.0
 31
0.0
  0
LINE
  5
9F87
330
9E42
100
AcDbEntity
  8
1
  6
Continuous
100
AcDbLine
 10
446.8999939999998
 20
374.5
 30
0.0
 11
446.8999939999998
 21
504.0
 31
0.0
  0
LINE
  5
9F88
330
9E42
100
AcDbEntity
  8
1
  6
Continuous
100
AcDbLine
 10
434.1000059999998
 20
504.100006
 30
0.0
 11
433.8999939999998
 21
504.100006
 31
0.0
  0
LINE
  5
9F89
330
9E42
100
AcDbEntity
  8
1
  6
Continuous
100
AcDbLine
 10
449.899994
 20
487.5
 30
0.0
 11
449.899994
 21
500.4999999999998
 31
0.0
  0
LINE
  5
9F8A
330
9E42
100
AcDbEntity
  8
1
  6
Continuous
100
AcDbLine
 10
431.0
 20
507.0
 30
0.0
 11
431.0
 21
519.0999759999998
 31
0.0
  0
LINE
  5
9F8B
330
9E42
100
AcDbEntity
  8
4
  6
CENTER
 48
0.2
100
AcDbLine
 10
438.25
 20
513.0
 30
0.0
 11
426.649994
 21
513.0
 31
0.0
  0
LINE
  5
9F8C
330
9E42
100
AcDbEntity
  8
1
  6
Continuous
100
AcDbLine
 10
461.0
 20
519.0999759999998
 30
0.0
 11
433.8999939999998
 21
519.0999759999998
 31
0.0
  0
LINE
  5
9F8D
330
9E42
100
AcDbEntity
  8
1
  6
Continuous
100
AcDbLine
 10
461.0
 20
522.0
 30
0.0
 11
433.8999939999998
 21
522.0
 31
0.0
  0
LINE
  5
9F8E
330
9E42
100
AcDbEntity
  8
1
  6
Continuous
100
AcDbLine
 10
461.0
 20
519.0999759999998
 30
0.0
 11
461.0
 21
522.0
 31
0.0
  0
LINE
  5
9F8F
330
9E42
100
AcDbEntity
  8
1
  6
Continuous
100
AcDbLine
 10
438.6000059999998
 20
502.8500059999998
 30
0.0
 11
437.0
 21
502.8500059999998
 31
0.0
  0
LINE
  5
9F90
330
9E42
100
AcDbEntity
  8
1
  6
Continuous
100
AcDbLine
 10
432.6000059999998
 20
494.5
 30
0.0
 11
433.3499759999998
 21
494.0
 31
0.0
  0
LINE
  5
9F91
330
9E42
100
AcDbEntity
  8
1
  6
Continuous
100
AcDbLine
 10
437.0
 20
486.0
 30
0.0
 11
434.1000059999998
 21
486.0
 31
0.0
  0
LINE
  5
9F92
330
9E42
100
AcDbEntity
  8
1
  6
Continuous
100
AcDbLine
 10
432.6000059999998
 20
494.5
 30
0.0
 11
432.6000059999998
 21
497.0
 31
0.0
  0
LINE
  5
9F93
330
9E42
100
AcDbEntity
  8
1
  6
Continuous
100
AcDbLine
 10
434.1000059999998
 20
486.0
 30
0.0
 11
434.1000059999998
 21
504.100006
 31
0.0
  0
LINE
  5
9F94
330
9E42
100
AcDbEntity
  8
1
  6
Continuous
100
AcDbLine
 10
448.899994
 20
486.5
 30
0.0
 11
448.899994
 21
501.4999999999998
 31
0.0
  0
LINE
  5
9F95
330
9E42
100
AcDbEntity
  8
1
  6
Continuous
100
AcDbLine
 10
438.6000059999998
 20
485.149994
 30
0.0
 11
437.0
 21
485.149994
 31
0.0
  0
LINE
  5
9F96
330
9E42
100
AcDbEntity
  8
1
  6
Continuous
100
AcDbLine
 10
448.899994
 20
501.4999999999998
 30
0.0
 11
446.8999939999998
 21
501.4999999999998
 31
0.0
  0
LINE
  5
9F97
330
9E42
100
AcDbEntity
  8
1
  6
Continuous
100
AcDbLine
 10
448.899994
 20
486.5
 30
0.0
 11
446.8999939999998
 21
486.5
 31
0.0
  0
LINE
  5
9F98
330
9E42
100
AcDbEntity
  8
1
  6
Continuous
100
AcDbLine
 10
449.899994
 20
500.4999999999998
 30
0.0
 11
448.900024
 21
501.4999999999998
 31
0.0
  0
LINE
  5
9F99
330
9E42
100
AcDbEntity
  8
1
  6
Continuous
100
AcDbLine
 10
438.6000059999998
 20
504.0
 30
0.0
 11
446.8999939999998
 21
504.0
 31
0.0
  0
LINE
  5
9F9A
330
9E42
100
AcDbEntity
  8
1
  6
Continuous
100
AcDbLine
 10
449.9000239999999
 20
487.5
 30
0.0
 11
448.899994
 21
486.5
 31
0.0
  0
LINE
  5
9F9B
330
9E42
100
AcDbEntity
  8
1
  6
Continuous
100
AcDbLine
 10
434.1000059999998
 20
497.0
 30
0.0
 11
432.6000059999998
 21
497.0
 31
0.0
  0
LINE
  5
9F9C
330
9E42
100
AcDbEntity
  8
1
  6
Continuous
100
AcDbLine
 10
434.1000059999998
 20
491.0
 30
0.0
 11
432.6000059999998
 21
491.0
 31
0.0
  0
LINE
  5
9F9D
330
9E42
100
AcDbEntity
  8
1
  6
Continuous
100
AcDbLine
 10
433.3500059999998
 20
494.0
 30
0.0
 11
432.6000059999998
 21
493.5
 31
0.0
  0
LINE
  5
9F9E
330
9E42
100
AcDbEntity
  8
1
  6
Continuous
100
AcDbLine
 10
433.8999939999998
 20
507.0
 30
0.0
 11
433.8999939999998
 21
519.0999759999998
 31
0.0
  0
LINE
  5
9F9F
330
9E42
100
AcDbEntity
  8
1
  6
Continuous
100
AcDbLine
 10
440.200012
 20
374.5
 30
0.0
 11
440.200012
 21
504.0
 31
0.0
  0
LINE
  5
9FA0
330
9E42
100
AcDbEntity
  8
1
  6
Continuous
100
AcDbLine
 10
445.299988
 20
374.5
 30
0.0
 11
445.299988
 21
504.0
 31
0.0
  0
LINE
  5
9FA1
330
9E42
100
AcDbEntity
  8
4
  6
CENTER
 48
0.2
100
AcDbLine
 10
35.0
 20
348.600006
 30
0.0
 11
70.0
 21
348.600006
 31
0.0
  0
LINE
  5
9FA2
330
9E42
100
AcDbEntity
  8
4
  6
CENTER
 48
0.2
100
AcDbLine
 10
295.5
 20
348.600006
 30
0.0
 11
330.5
 21
348.600006
 31
0.0
  0
LINE
  5
9FA3
330
9E42
100
AcDbEntity
  8
4
  6
CENTER
 48
0.2
100
AcDbLine
 10
432.0
 20
348.600006
 30
0.0
 11
454.0
 21
348.600006
 31
0.0
  0
LINE
  5
9FA4
330
9E42
100
AcDbEntity
  8
1
  6
Continuous
100
AcDbLine
 10
191.8999939999999
 20
84.0
 30
0.0
 11
191.8999939999999
 21
77.0
 31
0.0
  0
LINE
  5
9FA5
330
9E42
100
AcDbEntity
  8
1
  6
Continuous
100
AcDbLine
 10
191.8999939999999
 20
56.481323
 30
0.0
 11
191.8999939999999
 21
54.0
 31
0.0
  0
ARC
  5
9FA6
330
9E42
100
AcDbEntity
  8
1
  6
Continuous
100
AcDbCircle
 10
184.4999999999997
 20
329.0
 30
0.0
 40
1.0
100
AcDbArc
 50
269.9999969999999
 51
0.0
  0
ARC
  5
9FA7
330
9E42
100
AcDbEntity
  8
1
  6
Continuous
100
AcDbCircle
 10
181.0
 20
329.0
 30
0.0
 40
1.0
100
AcDbArc
 50
179.9999909999999
 51
270.000001
  0
ARC
  5
9FA8
330
9E42
100
AcDbEntity
  8
1
  6
Continuous
100
AcDbCircle
 10
184.4999999999997
 20
355.0
 30
0.0
 40
1.0
100
AcDbArc
 50
0.0
 51
90.00000300000001
  0
ARC
  5
9FA9
330
9E42
100
AcDbEntity
  8
1
  6
Continuous
100
AcDbCircle
 10
181.0
 20
355.0
 30
0.0
 40
1.0
100
AcDbArc
 50
90.00000300000001
 51
180.000005
  0
ARC
  5
9FAA
330
9E42
100
AcDbEntity
  8
1
  6
Continuous
100
AcDbCircle
 10
174.699997
 20
175.0
 30
0.0
 40
2.649999999999999
100
AcDbArc
 50
105.3165099999999
 51
349.124272
  0
ARC
  5
9FAB
330
9E42
100
AcDbEntity
  8
1
  6
Continuous
100
AcDbCircle
 10
174.699997
 20
193.0
 30
0.0
 40
2.649999999999999
100
AcDbArc
 50
29.78165699999999
 51
254.683493
  0
ARC
  5
9FAC
330
9E42
100
AcDbEntity
  8
1
  6
Continuous
100
AcDbCircle
 10
191.8999939999999
 20
504.100006
 30
0.0
 40
2.9
100
AcDbArc
 50
90.00000300000001
 51
180.000005
  0
CIRCLE
  5
9FAD
330
9E42
100
AcDbEntity
  8
1
  6
Continuous
100
AcDbCircle
 10
53.0
 20
184.0
 30
0.0
 40
7.5
  0
CIRCLE
  5
9FAE
330
9E42
100
AcDbEntity
  8
1
  6
Continuous
100
AcDbCircle
 10
53.0
 20
184.0
 30
0.0
 40
6.5
  0
ARC
  5
9FAF
330
9E42
100
AcDbEntity
  8
1
  6
Continuous
100
AcDbCircle
 10
46.0
 20
184.0
 30
0.0
 40
15.0
100
AcDbArc
 50
269.9999969999999
 51
320.703521
  0
CIRCLE
  5
9FB0
330
9E42
100
AcDbEntity
  8
1
  6
Continuous
100
AcDbCircle
 10
34.0
 20
175.0
 30
0.0
 40
2.649999999999999
  0
CIRCLE
  5
9FB1
330
9E42
100
AcDbEntity
  8
1
  6
Continuous
100
AcDbCircle
 10
34.0
 20
193.0
 30
0.0
 40
2.649999999999999
  0
ARC
  5
9FB2
330
9E42
100
AcDbEntity
  8
1
  6
Continuous
100
AcDbCircle
 10
53.0
 20
501.0
 30
0.0
 40
15.0
100
AcDbArc
 50
314.427004
 51
0.0
  0
ARC
  5
9FB3
330
9E42
100
AcDbEntity
  8
1
  6
Continuous
100
AcDbCircle
 10
53.0
 20
501.0
 30
0.0
 40
15.0
100
AcDbArc
 50
180.000005
 51
225.5729939999999
  0
CIRCLE
  5
9FB4
330
9E42
100
AcDbEntity
  8
1
  6
Continuous
100
AcDbCircle
 10
53.0
 20
494.0
 30
0.0
 40
6.5
  0
CIRCLE
  5
9FB5
330
9E42
100
AcDbEntity
  8
1
  6
Continuous
100
AcDbCircle
 10
53.0
 20
494.0
 30
0.0
 40
7.5
  0
CIRCLE
  5
9FB6
330
9E42
100
AcDbEntity
  8
1
  6
Continuous
100
AcDbCircle
 10
44.0
 20
513.0
 30
0.0
 40
2.649999999999999
  0
CIRCLE
  5
9FB7
330
9E42
100
AcDbEntity
  8
1
  6
Continuous
100
AcDbCircle
 10
62.0
 20
513.0
 30
0.0
 40
2.649999999999999
  0
ARC
  5
9FB8
330
9E42
100
AcDbEntity
  8
1
  6
Continuous
100
AcDbCircle
 10
320.0
 20
184.0
 30
0.0
 40
15.0
100
AcDbArc
 50
90.00000300000001
 51
270.000001
  0
CIRCLE
  5
9FB9
330
9E42
100
AcDbEntity
  8
1
  6
Continuous
100
AcDbCircle
 10
332.0
 20
193.0
 30
0.0
 40
2.649999999999999
  0
CIRCLE
  5
9FBA
330
9E42
100
AcDbEntity
  8
1
  6
Continuous
100
AcDbCircle
 10
332.0
 20
175.0
 30
0.0
 40
2.649999999999999
  0
ARC
  5
9FBB
330
9E42
100
AcDbEntity
  8
1
  6
Continuous
100
AcDbCircle
 10
300.4999999999999
 20
338.5
 30
0.0
 40
1.5
100
AcDbArc
 50
164.173378
 51
270.000001
  0
ARC
  5
9FBC
330
9E42
100
AcDbEntity
  8
1
  6
Continuous
100
AcDbCircle
 10
192.100006
 20
507.0
 30
0.0
 40
2.9
100
AcDbArc
 50
269.9999969999999
 51
0.0
  0
ARC
  5
9FBD
330
9E42
100
AcDbEntity
  8
1
  6
Continuous
100
AcDbCircle
 10
192.100006
 20
519.0999759999998
 30
0.0
 40
2.9
100
AcDbArc
 50
0.0
 51
90.00000300000001
  0
CIRCLE
  5
9FBE
330
9E42
100
AcDbEntity
  8
1
  6
Continuous
100
AcDbCircle
 10
313.0
 20
184.0
 30
0.0
 40
3.0
  0
CIRCLE
  5
9FBF
330
9E42
100
AcDbEntity
  8
1
  6
Continuous
100
AcDbCircle
 10
313.0
 20
184.0
 30
0.0
 40
3.25
  0
CIRCLE
  5
9FC0
330
9E42
100
AcDbEntity
  8
1
  6
Continuous
100
AcDbCircle
 10
313.0
 20
494.0
 30
0.0
 40
3.0
  0
CIRCLE
  5
9FC1
330
9E42
100
AcDbEntity
  8
1
  6
Continuous
100
AcDbCircle
 10
313.0
 20
494.0
 30
0.0
 40
3.25
  0
ARC
  5
9FC2
330
9E42
100
AcDbEntity
  8
1
  6
Continuous
100
AcDbCircle
 10
313.0
 20
501.0
 30
0.0
 40
15.0
100
AcDbArc
 50
180.000005
 51
0.00001
  0
CIRCLE
  5
9FC3
330
9E42
100
AcDbEntity
  8
1
  6
Continuous
100
AcDbCircle
 10
304.0
 20
513.0
 30
0.0
 40
2.649999999999999
  0
CIRCLE
  5
9FC4
330
9E42
100
AcDbEntity
  8
1
  6
Continuous
100
AcDbCircle
 10
322.0
 20
513.0
 30
0.0
 40
2.649999999999999
  0
CIRCLE
  5
9FC5
330
9E42
100
AcDbEntity
  8
1
  6
Continuous
100
AcDbCircle
 10
173.0
 20
595.0
 30
0.0
 40
2.649999999999999
  0
CIRCLE
  5
9FC6
330
9E42
100
AcDbEntity
  8
1
  6
Continuous
100
AcDbCircle
 10
173.0
 20
613.0
 30
0.0
 40
2.649999999999999
  0
ARC
  5
9FC7
330
9E42
100
AcDbEntity
  8
1
  6
Continuous
100
AcDbCircle
 10
193.8000029999997
 20
617.0
 30
0.0
 40
2.9
100
AcDbArc
 50
294.4433319999999
 51
0.0
  0
ARC
  5
9FC8
330
9E42
100
AcDbEntity
  8
1
  6
Continuous
100
AcDbCircle
 10
193.8000029999997
 20
629.099976
 30
0.0
 40
2.9
100
AcDbArc
 50
0.0
 51
90.00000300000001
  0
ARC
  5
9FC9
330
9E42
100
AcDbEntity
  8
1
  6
Continuous
100
AcDbCircle
 10
193.5999999999999
 20
58.9
 30
0.0
 40
2.9
100
AcDbArc
 50
180.000005
 51
270.000001
  0
ARC
  5
9FCA
330
9E42
100
AcDbEntity
  8
1
  6
Continuous
100
AcDbCircle
 10
193.8000029999997
 20
56.0
 30
0.0
 40
2.9
100
AcDbArc
 50
0.0
 51
90.00000300000001
  0
ARC
  5
9FCB
330
9E42
100
AcDbEntity
  8
1
  6
Continuous
100
AcDbCircle
 10
193.8000029999997
 20
43.900002
 30
0.0
 40
2.9
100
AcDbArc
 50
269.9999969999999
 51
0.0
  0
ARC
  5
9FCC
330
9E42
100
AcDbEntity
  8
1
  6
Continuous
100
AcDbCircle
 10
173.0
 20
60.0
 30
0.0
 40
2.649999999999999
100
AcDbArc
 50
71.291425
 51
34.474379
  0
ARC
  5
9FCD
330
9E42
100
AcDbEntity
  8
1
  6
Continuous
100
AcDbCircle
 10
173.0
 20
78.0
 30
0.0
 40
2.649999999999999
100
AcDbArc
 50
325.525614
 51
288.7085719999999
  0
ARC
  5
9FCE
330
9E42
100
AcDbEntity
  8
1
  6
Continuous
100
AcDbCircle
 10
187.399994
 20
58.09999799999999
 30
0.0
 40
1.6
100
AcDbArc
 50
269.9999969999999
 51
0.0
  0
ARC
  5
9FCF
330
9E42
100
AcDbEntity
  8
1
  6
Continuous
100
AcDbCircle
 10
178.600006
 20
58.09999799999999
 30
0.0
 40
1.6
100
AcDbArc
 50
179.9999909999999
 51
270.000001
  0
ARC
  5
9FD0
330
9E42
100
AcDbEntity
  8
1
  6
Continuous
100
AcDbCircle
 10
187.399994
 20
79.900002
 30
0.0
 40
1.6
100
AcDbArc
 50
0.0
 51
90.00000300000001
  0
ARC
  5
9FD1
330
9E42
100
AcDbEntity
  8
1
  6
Continuous
100
AcDbCircle
 10
178.600006
 20
79.900002
 30
0.0
 40
1.6
100
AcDbArc
 50
90.00000300000001
 51
180.000005
  0
ARC
  5
9FD2
330
9E42
100
AcDbEntity
  8
1
  6
Continuous
100
AcDbCircle
 10
185.300003
 20
77.900002
 30
0.0
 40
1.6
100
AcDbArc
 50
0.0
 51
90.00000300000001
  0
ARC
  5
9FD3
330
9E42
100
AcDbEntity
  8
1
  6
Continuous
100
AcDbCircle
 10
180.1999969999999
 20
77.900002
 30
0.0
 40
1.6
100
AcDbArc
 50
90.00000300000001
 51
180.000005
  0
ARC
  5
9FD4
330
9E42
100
AcDbEntity
  8
1
  6
Continuous
100
AcDbCircle
 10
196.3999939999999
 20
69.0
 30
0.0
 40
12.0
100
AcDbArc
 50
199.471225
 51
202.33164
  0
ARC
  5
9FD5
330
9E42
100
AcDbEntity
  8
1
  6
Continuous
100
AcDbCircle
 10
196.3999939999999
 20
69.0
 30
0.0
 40
12.09999999999999
100
AcDbArc
 50
199.303899
 51
203.4575279999998
  0
ARC
  5
9FD6
330
9E42
100
AcDbEntity
  8
1
  6
Continuous
100
AcDbCircle
 10
196.3999939999999
 20
69.0
 30
0.0
 40
12.09999999999999
100
AcDbArc
 50
156.542472
 51
160.696101
  0
ARC
  5
9FD7
330
9E42
100
AcDbEntity
  8
1
  6
Continuous
100
AcDbCircle
 10
196.3999939999999
 20
69.0
 30
0.0
 40
12.0
100
AcDbArc
 50
157.66836
 51
160.528775
  0
ARC
  5
9FD8
330
9E42
100
AcDbEntity
  8
1
  6
Continuous
100
AcDbCircle
 10
173.1999969999999
 20
347.0
 30
0.0
 40
12.0
100
AcDbArc
 50
337.6683549999999
 51
22.331645
  0
ARC
  5
9FD9
330
9E42
100
AcDbEntity
  8
1
  6
Continuous
100
AcDbCircle
 10
173.1999969999999
 20
347.0
 30
0.0
 40
12.09999999999999
100
AcDbArc
 50
336.5424669999999
 51
23.45753299999999
  0
CIRCLE
  5
9FDA
330
9E42
100
AcDbEntity
  8
1
  6
Continuous
100
AcDbCircle
 10
451.2999879999998
 20
193.0
 30
0.0
 40
2.649999999999999
  0
CIRCLE
  5
9FDB
330
9E42
100
AcDbEntity
  8
1
  6
Continuous
100
AcDbCircle
 10
451.2999879999998
 20
175.0
 30
0.0
 40
2.649999999999999
  0
ARC
  5
9FDC
330
9E42
100
AcDbEntity
  8
5
  6
PHANTOM
 48
0.1
100
AcDbCircle
 10
183.800003
 20
355.5
 30
0.0
 40
0.5
100
AcDbArc
 50
0.0
 51
90.00000300000001
  0
ARC
  5
9FDD
330
9E42
100
AcDbEntity
  8
5
  6
PHANTOM
 48
0.1
100
AcDbCircle
 10
180.800003
 20
355.450012
 30
0.0
 40
0.5
100
AcDbArc
 50
324.9031989999998
 51
180.000005
  0
ARC
  5
9FDE
330
9E42
100
AcDbEntity
  8
5
  6
PHANTOM
 48
0.1
100
AcDbCircle
 10
185.300003
 20
352.2877199999999
 30
0.0
 40
5.0
100
AcDbArc
 50
144.9032009999999
 51
180.000005
  0
ARC
  5
9FDF
330
9E42
100
AcDbEntity
  8
5
  6
PHANTOM
 48
0.1
100
AcDbCircle
 10
180.800003
 20
341.700012
 30
0.0
 40
0.5
100
AcDbArc
 50
179.9999909999999
 51
35.0968
  0
ARC
  5
9FE0
330
9E42
100
AcDbEntity
  8
5
  6
PHANTOM
 48
0.1
100
AcDbCircle
 10
183.800003
 20
341.700012
 30
0.0
 40
0.5
100
AcDbArc
 50
269.9999969999999
 51
0.0
  0
ARC
  5
9FE1
330
9E42
100
AcDbEntity
  8
5
  6
PHANTOM
 48
0.1
100
AcDbCircle
 10
185.300003
 20
344.862274
 30
0.0
 40
5.0
100
AcDbArc
 50
179.9999909999999
 51
215.096795
  0
ARC
  5
9FE2
330
9E42
100
AcDbEntity
  8
5
  6
PHANTOM
 48
0.1
100
AcDbCircle
 10
298.4999999999999
 20
342.700012
 30
0.0
 40
1.5
100
AcDbArc
 50
190.9912309999999
 51
269.9999969999999
  0
ARC
  5
9FE3
330
9E42
100
AcDbEntity
  8
5
  6
PHANTOM
 48
0.1
100
AcDbCircle
 10
298.4999999999999
 20
354.4999999999998
 30
0.0
 40
1.5
100
AcDbArc
 50
90.00000300000001
 51
169.008769
  0
ARC
  5
9FE4
330
9E42
100
AcDbEntity
  8
5
  6
PHANTOM
 48
0.1
100
AcDbCircle
 10
299.0
 20
348.600006
 30
0.0
 40
1.0
100
AcDbArc
 50
299.2945559999999
 51
60.70544399999999
  0
ARC
  5
9FE5
330
9E42
100
AcDbEntity
  8
5
  6
PHANTOM
 48
0.1
100
AcDbCircle
 10
301.935791
 20
343.36731
 30
0.0
 40
5.0
100
AcDbArc
 50
119.2945539999999
 51
190.991227
  0
ARC
  5
9FE6
330
9E42
100
AcDbEntity
  8
5
  6
PHANTOM
 48
0.1
100
AcDbCircle
 10
301.935791
 20
353.832703
 30
0.0
 40
5.0
100
AcDbArc
 50
169.008769
 51
240.705456
  0
ARC
  5
9FE7
330
9E42
100
AcDbEntity
  8
1
  6
Continuous
100
AcDbCircle
 10
65.5
 20
338.5
 30
0.0
 40
1.5
100
AcDbArc
 50
269.9999969999999
 51
15.826621
  0
ARC
  5
9FE8
330
9E42
100
AcDbEntity
  8
5
  6
PHANTOM
 48
0.1
100
AcDbCircle
 10
67.5
 20
342.700012
 30
0.0
 40
1.5
100
AcDbArc
 50
269.9999969999999
 51
349.008775
  0
ARC
  5
9FE9
330
9E42
100
AcDbEntity
  8
5
  6
PHANTOM
 48
0.1
100
AcDbCircle
 10
67.5
 20
354.4999999999998
 30
0.0
 40
1.5
100
AcDbArc
 50
10.991225
 51
90.00000300000001
  0
ARC
  5
9FEA
330
9E42
100
AcDbEntity
  8
5
  6
PHANTOM
 48
0.1
100
AcDbCircle
 10
64.064201
 20
343.36731
 30
0.0
 40
5.0
100
AcDbArc
 50
349.008775
 51
60.70544399999999
  0
ARC
  5
9FEB
330
9E42
100
AcDbEntity
  8
5
  6
PHANTOM
 48
0.1
100
AcDbCircle
 10
67.0
 20
348.600006
 30
0.0
 40
1.0
100
AcDbArc
 50
119.2945539999999
 51
240.705456
  0
ARC
  5
9FEC
330
9E42
100
AcDbEntity
  8
5
  6
PHANTOM
 48
0.1
100
AcDbCircle
 10
64.064201
 20
353.832703
 30
0.0
 40
5.0
100
AcDbArc
 50
299.2945559999999
 51
10.991225
  0
ARC
  5
9FED
330
9E42
100
AcDbEntity
  8
1
  6
Continuous
100
AcDbCircle
 10
188.5993799999999
 20
366.000671
 30
0.0
 40
7.932788
100
AcDbArc
 50
153.986
 51
157.0559929999998
  0
ARC
  5
9FEE
330
9E42
100
AcDbEntity
  8
1
  6
Continuous
100
AcDbCircle
 10
181.356384
 20
369.0659479999998
 30
0.0
 40
0.066678
100
AcDbArc
 50
157.0559929999998
 51
270.000001
  0
ARC
  5
9FEF
330
9E42
100
AcDbEntity
  8
1
  6
Continuous
100
AcDbCircle
 10
180.927383
 20
367.732941
 30
0.0
 40
0.066678
100
AcDbArc
 50
167.2709909999998
 51
270.000001
  0
ARC
  5
9FF0
330
9E42
100
AcDbEntity
  8
1
  6
Continuous
100
AcDbCircle
 10
188.5993799999999
 20
366.000671
 30
0.0
 40
7.932788
100
AcDbArc
 50
164.7939959999999
 51
167.2709909999998
  0
ARC
  5
9FF1
330
9E42
100
AcDbEntity
  8
1
  6
Continuous
100
AcDbCircle
 10
188.5993799999999
 20
366.000671
 30
0.0
 40
7.932788
100
AcDbArc
 50
164.7419909999999
 51
164.7939959999999
  0
ARC
  5
9FF2
330
9E42
100
AcDbEntity
  8
1
  6
Continuous
100
AcDbCircle
 10
181.2684169999999
 20
367.999542
 30
0.0
 40
0.333392
100
AcDbArc
 50
90.00000300000001
 51
164.7419909999999
  0
ARC
  5
9FF3
330
9E42
100
AcDbEntity
  8
1
  6
Continuous
100
AcDbCircle
 10
184.731583
 20
367.999542
 30
0.0
 40
0.333392
100
AcDbArc
 50
15.25749699999999
 51
90.00000300000001
  0
ARC
  5
9FF4
330
9E42
100
AcDbEntity
  8
1
  6
Continuous
100
AcDbCircle
 10
177.40062
 20
366.000671
 30
0.0
 40
7.932788
100
AcDbArc
 50
13.26810299999998
 51
15.25749699999999
  0
ARC
  5
9FF5
330
9E42
100
AcDbEntity
  8
1
  6
Continuous
100
AcDbCircle
 10
177.40062
 20
366.000671
 30
0.0
 40
7.932788
100
AcDbArc
 50
12.7289
 51
13.26810299999998
  0
ARC
  5
9FF6
330
9E42
100
AcDbEntity
  8
1
  6
Continuous
100
AcDbCircle
 10
185.0726169999999
 20
367.732941
 30
0.0
 40
0.066678
100
AcDbArc
 50
269.9999969999999
 51
12.7289
  0
ARC
  5
9FF7
330
9E42
100
AcDbEntity
  8
1
  6
Continuous
100
AcDbCircle
 10
181.7705079999998
 20
369.33255
 30
0.0
 40
0.333392
100
AcDbArc
 50
90.00000300000001
 51
153.986
  0
ARC
  5
9FF8
330
9E42
100
AcDbEntity
  8
1
  6
Continuous
100
AcDbCircle
 10
184.6449739999999
 20
369.0659479999998
 30
0.0
 40
0.066678
100
AcDbArc
 50
269.9999969999999
 51
22.94399999999999
  0
ARC
  5
9FF9
330
9E42
100
AcDbEntity
  8
1
  6
Continuous
100
AcDbCircle
 10
177.40062
 20
366.000671
 30
0.0
 40
7.932788
100
AcDbArc
 50
22.94399999999999
 51
26.01439599999999
  0
ARC
  5
9FFA
330
9E42
100
AcDbEntity
  8
1
  6
Continuous
100
AcDbCircle
 10
184.229492
 20
369.33255
 30
0.0
 40
0.333392
100
AcDbArc
 50
26.01439599999999
 51
90.00000300000001
  0
ARC
  5
9FFB
330
9E42
100
AcDbEntity
  8
1
  6
Continuous
100
AcDbCircle
 10
183.0006709999999
 20
369.9997559999998
 30
0.0
 40
1.717978999999997
100
AcDbArc
 50
90.00000300000001
 51
144.4620119999999
  0
ARC
  5
9FFC
330
9E42
100
AcDbEntity
  8
1
  6
Continuous
100
AcDbCircle
 10
183.0006709999999
 20
369.9997559999998
 30
0.0
 40
1.717978999999997
100
AcDbArc
 50
35.537703
 51
76.53739899999997
  0
ARC
  5
9FFD
330
9E42
100
AcDbEntity
  8
1
  6
Continuous
100
AcDbCircle
 10
188.5993799999999
 20
366.000671
 30
0.0
 40
7.932788
100
AcDbArc
 50
187.792995
 51
190.104003
  0
ARC
  5
9FFE
330
9E42
100
AcDbEntity
  8
1
  6
Continuous
100
AcDbCircle
 10
180.8055879999997
 20
364.9328919999998
 30
0.0
 40
0.066678
100
AcDbArc
 50
90.00000300000001
 51
187.7930049999999
  0
ARC
  5
9FFF
330
9E42
100
AcDbEntity
  8
1
  6
Continuous
100
AcDbCircle
 10
181.1181949999999
 20
364.6662899999999
 30
0.0
 40
0.333392
100
AcDbArc
 50
190.104003
 51
269.9999969999999
  0
ARC
  5
A000
330
9E42
100
AcDbEntity
  8
1
  6
Continuous
100
AcDbCircle
 10
185.1944119999997
 20
364.9328919999998
 30
0.0
 40
0.066678
100
AcDbArc
 50
352.207003
 51
90.00000300000001
  0
ARC
  5
A001
330
9E42
100
AcDbEntity
  8
1
  6
Continuous
100
AcDbCircle
 10
177.40062
 20
366.000671
 30
0.0
 40
7.932788
100
AcDbArc
 50
349.8960009999998
 51
352.207003
  0
ARC
  5
A002
330
9E42
100
AcDbEntity
  8
1
  6
Continuous
100
AcDbCircle
 10
184.881805
 20
364.6662899999999
 30
0.0
 40
0.333392
100
AcDbArc
 50
269.9999969999999
 51
349.8960009999998
  0
ARC
  5
A003
330
9E42
100
AcDbEntity
  8
1
  6
Continuous
100
AcDbCircle
 10
183.0006709999999
 20
362.000244
 30
0.0
 40
1.717978999999997
100
AcDbArc
 50
215.5380019999999
 51
225.6990009999999
  0
ARC
  5
A004
330
9E42
100
AcDbEntity
  8
1
  6
Continuous
100
AcDbCircle
 10
183.0006709999999
 20
362.000244
 30
0.0
 40
1.717978999999997
100
AcDbArc
 50
242.2499979999999
 51
324.4619999999998
  0
ARC
  5
A005
330
9E42
100
AcDbEntity
  8
1
  6
Continuous
100
AcDbCircle
 10
183.333603
 20
362.66745
 30
0.0
 40
0.333392
100
AcDbArc
 50
90.00000300000001
 51
270.000001
  0
ARC
  5
A006
330
9E42
100
AcDbEntity
  8
1
  6
Continuous
100
AcDbCircle
 10
177.40062
 20
366.000671
 30
0.0
 40
8.599396
100
AcDbArc
 50
324.4619999999998
 51
35.537703
  0
ARC
  5
A007
330
9E42
100
AcDbEntity
  8
1
  6
Continuous
100
AcDbCircle
 10
188.5993799999999
 20
366.000671
 30
0.0
 40
8.599396
100
AcDbArc
 50
144.461998
 51
215.5379979999999
  0
ARC
  5
A008
330
9E42
100
AcDbEntity
  8
1
  6
Continuous
100
AcDbCircle
 10
434.1000059999998
 20
504.100006
 30
0.0
 40
2.9
100
AcDbArc
 50
0.0
 51
90.00000300000001
  0
ARC
  5
A009
330
9E42
100
AcDbEntity
  8
1
  6
Continuous
100
AcDbCircle
 10
433.8999939999998
 20
507.0
 30
0.0
 40
2.9
100
AcDbArc
 50
179.9999909999999
 51
270.000001
  0
ARC
  5
A00A
330
9E42
100
AcDbEntity
  8
1
  6
Continuous
100
AcDbCircle
 10
433.8999939999998
 20
519.0999759999998
 30
0.0
 40
2.9
100
AcDbArc
 50
90.00000300000001
 51
180.000005
  0
ARC
  5
A00B
330
9E42
100
AcDbEntity
  8
1
  6
Continuous
100
AcDbCircle
 10
44.24999999999999
 20
368.5
 30
0.0
 40
4.25
100
AcDbArc
 50
151.9275179999999
 51
208.0724919999999
  0
ARC
  5
A00C
330
9E42
100
AcDbEntity
  8
1
  6
Continuous
100
AcDbCircle
 10
44.24999999999999
 20
358.4999999999998
 30
0.0
 40
4.25
100
AcDbArc
 50
151.9275179999999
 51
208.0724919999999
  0
ARC
  5
A00D
330
9E42
100
AcDbEntity
  8
1
  6
Continuous
100
AcDbCircle
 10
321.75
 20
368.5
 30
0.0
 40
4.25
100
AcDbArc
 50
331.9275129999998
 51
28.072487
  0
ARC
  5
A00E
330
9E42
100
AcDbEntity
  8
1
  6
Continuous
100
AcDbCircle
 10
321.75
 20
358.4999999999998
 30
0.0
 40
4.25
100
AcDbArc
 50
331.9275129999998
 51
28.072487
  0
CIRCLE
  5
A00F
330
9E42
100
AcDbEntity
  8
1
  6
Continuous
100
AcDbCircle
 10
443.0
 20
368.5
 30
0.0
 40
2.0
  0
CIRCLE
  5
A010
330
9E42
100
AcDbEntity
  8
1
  6
Continuous
100
AcDbCircle
 10
443.0
 20
358.4999999999998
 30
0.0
 40
2.0
  0
ARC
  5
A011
330
9E42
100
AcDbEntity
  8
1
  6
Continuous
100
AcDbCircle
 10
313.0
 20
494.0
 30
0.0
 40
8.849999999999997
100
AcDbArc
 50
232.032294
 51
307.9677109999999
  0
TEXT
  5
A012
330
9E42
100
AcDbEntity
  8
6
  6
Continuous
100
AcDbText
 10
27.97945
 20
10.0487
 30
0.0
 40
1.399999999999999
  1
6
 41
1.069393
100
AcDbText
  0
TEXT
  5
A013
330
9E42
100
AcDbEntity
  8
1
  6
Continuous
100
AcDbText
 10
17.97945
 20
10.0487
 30
0.0
 40
1.399999999999999
  1
1
 41
1.069393
100
AcDbText
  0
TEXT
  5
A014
330
9E42
100
AcDbEntity
  8
1
  6
Continuous
100
AcDbText
 10
9.99995
 20
10.0
 30
0.0
 40
1.399999999999999
  1
LAYER
 41
1.009912999999996
100
AcDbText
  0
TEXT
  5
A015
330
9E42
100
AcDbEntity
  8
2
  6
Continuous
100
AcDbText
 10
19.97944999999998
 20
10.0487
 30
0.0
 40
1.399999999999999
  1
2
 41
1.069393
100
AcDbText
  0
TEXT
  5
A016
330
9E42
100
AcDbEntity
  8
3
  6
DASHED
100
AcDbText
 10
21.97945
 20
10.0487
 30
0.0
 40
1.399999999999999
  1
3
 41
1.069393
100
AcDbText
  0
TEXT
  5
A017
330
9E42
100
AcDbEntity
  8
4
  6
CENTER
100
AcDbText
 10
23.97944999999999
 20
10.0487
 30
0.0
 40
1.399999999999999
  1
4
 41
1.069393
100
AcDbText
  0
TEXT
  5
A018
330
9E42
100
AcDbEntity
  8
5
  6
PHANTOM
100
AcDbText
 10
25.97945
 20
10.0487
 30
0.0
 40
1.399999999999999
  1
5
 41
1.069393
100
AcDbText
  0
TEXT
  5
A019
330
9E42
100
AcDbEntity
  8
7
  6
Continuous
100
AcDbText
 10
10.00005
 20
26.0
 30
0.0
 40
3.0
  1
CODE No.5128
 41
1.003962999999999
100
AcDbText
  0
TEXT
  5
A01A
330
9E42
100
AcDbEntity
  8
7
  6
Continuous
100
AcDbText
 10
10.00005
 20
18.0
 30
0.0
 40
3.0
  1
TYPE No.TM-70A-1L
 41
1.002774
100
AcDbText
  0
TEXT
  5
A01B
330
9E42
100
AcDbEntity
  8
7
  6
Continuous
100
AcDbText
 10
29.97944999999999
 20
10.0487
 30
0.0
 40
1.399999999999999
  1
7
 41
1.069393
100
AcDbText
  0
LINE
  5
A01C
330
9E42
100
AcDbEntity
  8
1
  6
Continuous
100
AcDbLine
 10
27.899994
 20
187.0
 30
0.0
 11
33.000006
 21
187.0
 31
0.0
  0
LINE
  5
A01D
330
9E42
100
AcDbEntity
  8
1
  6
Continuous
100
AcDbLine
 10
27.899994
 20
181.0
 30
0.0
 11
33.000006
 21
181.0
 31
0.0
  0
LINE
  5
A01E
330
9E42
100
AcDbEntity
  8
1
  6
Continuous
100
AcDbLine
 10
28.999994
 20
182.0
 30
0.0
 11
28.999994
 21
186.0
 31
0.0
  0
LINE
  5
A01F
330
9E42
100
AcDbEntity
  8
1
  6
Continuous
100
AcDbLine
 10
56.0
 20
514.000024
 30
0.0
 11
56.0
 21
519.0999759999998
 31
0.0
  0
LINE
  5
A020
330
9E42
100
AcDbEntity
  8
1
  6
Continuous
100
AcDbLine
 10
50.0
 20
514.000024
 30
0.0
 11
50.0
 21
519.0999759999998
 31
0.0
  0
LINE
  5
A021
330
9E42
100
AcDbEntity
  8
1
  6
Continuous
100
AcDbLine
 10
55.0
 20
517.9999759999998
 30
0.0
 11
51.0
 21
517.9999759999998
 31
0.0
  0
LINE
  5
A022
330
9E42
100
AcDbEntity
  8
1
  6
Continuous
100
AcDbLine
 10
339.9
 20
182.0
 30
0.0
 11
339.9
 21
186.0
 31
0.0
  0
LINE
  5
A023
330
9E42
100
AcDbEntity
  8
1
  6
Continuous
100
AcDbLine
 10
311.0
 20
520.8999999999998
 30
0.0
 11
315.0
 21
520.8999999999998
 31
0.0
  0
LINE
  5
A024
330
9E42
100
AcDbEntity
  8
1
  6
Continuous
100
AcDbLine
 10
193.9
 20
602.0
 30
0.0
 11
193.9
 21
606.0
 31
0.0
  0
LINE
  5
A025
330
9E42
100
AcDbEntity
  8
1
  6
Continuous
100
AcDbLine
 10
186.700006
 20
45.000002
 30
0.0
 11
192.700003
 21
45.000002
 31
0.0
  0
LINE
  5
A026
330
9E42
100
AcDbEntity
  8
1
  6
Continuous
100
AcDbLine
 10
192.700003
 20
50.99999799999999
 30
0.0
 11
192.700003
 21
45.000002
 31
0.0
  0
LINE
  5
A027
330
9E42
100
AcDbEntity
  8
1
  6
Continuous
100
AcDbLine
 10
193.8000029999997
 20
619.0
 30
0.0
 11
193.8000029999997
 21
629.099976
 31
0.0
  0
LINE
  5
A028
330
9E42
100
AcDbEntity
  8
1
  6
Continuous
100
AcDbLine
 10
430.399988
 20
182.0
 30
0.0
 11
430.399988
 21
186.0
 31
0.0
  0
LINE
  5
A029
330
9E42
100
AcDbEntity
  8
1
  6
Continuous
100
AcDbLine
 10
441.0000059999998
 20
517.9999759999998
 30
0.0
 11
434.999994
 21
517.9999759999998
 31
0.0
  0
LINE
  5
A02A
330
9E42
100
AcDbEntity
  8
1
  6
Continuous
100
AcDbLine
 10
434.999994
 20
511.999994
 30
0.0
 11
434.999994
 21
517.9999759999998
 31
0.0
  0
LINE
  5
A02B
330
9E42
100
AcDbEntity
  8
1
  6
Continuous
100
AcDbLine
 10
311.0
 20
521.4999999999998
 30
0.0
 11
311.0
 21
513.000024
 31
0.0
  0
LINE
  5
A02C
330
9E42
100
AcDbEntity
  8
1
  6
Continuous
100
AcDbLine
 10
315.0
 20
521.4999999999998
 30
0.0
 11
315.0
 21
513.000024
 31
0.0
  0
LINE
  5
A02D
330
9E42
100
AcDbEntity
  8
1
  6
Continuous
100
AcDbLine
 10
185.9999939999999
 20
602.0
 30
0.0
 11
194.5
 21
602.0
 31
0.0
  0
LINE
  5
A02E
330
9E42
100
AcDbEntity
  8
1
  6
Continuous
100
AcDbLine
 10
185.9999939999999
 20
606.0
 30
0.0
 11
194.5
 21
606.0
 31
0.0
  0
LINE
  5
A02F
330
9E42
100
AcDbEntity
  8
1
  6
Continuous
100
AcDbLine
 10
340.5
 20
182.0
 30
0.0
 11
332.000002
 21
182.0
 31
0.0
  0
LINE
  5
A030
330
9E42
100
AcDbEntity
  8
1
  6
Continuous
100
AcDbLine
 10
340.5
 20
186.0
 30
0.0
 11
332.000002
 21
186.0
 31
0.0
  0
LINE
  5
A031
330
9E42
100
AcDbEntity
  8
1
  6
Continuous
100
AcDbLine
 10
438.299994
 20
182.0
 30
0.0
 11
429.7999879999998
 21
182.0
 31
0.0
  0
LINE
  5
A032
330
9E42
100
AcDbEntity
  8
1
  6
Continuous
100
AcDbLine
 10
438.299994
 20
186.0
 30
0.0
 11
429.7999879999998
 21
186.0
 31
0.0
  0
ARC
  5
A033
330
9E42
100
AcDbEntity
  8
1
  6
Continuous
100
AcDbCircle
 10
33.000006
 20
184.0
 30
0.0
 40
3.0
100
AcDbArc
 50
269.999999
 51
89.99999700000001
  0
ARC
  5
A034
330
9E42
100
AcDbEntity
  8
1
  6
Continuous
100
AcDbCircle
 10
27.999994
 20
182.0
 30
0.0
 40
1.0
100
AcDbArc
 50
269.999999
 51
0.000009
  0
ARC
  5
A035
330
9E42
100
AcDbEntity
  8
1
  6
Continuous
100
AcDbCircle
 10
27.999994
 20
186.0
 30
0.0
 40
1.0
100
AcDbArc
 50
359.999995
 51
89.99999700000001
  0
ARC
  5
A036
330
9E42
100
AcDbEntity
  8
1
  6
Continuous
100
AcDbCircle
 10
53.0
 20
514.000024
 30
0.0
 40
3.0
100
AcDbArc
 50
179.9999909999999
 51
0.00001
  0
ARC
  5
A037
330
9E42
100
AcDbEntity
  8
1
  6
Continuous
100
AcDbCircle
 10
55.0
 20
518.9999759999998
 30
0.0
 40
1.0
100
AcDbArc
 50
269.9999969999999
 51
0.0
  0
ARC
  5
A038
330
9E42
100
AcDbEntity
  8
1
  6
Continuous
100
AcDbCircle
 10
51.0
 20
518.9999759999998
 30
0.0
 40
1.0
100
AcDbArc
 50
179.9999909999999
 51
270.000001
  0
ARC
  5
A039
330
9E42
100
AcDbEntity
  8
1
  6
Continuous
100
AcDbCircle
 10
340.5
 20
181.4999999999997
 30
0.0
 40
0.5
100
AcDbArc
 50
359.999995
 51
89.99999700000001
  0
ARC
  5
A03A
330
9E42
100
AcDbEntity
  8
1
  6
Continuous
100
AcDbCircle
 10
340.5
 20
186.5
 30
0.0
 40
0.5
100
AcDbArc
 50
269.999999
 51
0.000009
  0
ARC
  5
A03B
330
9E42
100
AcDbEntity
  8
1
  6
Continuous
100
AcDbCircle
 10
315.5
 20
521.4999999999998
 30
0.0
 40
0.5
100
AcDbArc
 50
90.00000300000001
 51
180.000005
  0
ARC
  5
A03C
330
9E42
100
AcDbEntity
  8
1
  6
Continuous
100
AcDbCircle
 10
310.4999999999999
 20
521.4999999999998
 30
0.0
 40
0.5
100
AcDbArc
 50
0.0
 51
90.00000300000001
  0
ARC
  5
A03D
330
9E42
100
AcDbEntity
  8
1
  6
Continuous
100
AcDbCircle
 10
194.5
 20
606.5
 30
0.0
 40
0.5
100
AcDbArc
 50
269.999999
 51
0.000009
  0
ARC
  5
A03E
330
9E42
100
AcDbEntity
  8
1
  6
Continuous
100
AcDbCircle
 10
194.5
 20
601.5
 30
0.0
 40
0.5
100
AcDbArc
 50
359.999995
 51
89.99999700000001
  0
ARC
  5
A03F
330
9E42
100
AcDbEntity
  8
1
  6
Continuous
100
AcDbCircle
 10
186.700006
 20
44.000002
 30
0.0
 40
1.0
100
AcDbArc
 50
89.99999700000001
 51
180.0
  0
ARC
  5
A040
330
9E42
100
AcDbEntity
  8
1
  6
Continuous
100
AcDbCircle
 10
193.700003
 20
50.99999799999999
 30
0.0
 40
1.0
100
AcDbArc
 50
89.99999700000001
 51
180.0
  0
ARC
  5
A041
330
9E42
100
AcDbEntity
  8
1
  6
Continuous
100
AcDbCircle
 10
429.7999879999998
 20
186.5
 30
0.0
 40
0.5
100
AcDbArc
 50
180.0
 51
270.0000029999998
  0
ARC
  5
A042
330
9E42
100
AcDbEntity
  8
1
  6
Continuous
100
AcDbCircle
 10
429.7999879999998
 20
181.4999999999997
 30
0.0
 40
0.5
100
AcDbArc
 50
89.99999700000001
 51
180.0
  0
ARC
  5
A043
330
9E42
100
AcDbEntity
  8
1
  6
Continuous
100
AcDbCircle
 10
441.0000059999998
 20
518.9999759999998
 30
0.0
 40
1.0
100
AcDbArc
 50
269.999999
 51
359.999995
  0
ARC
  5
A044
330
9E42
100
AcDbEntity
  8
1
  6
Continuous
100
AcDbCircle
 10
433.999994
 20
511.999994
 30
0.0
 40
1.0
100
AcDbArc
 50
269.999999
 51
359.999995
  0
ARC
  5
A045
330
9E42
100
AcDbEntity
  8
1
  6
Continuous
100
AcDbCircle
 10
313.0
 20
513.000024
 30
0.0
 40
2.0
100
AcDbArc
 50
179.9999909999999
 51
0.00001
  0
ARC
  5
A046
330
9E42
100
AcDbEntity
  8
1
  6
Continuous
100
AcDbCircle
 10
185.9999939999999
 20
604.0
 30
0.0
 40
2.0
100
AcDbArc
 50
90.000011
 51
270.0000029999998
  0
ARC
  5
A047
330
9E42
100
AcDbEntity
  8
1
  6
Continuous
100
AcDbCircle
 10
332.000002
 20
184.0
 30
0.0
 40
2.0
100
AcDbArc
 50
90.000011
 51
270.0000029999998
  0
ARC
  5
A048
330
9E42
100
AcDbEntity
  8
1
  6
Continuous
100
AcDbCircle
 10
438.299994
 20
184.0
 30
0.0
 40
2.0
100
AcDbArc
 50
269.999999
 51
89.99999700000001
  0
LINE
  5
A049
330
9E42
100
AcDbEntity
  8
1
  6
Continuous
100
AcDbLine
 10
185.700006
 20
44.000002
 30
0.0
 11
185.700006
 21
43.900002
 31
0.0
  0
LINE
  5
A04A
330
9E42
100
AcDbEntity
  8
1
  6
Continuous
100
AcDbLine
 10
193.700003
 20
51.999998
 30
0.0
 11
193.8000029999997
 21
51.999998
 31
0.0
  0
LINE
  5
A04B
330
9E42
100
AcDbEntity
  8
1
  6
Continuous
100
AcDbLine
 10
433.999994
 20
510.999994
 30
0.0
 11
433.8999939999998
 21
510.999994
 31
0.0
  0
LINE
  5
A04C
330
9E42
100
AcDbEntity
  8
1
  6
Continuous
100
AcDbLine
 10
442.0000059999998
 20
518.9999749999998
 30
0.0
 11
442.0000059999998
 21
519.0999759999998
 31
0.0
  0
ARC
  5
A04D
330
9E42
100
AcDbEntity
  8
1
  6
Continuous
100
AcDbCircle
 10
184.999994
 20
518.9999759999998
 30
0.0
 40
1.0
100
AcDbArc
 50
180.000005
 51
270.000001
  0
LINE
  5
A04E
330
9E42
100
AcDbEntity
  8
1
  6
Continuous
100
AcDbLine
 10
183.999994
 20
518.9999749999998
 30
0.0
 11
183.999994
 21
519.0999759999998
 31
0.0
  0
LINE
  5
A04F
330
9E42
100
AcDbEntity
  8
1
  6
Continuous
100
AcDbLine
 10
184.999994
 20
517.9999759999998
 30
0.0
 11
191.000006
 21
517.9999759999998
 31
0.0
  0
LINE
  5
A050
330
9E42
100
AcDbEntity
  8
1
  6
Continuous
100
AcDbLine
 10
191.000006
 20
511.999994
 30
0.0
 11
191.000006
 21
517.9999759999998
 31
0.0
  0
ARC
  5
A051
330
9E42
100
AcDbEntity
  8
1
  6
Continuous
100
AcDbCircle
 10
192.000006
 20
511.999994
 30
0.0
 40
1.0
100
AcDbArc
 50
180.000005
 51
270.000001
  0
LINE
  5
A052
330
9E42
100
AcDbEntity
  8
1
  6
Continuous
100
AcDbLine
 10
192.000006
 20
510.999994
 30
0.0
 11
192.100006
 21
510.999994
 31
0.0
  0
LINE
  5
A053
330
9E42
100
AcDbEntity
  8
1
  6
Continuous
100
AcDbLine
 10
185.6999909999999
 20
628.9999749999997
 30
0.0
 11
185.6999909999999
 21
629.099976
 31
0.0
  0
ARC
  5
A054
330
9E42
100
AcDbEntity
  8
1
  6
Continuous
100
AcDbCircle
 10
186.6999909999999
 20
628.9999759999997
 30
0.0
 40
1.0
100
AcDbArc
 50
180.000005
 51
270.000001
  0
LINE
  5
A055
330
9E42
100
AcDbEntity
  8
1
  6
Continuous
100
AcDbLine
 10
186.6999909999999
 20
627.9999759999997
 30
0.0
 11
192.700003
 21
627.9999759999997
 31
0.0
  0
LINE
  5
A056
330
9E42
100
AcDbEntity
  8
1
  6
Continuous
100
AcDbLine
 10
192.700003
 20
621.999994
 30
0.0
 11
192.700003
 21
627.9999759999997
 31
0.0
  0
LINE
  5
A057
330
9E42
100
AcDbEntity
  8
1
  6
Continuous
100
AcDbLine
 10
193.700003
 20
620.999994
 30
0.0
 11
193.8000029999997
 21
620.999994
 31
0.0
  0
ARC
  5
A058
330
9E42
100
AcDbEntity
  8
1
  6
Continuous
100
AcDbCircle
 10
193.700003
 20
621.999994
 30
0.0
 40
1.0
100
AcDbArc
 50
180.000005
 51
270.000001
  0
LINE
  5
A059
330
9E42
100
AcDbEntity
  8
5
  6
PHANTOM
 48
0.1
100
AcDbLine
 10
438.6000059999998
 20
393.0
 30
0.0
 11
446.8999939999998
 21
393.0
 31
0.0
  0
LINE
  5
A05A
330
9E42
100
AcDbEntity
  8
5
  6
PHANTOM
 48
0.2
100
AcDbLine
 10
461.0
 20
411.0
 30
0.0
 11
433.8999939999998
 21
411.0
 31
0.0
  0
LINE
  5
A05B
330
9E42
100
AcDbEntity
  8
5
  6
PHANTOM
 48
0.2
100
AcDbLine
 10
461.0
 20
408.099976
 30
0.0
 11
433.8999939999998
 21
408.099976
 31
0.0
  0
LINE
  5
A05C
330
9E42
100
AcDbEntity
  8
4
  6
CENTER
 48
0.2
100
AcDbLine
 10
457.5039059999999
 20
383.0
 30
0.0
 11
424.3713679999998
 21
383.0
 31
0.0
  0
LINE
  5
A05D
330
9E42
100
AcDbEntity
  8
5
  6
PHANTOM
 48
0.2
100
AcDbLine
 10
434.1000059999998
 20
375.0
 30
0.0
 11
434.1000059999998
 21
393.100006
 31
0.0
  0
LINE
  5
A05E
330
9E42
100
AcDbEntity
  8
5
  6
PHANTOM
 48
0.2
100
AcDbLine
 10
437.0
 20
374.5
 30
0.0
 11
437.0
 21
393.100006
 31
0.0
  0
LINE
  5
A05F
330
9E42
100
AcDbEntity
  8
5
  6
PHANTOM
 48
0.1
100
AcDbLine
 10
433.3500059999998
 20
383.0
 30
0.0
 11
432.6000059999998
 21
382.5
 31
0.0
  0
LINE
  5
A060
330
9E42
100
AcDbEntity
  8
5
  6
PHANTOM
 48
0.1
100
AcDbLine
 10
434.1000059999998
 20
380.0
 30
0.0
 11
432.6000059999998
 21
380.0
 31
0.0
  0
LINE
  5
A061
330
9E42
100
AcDbEntity
  8
5
  6
PHANTOM
 48
0.1
100
AcDbLine
 10
434.1000059999998
 20
386.0
 30
0.0
 11
432.6000059999998
 21
386.0
 31
0.0
  0
LINE
  5
A062
330
9E42
100
AcDbEntity
  8
5
  6
PHANTOM
 48
0.1
100
AcDbLine
 10
432.6000059999998
 20
383.4999999999998
 30
0.0
 11
432.6000059999998
 21
386.0
 31
0.0
  0
LINE
  5
A063
330
9E42
100
AcDbEntity
  8
5
  6
PHANTOM
 48
0.2
100
AcDbLine
 10
437.0
 20
375.0
 30
0.0
 11
434.1000059999998
 21
375.0
 31
0.0
  0
LINE
  5
A064
330
9E42
100
AcDbEntity
  8
5
  6
PHANTOM
 48
0.1
100
AcDbLine
 10
432.6000059999998
 20
383.4999999999998
 30
0.0
 11
433.3499759999998
 21
383.0
 31
0.0
  0
LINE
  5
A065
330
9E42
100
AcDbEntity
  8
5
  6
PHANTOM
 48
0.1
100
AcDbLine
 10
432.6000059999998
 20
380.0
 30
0.0
 11
432.6000059999998
 21
382.5
 31
0.0
  0
LINE
  5
A066
330
9E42
100
AcDbEntity
  8
5
  6
PHANTOM
 48
0.2
100
AcDbLine
 10
442.0000059999998
 20
407.9999749999998
 30
0.0
 11
442.0000059999998
 21
408.099976
 31
0.0
  0
LINE
  5
A067
330
9E42
100
AcDbEntity
  8
5
  6
PHANTOM
 48
0.2
100
AcDbLine
 10
433.999994
 20
399.999994
 30
0.0
 11
433.8999939999998
 21
399.999994
 31
0.0
  0
ARC
  5
A068
330
9E42
100
AcDbEntity
  8
5
  6
PHANTOM
 48
0.1
100
AcDbCircle
 10
433.999994
 20
400.999994
 30
0.0
 40
1.0
100
AcDbArc
 50
269.999999
 51
359.999995
  0
ARC
  5
A069
330
9E42
100
AcDbEntity
  8
5
  6
PHANTOM
 48
0.1
100
AcDbCircle
 10
441.0000059999998
 20
407.9999759999997
 30
0.0
 40
1.0
100
AcDbArc
 50
269.999999
 51
359.999995
  0
LINE
  5
A06A
330
9E42
100
AcDbEntity
  8
5
  6
PHANTOM
 48
0.1
100
AcDbLine
 10
434.999994
 20
400.999994
 30
0.0
 11
434.999994
 21
406.9999759999998
 31
0.0
  0
LINE
  5
A06B
330
9E42
100
AcDbEntity
  8
5
  6
PHANTOM
 48
0.1
100
AcDbLine
 10
441.0000059999998
 20
406.9999759999998
 30
0.0
 11
434.999994
 21
406.9999759999998
 31
0.0
  0
ARC
  5
A06C
330
9E42
100
AcDbEntity
  8
5
  6
PHANTOM
 48
0.2
100
AcDbCircle
 10
433.8999939999998
 20
408.099976
 30
0.0
 40
2.9
100
AcDbArc
 50
90.00000300000001
 51
180.000005
  0
ARC
  5
A06D
330
9E42
100
AcDbEntity
  8
5
  6
PHANTOM
 48
0.2
100
AcDbCircle
 10
433.8999939999998
 20
396.0
 30
0.0
 40
2.9
100
AcDbArc
 50
179.9999909999999
 51
270.000001
  0
ARC
  5
A06E
330
9E42
100
AcDbEntity
  8
5
  6
PHANTOM
 48
0.2
100
AcDbCircle
 10
434.1000059999998
 20
393.100006
 30
0.0
 40
2.9
100
AcDbArc
 50
0.0
 51
90.00000300000001
  0
LINE
  5
A06F
330
9E42
100
AcDbEntity
  8
5
  6
PHANTOM
 48
0.2
100
AcDbLine
 10
433.8999939999998
 20
396.0
 30
0.0
 11
433.8999939999998
 21
408.099976
 31
0.0
  0
LINE
  5
A070
330
9E42
100
AcDbEntity
  8
5
  6
PHANTOM
 48
0.2
100
AcDbLine
 10
438.6000059999998
 20
391.8500059999999
 30
0.0
 11
437.0
 21
391.8500059999999
 31
0.0
  0
LINE
  5
A071
330
9E42
100
AcDbEntity
  8
4
  6
CENTER
 48
0.2
100
AcDbLine
 10
438.25
 20
402.0
 30
0.0
 11
426.649994
 21
402.0
 31
0.0
  0
LINE
  5
A072
330
9E42
100
AcDbEntity
  8
5
  6
PHANTOM
 48
0.2
100
AcDbLine
 10
431.0
 20
396.0
 30
0.0
 11
431.0
 21
408.099976
 31
0.0
  0
LINE
  5
A073
330
9E42
100
AcDbEntity
  8
5
  6
PHANTOM
 48
0.2
100
AcDbLine
 10
434.1000059999998
 20
393.100006
 30
0.0
 11
433.8999939999998
 21
393.100006
 31
0.0
  0
LINE
  5
A074
330
9E42
100
AcDbEntity
  8
5
  6
PHANTOM
 48
0.2
100
AcDbLine
 10
434.1000059999998
 20
396.0
 30
0.0
 11
433.8999939999998
 21
396.0
 31
0.0
  0
LINE
  5
A075
330
9E42
100
AcDbEntity
  8
5
  6
PHANTOM
 48
0.2
100
AcDbLine
 10
448.899994
 20
375.4999999999999
 30
0.0
 11
448.899994
 21
390.5
 31
0.0
  0
LINE
  5
A076
330
9E42
100
AcDbEntity
  8
5
  6
PHANTOM
 48
0.2
100
AcDbLine
 10
449.899994
 20
376.5
 30
0.0
 11
449.899994
 21
389.4999999999998
 31
0.0
  0
LINE
  5
A077
330
9E42
100
AcDbEntity
  8
5
  6
PHANTOM
 48
0.2
100
AcDbLine
 10
449.9000239999999
 20
376.5
 30
0.0
 11
448.899994
 21
375.4999999999999
 31
0.0
  0
LINE
  5
A078
330
9E42
100
AcDbEntity
  8
5
  6
PHANTOM
 48
0.2
100
AcDbLine
 10
448.899994
 20
375.4999999999999
 30
0.0
 11
446.8999939999998
 21
375.4999999999999
 31
0.0
  0
LINE
  5
A079
330
9E42
100
AcDbEntity
  8
5
  6
PHANTOM
 48
0.2
100
AcDbLine
 10
449.899994
 20
389.4999999999998
 30
0.0
 11
448.900024
 21
390.5
 31
0.0
  0
LINE
  5
A07A
330
9E42
100
AcDbEntity
  8
5
  6
PHANTOM
 48
0.2
100
AcDbLine
 10
448.899994
 20
390.5
 30
0.0
 11
446.8999939999998
 21
390.5
 31
0.0
  0
LINE
  5
A07B
330
9E42
100
AcDbEntity
  8
5
  6
PHANTOM
 48
0.2
100
AcDbLine
 10
461.0
 20
408.099976
 30
0.0
 11
461.0
 21
411.0
 31
0.0
  0
LINE
  5
A07C
330
9E42
100
AcDbEntity
  8
4
  6
CENTER
 48
0.2
100
AcDbLine
 10
453.0
 20
403.7499999999998
 30
0.0
 11
453.0
 21
415.3499759999998
 31
0.0
  0
ARC
  5
A07D
330
9E42
100
AcDbEntity
  8
5
  6
PHANTOM
 48
0.2
100
AcDbCircle
 10
313.0
 20
390.0
 30
0.0
 40
15.0
100
AcDbArc
 50
180.000005
 51
0.00001
  0
CIRCLE
  5
A07E
330
9E42
100
AcDbEntity
  8
5
  6
PHANTOM
 48
0.2
100
AcDbCircle
 10
313.0
 20
383.0
 30
0.0
 40
3.25
  0
LINE
  5
A07F
330
9E42
100
AcDbEntity
  8
4
  6
CENTER
 48
0.2
100
AcDbLine
 10
306.4999999999999
 20
383.0
 30
0.0
 11
319.5
 21
383.0
 31
0.0
  0
LINE
  5
A080
330
9E42
100
AcDbEntity
  8
5
  6
PHANTOM
 48
0.2
100
AcDbLine
 10
328.0
 20
393.100006
 30
0.0
 11
298.0
 21
393.100006
 31
0.0
  0
LINE
  5
A081
330
9E42
100
AcDbEntity
  8
5
  6
PHANTOM
 48
0.2
100
AcDbLine
 10
328.0
 20
411.0
 30
0.0
 11
298.0
 21
411.0
 31
0.0
  0
CIRCLE
  5
A082
330
9E42
100
AcDbEntity
  8
5
  6
PHANTOM
 48
0.2
100
AcDbCircle
 10
313.0
 20
383.0
 30
0.0
 40
3.0
  0
LINE
  5
A083
330
9E42
100
AcDbEntity
  8
5
  6
PHANTOM
 48
0.1
100
AcDbLine
 10
312.5
 20
383.4999999999998
 30
0.0
 11
312.5
 21
385.958038
 31
0.0
  0
LINE
  5
A084
330
9E42
100
AcDbEntity
  8
5
  6
PHANTOM
 48
0.1
100
AcDbLine
 10
313.5
 20
383.4999999999998
 30
0.0
 11
313.5
 21
385.958038
 31
0.0
  0
LINE
  5
A085
330
9E42
100
AcDbEntity
  8
5
  6
PHANTOM
 48
0.1
100
AcDbLine
 10
312.5
 20
383.4999999999998
 30
0.0
 11
310.041962
 21
383.4999999999998
 31
0.0
  0
LINE
  5
A086
330
9E42
100
AcDbEntity
  8
5
  6
PHANTOM
 48
0.1
100
AcDbLine
 10
312.5
 20
382.5
 30
0.0
 11
310.041962
 21
382.5
 31
0.0
  0
LINE
  5
A087
330
9E42
100
AcDbEntity
  8
5
  6
PHANTOM
 48
0.1
100
AcDbLine
 10
315.9580379999998
 20
383.4999999999998
 30
0.0
 11
313.5
 21
383.4999999999998
 31
0.0
  0
LINE
  5
A088
330
9E42
100
AcDbEntity
  8
5
  6
PHANTOM
 48
0.1
100
AcDbLine
 10
315.9580379999998
 20
382.5
 30
0.0
 11
313.5
 21
382.5
 31
0.0
  0
LINE
  5
A089
330
9E42
100
AcDbEntity
  8
5
  6
PHANTOM
 48
0.1
100
AcDbLine
 10
312.5
 20
380.0419619999999
 30
0.0
 11
312.5
 21
382.5
 31
0.0
  0
LINE
  5
A08A
330
9E42
100
AcDbEntity
  8
5
  6
PHANTOM
 48
0.1
100
AcDbLine
 10
313.5
 20
380.0419619999999
 30
0.0
 11
313.5
 21
382.5
 31
0.0
  0
ARC
  5
A08B
330
9E42
100
AcDbEntity
  8
5
  6
PHANTOM
 48
0.1
100
AcDbCircle
 10
313.0
 20
402.0000239999998
 30
0.0
 40
2.0
100
AcDbArc
 50
179.9999909999999
 51
0.00001
  0
ARC
  5
A08C
330
9E42
100
AcDbEntity
  8
5
  6
PHANTOM
 48
0.2
100
AcDbCircle
 10
310.4999999999999
 20
410.5
 30
0.0
 40
0.5
100
AcDbArc
 50
0.0
 51
90.00000300000001
  0
ARC
  5
A08D
330
9E42
100
AcDbEntity
  8
5
  6
PHANTOM
 48
0.2
100
AcDbCircle
 10
315.5
 20
410.5
 30
0.0
 40
0.5
100
AcDbArc
 50
90.00000300000001
 51
180.000005
  0
LINE
  5
A08E
330
9E42
100
AcDbEntity
  8
5
  6
PHANTOM
 48
0.1
100
AcDbLine
 10
315.0
 20
410.5
 30
0.0
 11
315.0
 21
402.0000239999998
 31
0.0
  0
LINE
  5
A08F
330
9E42
100
AcDbEntity
  8
5
  6
PHANTOM
 48
0.1
100
AcDbLine
 10
311.0
 20
410.5
 30
0.0
 11
311.0
 21
402.0000239999998
 31
0.0
  0
LINE
  5
A090
330
9E42
100
AcDbEntity
  8
5
  6
PHANTOM
 48
0.1
100
AcDbLine
 10
311.0
 20
409.9
 30
0.0
 11
315.0
 21
409.9
 31
0.0
  0
CIRCLE
  5
A091
330
9E42
100
AcDbEntity
  8
5
  6
PHANTOM
 48
0.2
100
AcDbCircle
 10
304.0
 20
402.0
 30
0.0
 40
2.649999999999999
  0
LINE
  5
A092
330
9E42
100
AcDbEntity
  8
4
  6
CENTER
 48
0.2
100
AcDbLine
 10
304.0
 20
416.0
 30
0.0
 11
304.0
 21
397.350006
 31
0.0
  0
LINE
  5
A093
330
9E42
100
AcDbEntity
  8
4
  6
CENTER
 48
0.2
100
AcDbLine
 10
308.6499939999999
 20
402.0
 30
0.0
 11
299.350006
 21
402.0
 31
0.0
  0
LINE
  5
A094
330
9E42
100
AcDbEntity
  8
5
  6
PHANTOM
 48
0.2
100
AcDbLine
 10
298.0
 20
411.0
 30
0.0
 11
298.0
 21
390.0
 31
0.0
  0
CIRCLE
  5
A095
330
9E42
100
AcDbEntity
  8
5
  6
PHANTOM
 48
0.2
100
AcDbCircle
 10
322.0
 20
402.0
 30
0.0
 40
2.649999999999999
  0
LINE
  5
A096
330
9E42
100
AcDbEntity
  8
4
  6
CENTER
 48
0.2
100
AcDbLine
 10
322.0
 20
416.0
 30
0.0
 11
322.0
 21
397.350006
 31
0.0
  0
LINE
  5
A097
330
9E42
100
AcDbEntity
  8
4
  6
CENTER
 48
0.2
100
AcDbLine
 10
326.649994
 20
402.0
 30
0.0
 11
317.350006
 21
402.0
 31
0.0
  0
LINE
  5
A098
330
9E42
100
AcDbEntity
  8
5
  6
PHANTOM
 48
0.2
100
AcDbLine
 10
328.0
 20
411.0
 30
0.0
 11
328.0
 21
390.0
 31
0.0
  0
LINE
  5
A099
330
9E42
100
AcDbEntity
  8
5
  6
PHANTOM
 48
0.1
100
AcDbLine
 10
184.999994
 20
406.9999759999998
 30
0.0
 11
191.000006
 21
406.9999759999998
 31
0.0
  0
ARC
  5
A09A
330
9E42
100
AcDbEntity
  8
5
  6
PHANTOM
 48
0.2
100
AcDbCircle
 10
191.8999939999999
 20
393.100006
 30
0.0
 40
2.9
100
AcDbArc
 50
90.00000300000001
 51
180.000005
  0
LINE
  5
A09B
330
9E42
100
AcDbEntity
  8
5
  6
PHANTOM
 48
0.2
100
AcDbLine
 10
189.0
 20
375.0
 30
0.0
 11
191.8999939999999
 21
375.0
 31
0.0
  0
LINE
  5
A09C
330
9E42
100
AcDbEntity
  8
4
  6
CENTER
 48
0.2
100
AcDbLine
 10
187.7499999999997
 20
402.0
 30
0.0
 11
199.350006
 21
402.0
 31
0.0
  0
LINE
  5
A09D
330
9E42
100
AcDbEntity
  8
5
  6
PHANTOM
 48
0.2
100
AcDbLine
 10
165.0
 20
408.099976
 30
0.0
 11
192.100006
 21
408.099976
 31
0.0
  0
LINE
  5
A09E
330
9E42
100
AcDbEntity
  8
5
  6
PHANTOM
 48
0.2
100
AcDbLine
 10
165.0
 20
411.0
 30
0.0
 11
192.100006
 21
411.0
 31
0.0
  0
LINE
  5
A09F
330
9E42
100
AcDbEntity
  8
4
  6
CENTER
 48
0.2
100
AcDbLine
 10
168.4961089999999
 20
383.0
 30
0.0
 11
201.6286159999999
 21
383.0
 31
0.0
  0
LINE
  5
A0A0
330
9E42
100
AcDbEntity
  8
5
  6
PHANTOM
 48
0.2
100
AcDbLine
 10
189.0
 20
374.149994
 30
0.0
 11
189.0
 21
393.100006
 31
0.0
  0
LINE
  5
A0A1
330
9E42
100
AcDbEntity
  8
5
  6
PHANTOM
 48
0.2
100
AcDbLine
 10
177.100006
 20
375.4999999999999
 30
0.0
 11
177.100006
 21
390.5
 31
0.0
  0
LINE
  5
A0A2
330
9E42
100
AcDbEntity
  8
5
  6
PHANTOM
 48
0.2
100
AcDbLine
 10
176.100006
 20
376.5
 30
0.0
 11
176.100006
 21
389.4999999999998
 31
0.0
  0
LINE
  5
A0A3
330
9E42
100
AcDbEntity
  8
5
  6
PHANTOM
 48
0.2
100
AcDbLine
 10
176.0999909999999
 20
376.5
 30
0.0
 11
177.099991
 21
375.4999999999999
 31
0.0
  0
LINE
  5
A0A4
330
9E42
100
AcDbEntity
  8
5
  6
PHANTOM
 48
0.2
100
AcDbLine
 10
177.100006
 20
375.4999999999999
 30
0.0
 11
179.100006
 21
375.4999999999999
 31
0.0
  0
LINE
  5
A0A5
330
9E42
100
AcDbEntity
  8
5
  6
PHANTOM
 48
0.2
100
AcDbLine
 10
165.0
 20
408.099976
 30
0.0
 11
165.0
 21
411.0
 31
0.0
  0
LINE
  5
A0A6
330
9E42
100
AcDbEntity
  8
5
  6
PHANTOM
 48
0.2
100
AcDbLine
 10
183.999994
 20
407.9999749999998
 30
0.0
 11
183.999994
 21
408.099976
 31
0.0
  0
ARC
  5
A0A7
330
9E42
100
AcDbEntity
  8
5
  6
PHANTOM
 48
0.2
100
AcDbCircle
 10
184.999994
 20
407.9999759999997
 30
0.0
 40
1.0
100
AcDbArc
 50
180.000005
 51
270.000001
  0
LINE
  5
A0A8
330
9E42
100
AcDbEntity
  8
4
  6
CENTER
 48
0.2
100
AcDbLine
 10
173.0
 20
403.7499999999998
 30
0.0
 11
173.0
 21
415.3499759999998
 31
0.0
  0
LINE
  5
A0A9
330
9E42
100
AcDbEntity
  8
5
  6
PHANTOM
 48
0.2
100
AcDbLine
 10
187.399994
 20
391.8500059999999
 30
0.0
 11
189.0
 21
391.8500059999999
 31
0.0
  0
LINE
  5
A0AA
330
9E42
100
AcDbEntity
  8
5
  6
PHANTOM
 48
0.2
100
AcDbLine
 10
176.100006
 20
389.4999999999998
 30
0.0
 11
177.100006
 21
390.5
 31
0.0
  0
LINE
  5
A0AB
330
9E42
100
AcDbEntity
  8
5
  6
PHANTOM
 48
0.2
100
AcDbLine
 10
177.100006
 20
390.5
 30
0.0
 11
179.100006
 21
390.5
 31
0.0
  0
LINE
  5
A0AC
330
9E42
100
AcDbEntity
  8
5
  6
PHANTOM
 48
0.1
100
AcDbLine
 10
187.399994
 20
393.0
 30
0.0
 11
179.100006
 21
393.0
 31
0.0
  0
LINE
  5
A0AD
330
9E42
100
AcDbEntity
  8
5
  6
PHANTOM
 48
0.2
100
AcDbLine
 10
191.8999939999999
 20
375.0
 30
0.0
 11
191.8999939999999
 21
393.100006
 31
0.0
  0
LINE
  5
A0AE
330
9E42
100
AcDbEntity
  8
5
  6
PHANTOM
 48
0.1
100
AcDbLine
 10
191.8999939999999
 20
386.0
 30
0.0
 11
193.3999939999999
 21
386.0
 31
0.0
  0
LINE
  5
A0AF
330
9E42
100
AcDbEntity
  8
5
  6
PHANTOM
 48
0.1
100
AcDbLine
 10
191.8999939999999
 20
380.0
 30
0.0
 11
193.3999939999999
 21
380.0
 31
0.0
  0
LINE
  5
A0B0
330
9E42
100
AcDbEntity
  8
5
  6
PHANTOM
 48
0.1
100
AcDbLine
 10
192.649979
 20
382.999969
 30
0.0
 11
193.399979
 21
382.499969
 31
0.0
  0
LINE
  5
A0B1
330
9E42
100
AcDbEntity
  8
5
  6
PHANTOM
 48
0.1
100
AcDbLine
 10
193.4000089999999
 20
383.4999999999998
 30
0.0
 11
192.649994
 21
383.0
 31
0.0
  0
LINE
  5
A0B2
330
9E42
100
AcDbEntity
  8
5
  6
PHANTOM
 48
0.1
100
AcDbLine
 10
193.3999939999999
 20
380.0
 30
0.0
 11
193.3999939999999
 21
382.5
 31
0.0
  0
LINE
  5
A0B3
330
9E42
100
AcDbEntity
  8
5
  6
PHANTOM
 48
0.1
100
AcDbLine
 10
193.3999939999999
 20
383.4999999999998
 30
0.0
 11
193.3999939999999
 21
386.0
 31
0.0
  0
LINE
  5
A0B4
330
9E42
100
AcDbEntity
  8
5
  6
PHANTOM
 48
0.2
100
AcDbLine
 10
192.000006
 20
399.999994
 30
0.0
 11
192.100006
 21
399.999994
 31
0.0
  0
ARC
  5
A0B5
330
9E42
100
AcDbEntity
  8
5
  6
PHANTOM
 48
0.2
100
AcDbCircle
 10
192.000006
 20
400.999994
 30
0.0
 40
1.0
100
AcDbArc
 50
180.000005
 51
270.000001
  0
LINE
  5
A0B6
330
9E42
100
AcDbEntity
  8
5
  6
PHANTOM
 48
0.1
100
AcDbLine
 10
191.000006
 20
400.999994
 30
0.0
 11
191.000006
 21
406.9999759999998
 31
0.0
  0
ARC
  5
A0B7
330
9E42
100
AcDbEntity
  8
5
  6
PHANTOM
 48
0.2
100
AcDbCircle
 10
192.100006
 20
408.099976
 30
0.0
 40
2.9
100
AcDbArc
 50
0.0
 51
90.00000300000001
  0
ARC
  5
A0B8
330
9E42
100
AcDbEntity
  8
5
  6
PHANTOM
 48
0.2
100
AcDbCircle
 10
192.100006
 20
396.0
 30
0.0
 40
2.9
100
AcDbArc
 50
269.9999969999999
 51
0.0
  0
LINE
  5
A0B9
330
9E42
100
AcDbEntity
  8
5
  6
PHANTOM
 48
0.2
100
AcDbLine
 10
192.100006
 20
396.0
 30
0.0
 11
192.100006
 21
408.099976
 31
0.0
  0
LINE
  5
A0BA
330
9E42
100
AcDbEntity
  8
5
  6
PHANTOM
 48
0.2
100
AcDbLine
 10
191.8999939999999
 20
393.100006
 30
0.0
 11
192.100006
 21
393.100006
 31
0.0
  0
LINE
  5
A0BB
330
9E42
100
AcDbEntity
  8
5
  6
PHANTOM
 48
0.2
100
AcDbLine
 10
195.0
 20
396.0
 30
0.0
 11
195.0
 21
408.099976
 31
0.0
  0
LINE
  5
A0BC
330
9E42
100
AcDbEntity
  8
5
  6
PHANTOM
 48
0.2
100
AcDbLine
 10
191.8999939999999
 20
396.0
 30
0.0
 11
192.100006
 21
396.0
 31
0.0
  0
CIRCLE
  5
A0BD
330
9E42
100
AcDbEntity
  8
5
  6
PHANTOM
 48
0.2
100
AcDbCircle
 10
62.0
 20
402.0
 30
0.0
 40
2.649999999999999
  0
LINE
  5
A0BE
330
9E42
100
AcDbEntity
  8
4
  6
CENTER
 48
0.2
100
AcDbLine
 10
38.0
 20
383.0
 30
0.0
 11
68.0
 21
383.0
 31
0.0
  0
LINE
  5
A0BF
330
9E42
100
AcDbEntity
  8
4
  6
CENTER
 48
0.2
100
AcDbLine
 10
57.349998
 20
402.0
 30
0.0
 11
66.650002
 21
402.0
 31
0.0
  0
LINE
  5
A0C0
330
9E42
100
AcDbEntity
  8
5
  6
PHANTOM
 48
0.2
100
AcDbLine
 10
42.5
 20
393.0
 30
0.0
 11
63.5
 21
393.0
 31
0.0
  0
LINE
  5
A0C1
330
9E42
100
AcDbEntity
  8
5
  6
PHANTOM
 48
0.2
100
AcDbLine
 10
38.0
 20
396.0
 30
0.0
 11
68.0
 21
396.0
 31
0.0
  0
LINE
  5
A0C2
330
9E42
100
AcDbEntity
  8
5
  6
PHANTOM
 48
0.2
100
AcDbLine
 10
38.0
 20
408.099976
 30
0.0
 11
68.0
 21
408.099976
 31
0.0
  0
LINE
  5
A0C3
330
9E42
100
AcDbEntity
  8
5
  6
PHANTOM
 48
0.2
100
AcDbLine
 10
38.0
 20
411.0
 30
0.0
 11
68.0
 21
411.0
 31
0.0
  0
CIRCLE
  5
A0C4
330
9E42
100
AcDbEntity
  8
5
  6
PHANTOM
 48
0.2
100
AcDbCircle
 10
53.0
 20
383.0
 30
0.0
 40
7.5
  0
CIRCLE
  5
A0C5
330
9E42
100
AcDbEntity
  8
5
  6
PHANTOM
 48
0.2
100
AcDbCircle
 10
53.0
 20
383.0
 30
0.0
 40
6.5
  0
ARC
  5
A0C6
330
9E42
100
AcDbEntity
  8
5
  6
PHANTOM
 48
0.2
100
AcDbCircle
 10
53.0
 20
390.0
 30
0.0
 40
15.0
100
AcDbArc
 50
180.000005
 51
225.5729939999999
  0
LINE
  5
A0C7
330
9E42
100
AcDbEntity
  8
4
  6
CENTER
 48
0.2
100
AcDbLine
 10
39.34999799999999
 20
402.0
 30
0.0
 11
48.650002
 21
402.0
 31
0.0
  0
LINE
  5
A0C8
330
9E42
100
AcDbEntity
  8
5
  6
PHANTOM
 48
0.2
100
AcDbLine
 10
38.0
 20
390.0
 30
0.0
 11
38.0
 21
411.0
 31
0.0
  0
ARC
  5
A0C9
330
9E42
100
AcDbEntity
  8
5
  6
PHANTOM
 48
0.2
100
AcDbCircle
 10
51.0
 20
407.9999759999997
 30
0.0
 40
1.0
100
AcDbArc
 50
179.9999909999999
 51
270.000001
  0
ARC
  5
A0CA
330
9E42
100
AcDbEntity
  8
5
  6
PHANTOM
 48
0.2
100
AcDbCircle
 10
55.0
 20
407.9999759999997
 30
0.0
 40
1.0
100
AcDbArc
 50
269.9999969999999
 51
0.0
  0
ARC
  5
A0CB
330
9E42
100
AcDbEntity
  8
5
  6
PHANTOM
 48
0.1
100
AcDbCircle
 10
53.0
 20
403.0000239999997
 30
0.0
 40
3.0
100
AcDbArc
 50
179.9999909999999
 51
0.00001
  0
LINE
  5
A0CC
330
9E42
100
AcDbEntity
  8
5
  6
PHANTOM
 48
0.1
100
AcDbLine
 10
55.0
 20
406.9999759999998
 30
0.0
 11
51.0
 21
406.9999759999998
 31
0.0
  0
LINE
  5
A0CD
330
9E42
100
AcDbEntity
  8
5
  6
PHANTOM
 48
0.1
100
AcDbLine
 10
50.0
 20
403.0000239999997
 30
0.0
 11
50.0
 21
408.099976
 31
0.0
  0
LINE
  5
A0CE
330
9E42
100
AcDbEntity
  8
5
  6
PHANTOM
 48
0.1
100
AcDbLine
 10
56.0
 20
403.0000239999997
 30
0.0
 11
56.0
 21
408.099976
 31
0.0
  0
CIRCLE
  5
A0CF
330
9E42
100
AcDbEntity
  8
5
  6
PHANTOM
 48
0.2
100
AcDbCircle
 10
44.0
 20
402.0
 30
0.0
 40
2.649999999999999
  0
LINE
  5
A0D0
330
9E42
100
AcDbEntity
  8
4
  6
CENTER
 48
0.2
100
AcDbLine
 10
44.0
 20
396.700012
 30
0.0
 11
44.0
 21
415.3499759999998
 31
0.0
  0
ARC
  5
A0D1
330
9E42
100
AcDbEntity
  8
5
  6
PHANTOM
 48
0.2
100
AcDbCircle
 10
53.0
 20
390.0
 30
0.0
 40
15.0
100
AcDbArc
 50
314.427004
 51
0.0
  0
LINE
  5
A0D2
330
9E42
100
AcDbEntity
  8
4
  6
CENTER
 48
0.2
100
AcDbLine
 10
62.0
 20
396.700012
 30
0.0
 11
62.0
 21
415.3499759999998
 31
0.0
  0
LINE
  5
A0D3
330
9E42
100
AcDbEntity
  8
5
  6
PHANTOM
 48
0.2
100
AcDbLine
 10
68.0
 20
390.0
 30
0.0
 11
68.0
 21
411.0
 31
0.0
  0
ARC
  5
A0D4
330
9E42
100
AcDbEntity
  8
1
  6
Continuous
100
AcDbCircle
 10
168.699997
 20
197.0
 30
0.0
 40
2.0
100
AcDbArc
 50
90.0
 51
180.0
  0
ARC
  5
A0D5
330
9E42
100
AcDbEntity
  8
1
  6
Continuous
100
AcDbCircle
 10
168.699997
 20
171.0
 30
0.0
 40
2.0
100
AcDbArc
 50
180.0
 51
270.0
  0
ARC
  5
A0D6
330
9E42
100
AcDbEntity
  8
1
  6
Continuous
100
AcDbCircle
 10
457.299988
 20
197.0
 30
0.0
 40
2.0
100
AcDbArc
 50
0.0
 51
90.0
  0
ARC
  5
A0D7
330
9E42
100
AcDbEntity
  8
1
  6
Continuous
100
AcDbCircle
 10
457.299988
 20
171.0
 30
0.0
 40
2.0
100
AcDbArc
 50
270.0
 51
0.0
  0
ARC
  5
A0D8
330
9E42
100
AcDbEntity
  8
1
  6
Continuous
100
AcDbCircle
 10
167.0
 20
56.0
 30
0.0
 40
2.0
100
AcDbArc
 50
180.0
 51
270.0
  0
ARC
  5
A0D9
330
9E42
100
AcDbEntity
  8
1
  6
Continuous
100
AcDbCircle
 10
167.0
 20
82.0
 30
0.0
 40
2.0
100
AcDbArc
 50
90.0
 51
180.0
  0
ARC
  5
A0DA
330
9E42
100
AcDbEntity
  8
1
  6
Continuous
100
AcDbCircle
 10
167.0
 20
617.0
 30
0.0
 40
2.0
100
AcDbArc
 50
90.0
 51
180.0
  0
ARC
  5
A0DB
330
9E42
100
AcDbEntity
  8
1
  6
Continuous
100
AcDbCircle
 10
167.0
 20
591.0
 30
0.0
 40
2.0
100
AcDbArc
 50
180.0
 51
270.0
  0
LINE
  5
A0FA
330
9E42
100
AcDbEntity
  8
1
  6
Continuous
100
AcDbLine
 10
190.600006
 20
192.850006
 30
0.0
 11
190.600006
 21
175.1499939999999
 31
0.0
  0
LINE
  5
A0FB
330
9E42
100
AcDbEntity
  8
1
  6
Continuous
100
AcDbLine
 10
190.700006
 20
77.00000000000001
 30
0.0
 11
190.700006
 21
58.900002
 31
0.0
  0
LINE
  5
A0FC
330
9E42
100
AcDbEntity
  8
1
  6
Continuous
100
AcDbLine
 10
195.1
 20
72.0
 30
0.0
 11
195.1
 21
69.499992
 31
0.0
  0
LINE
  5
A0FD
330
9E42
100
AcDbEntity
  8
1
  6
Continuous
100
AcDbLine
 10
195.1
 20
68.500008
 30
0.0
 11
195.1
 21
66.0
 31
0.0
  0
LINE
  5
A0FE
330
9E42
100
AcDbEntity
  8
1
  6
Continuous
100
AcDbLine
 10
195.0
 20
69.43332640000001
 30
0.0
 11
195.0
 21
68.56667466666666
 31
0.0
  0
LINE
  5
A0FF
330
9E42
100
AcDbEntity
  8
1
  6
Continuous
100
AcDbLine
 10
195.0
 20
66.0
 30
0.0
 11
195.0
 21
58.640076
 31
0.0
  0
ENDSEC
  0
SECTION
  2
OBJECTS
  0
DICTIONARY
  5
9E30
330
0
100
AcDbDictionary
281
     1
  3
ACAD_CIP_PREVIOUS_PRODUCT_INFO
350
A403
  3
ACAD_COLOR
350
A3E5
  3
ACAD_DETAILVIEWSTYLE
350
A3FE
  3
ACAD_GROUP
350
9E31
  3
ACAD_LAYOUT
350
9E3D
  3
ACAD_MATERIAL
350
A3B3
  3
ACAD_MLEADERSTYLE
350
A3FA
  3
ACAD_MLINESTYLE
350
9E3A
  3
ACAD_PLOTSETTINGS
350
9E3C
  3
ACAD_PLOTSTYLENAME
350
A3B1
  3
ACAD_SCALELIST
350
A3E8
  3
ACAD_SECTIONVIEWSTYLE
350
A3FC
  3
ACAD_TABLESTYLE
350
A3E6
  3
ACAD_VISUALSTYLE
350
A3CC
  3
ACDB_RECOMPOSE_DATA
350
A421
  3
AcDbVariableDictionary
350
A414
  3
DWGPROPS
350
A422
  0
DICTIONARY
  5
A404
330
9E34
100
AcDbDictionary
280
     1
281
     1
  3
ADSK_XREC_LAYER_RECONCILED
360
A405
  0
DICTIONARY
  5
A406
330
9E4A
100
AcDbDictionary
280
     1
281
     1
  3
ADSK_XREC_LAYER_RECONCILED
360
A407
  0
DICTIONARY
  5
A408
330
9E4B
100
AcDbDictionary
280
     1
281
     1
  3
ADSK_XREC_LAYER_RECONCILED
360
A409
  0
DICTIONARY
  5
A40A
330
9E4C
100
AcDbDictionary
280
     1
281
     1
  3
ADSK_XREC_LAYER_RECONCILED
360
A40B
  0
DICTIONARY
  5
A40C
330
9E4D
100
AcDbDictionary
280
     1
281
     1
  3
ADSK_XREC_LAYER_RECONCILED
360
A40D
  0
DICTIONARY
  5
A40E
330
9E4E
100
AcDbDictionary
280
     1
281
     1
  3
ADSK_XREC_LAYER_RECONCILED
360
A40F
  0
DICTIONARY
  5
A410
330
9E4F
100
AcDbDictionary
280
     1
281
     1
  3
ADSK_XREC_LAYER_RECONCILED
360
A411
  0
DICTIONARY
  5
A412
330
9E50
100
AcDbDictionary
280
     1
281
     1
  3
ADSK_XREC_LAYER_RECONCILED
360
A413
  0
DICTIONARY
  5
A0EA
330
9E42
100
AcDbDictionary
281
     1
  3
ACAD_LAYOUTSELFREF
350
A3AD
  0
DICTIONARY
  5
A0E8
330
9E3E
100
AcDbDictionary
281
     1
  3
ACAD_LAYOUTSELFREF
350
A3AC
  0
XRECORD
  5
A403
102
{ACAD_REACTORS
330
9E30
102
}
330
9E30
100
AcDbXrecord
280
     1
300
ACDLT
300
2014
300
ACDLT_F_S
  0
DICTIONARY
  5
A3E5
102
{ACAD_REACTORS
330
9E30
102
}
330
9E30
100
AcDbDictionary
281
     1
  0
DICTIONARY
  5
A3FE
102
{ACAD_REACTORS
330
9E30
102
}
330
9E30
100
AcDbDictionary
281
     1
  3
Imperial24
350
A3FF
  0
DICTIONARY
  5
9E31
102
{ACAD_REACTORS
330
9E30
102
}
330
9E30
100
AcDbDictionary
281
     1
  0
DICTIONARY
  5
9E3D
102
{ACAD_REACTORS
330
9E30
102
}
330
9E30
100
AcDbDictionary
281
     1
  3
Model
350
A400
  3
レイアウト1
350
A401
  0
DICTIONARY
  5
A3B3
102
{ACAD_REACTORS
330
9E30
102
}
330
9E30
100
AcDbDictionary
281
     1
  3
ByBlock
350
A3BC
  3
ByLayer
350
A3B4
  3
Global
350
A3C4
  0
DICTIONARY
  5
A3FA
102
{ACAD_REACTORS
330
9E30
102
}
330
9E30
100
AcDbDictionary
281
     1
  3
Standard
350
A3FB
  0
DICTIONARY
  5
9E3A
102
{ACAD_REACTORS
330
9E30
102
}
330
9E30
100
AcDbDictionary
281
     1
  3
STANDARD
350
9E3B
  0
DICTIONARY
  5
9E3C
102
{ACAD_REACTORS
330
9E30
102
}
330
9E30
100
AcDbDictionary
281
     1
  0
ACDBDICTIONARYWDFLT
  5
A3B1
102
{ACAD_REACTORS
330
9E30
102
}
330
9E30
100
AcDbDictionary
281
     1
  3
Normal
350
A3B2
100
AcDbDictionaryWithDefault
340
A3B2
  0
DICTIONARY
  5
A3E8
102
{ACAD_REACTORS
330
9E30
102
}
330
9E30
100
AcDbDictionary
281
     1
  3
A0
350
A3E9
  3
A1
350
A3EA
  3
A2
350
A3EB
  3
A3
350
A3EC
  3
A4
350
A3ED
  3
A5
350
A3EE
  3
A6
350
A3EF
  3
A7
350
A3F0
  3
A8
350
A3F1
  3
A9
350
A3F2
  3
B0
350
A3F3
  3
B1
350
A3F4
  3
B2
350
A3F5
  3
B3
350
A3F6
  3
B4
350
A3F7
  3
B5
350
A3F8
  3
B6
350
A3F9
  0
DICTIONARY
  5
A3FC
102
{ACAD_REACTORS
330
9E30
102
}
330
9E30
100
AcDbDictionary
281
     1
  3
Imperial24
350
A3FD
  0
DICTIONARY
  5
A3E6
102
{ACAD_REACTORS
330
9E30
102
}
330
9E30
100
AcDbDictionary
281
     1
  3
Standard
350
A3E7
  0
DICTIONARY
  5
A3CC
102
{ACAD_REACTORS
330
9E30
102
}
330
9E30
100
AcDbDictionary
281
     1
  3
2dWireframe
350
A3D2
  3
Basic
350
A3D1
  3
Brighten
350
A3D8
  3
ColorChange
350
A3DC
  3
Conceptual
350
A3D5
  3
Dim
350
A3D7
  3
EdgeColorOff
350
A3E4
  3
Facepattern
350
A3DB
  3
Flat
350
A3CD
  3
FlatWithEdges
350
A3CE
  3
Gouraud
350
A3CF
  3
GouraudWithEdges
350
A3D0
  3
Hidden
350
A3D4
  3
JitterOff
350
A3E2
  3
Linepattern
350
A3DA
  3
OverhangOff
350
A3E3
  3
Realistic
350
A3D6
  3
Shaded
350
A3E1
  3
Shaded with edges
350
A3E0
  3
Shades of Gray
350
A3DD
  3
Sketchy
350
A3DE
  3
Thicken
350
A3D9
  3
Wireframe
350
A3D3
  3
X-Ray
350
A3DF
  0
XRECORD
  5
A421
102
{ACAD_REACTORS
330
9E30
102
}
330
9E30
100
AcDbXrecord
280
     1
 90
        1
330
A3E7
  0
DICTIONARY
  5
A414
102
{ACAD_REACTORS
330
9E30
102
}
330
9E30
100
AcDbDictionary
281
     1
  3
CANNOSCALE
350
A419
  3
CMLEADERSTYLE
350
A416
  3
CTABLESTYLE
350
A415
  3
CVIEWDETAILSTYLE
350
A417
  3
CVIEWSECTIONSTYLE
350
A418
  3
DIMASSOC
350
A41C
  3
INDEXCTL
350
A41B
  3
SORTENTS
350
A41A
  3
XCLIPFRAME
350
A41D
  0
XRECORD
  5
A422
102
{ACAD_REACTORS
330
9E30
102
}
330
9E30
100
AcDbXrecord
280
     1
  1
DWGPROPS COOKIE
  2

  3

  4

  6

  7

  8
Yoshitsune
  9

300
=
301
=
302
=
303
=
304
=
305
=
306
=
307
=
308
=
309
=
 40
0.0261633796296296
 41
2451065.50592662
 42
2457192.622718576
  1

 90
        0
  0
XRECORD
  5
A405
102
{ACAD_REACTORS
330
A404
102
}
330
A404
100
AcDbXrecord
280
     1
290
     1
  0
XRECORD
  5
A407
102
{ACAD_REACTORS
330
A406
102
}
330
A406
100
AcDbXrecord
280
     1
290
     1
  0
XRECORD
  5
A409
102
{ACAD_REACTORS
330
A408
102
}
330
A408
100
AcDbXrecord
280
     1
290
     1
  0
XRECORD
  5
A40B
102
{ACAD_REACTORS
330
A40A
102
}
330
A40A
100
AcDbXrecord
280
     1
290
     1
  0
XRECORD
  5
A40D
102
{ACAD_REACTORS
330
A40C
102
}
330
A40C
100
AcDbXrecord
280
     1
290
     1
  0
XRECORD
  5
A40F
102
{ACAD_REACTORS
330
A40E
102
}
330
A40E
100
AcDbXrecord
280
     1
290
     1
  0
XRECORD
  5
A411
102
{ACAD_REACTORS
330
A410
102
}
330
A410
100
AcDbXrecord
280
     1
290
     1
  0
XRECORD
  5
A413
102
{ACAD_REACTORS
330
A412
102
}
330
A412
100
AcDbXrecord
280
     1
290
     1
  0
XRECORD
  5
A3AD
102
{ACAD_REACTORS
330
A0EA
102
}
330
A0EA
100
AcDbXrecord
280
     1
340
9E42
  0
XRECORD
  5
A3AC
102
{ACAD_REACTORS
330
A0E8
102
}
330
A0E8
100
AcDbXrecord
280
     1
340
9E3E
  0
ACDBDETAILVIEWSTYLE
  5
A3FF
102
{ACAD_XDICTIONARY
360
A45A
102
}
102
{ACAD_REACTORS
330
A3FE
102
}
330
A3FE
100
AcDbModelDocViewStyle
 70
     0
  3
Imperial24
290
     0
100
AcDbDetailViewStyle
 70
     0
 71
     0
 90
        3
 71
     1
340
9E35
 40
0.24
340
0
 40
0.24
300

 40
0.36
280
     3
 71
     2
340
9E39
 90
       25
 71
     3
340
9E35
 40
0.24
 90
        1
 40
0.75
 90
        1
300
%<\AcVar ViewType \f "%tc1">% %<\AcVar ViewDetailId>%\PSCALE %<\AcVar ViewScale \f "%sn">%
 71
     4
340
9E39
 90
       25
340
9E39
 90
       25
280
     0
  0
LAYOUT
  5
A400
102
{ACAD_XDICTIONARY
360
A45C
102
}
102
{ACAD_REACTORS
330
9E3D
102
}
330
9E3D
100
AcDbPlotSettings
  1

  2
Canon LBP9100C
  4

  6

 40
0.0
 41
0.0
 42
0.0
 43
0.0
 44
0.0
 45
0.0
 46
0.0
 47
0.0
 48
0.0
 49
0.0
140
0.0
141
0.0
142
1.0
143
1.0
 70
  1712
 72
     0
 73
     0
 74
     0
  7

 75
     0
147
1.0
148
0.0
149
0.0
100
AcDbLayout
  1
Model
 70
     1
 71
     0
 10
0.0
 20
0.0
 11
12.0
 21
9.0
 12
0.0
 22
0.0
 32
0.0
 14
0.0
 24
0.0
 34
0.0
 15
0.0
 25
0.0
 35
0.0
146
0.0
 13
0.0
 23
0.0
 33
0.0
 16
1.0
 26
0.0
 36
0.0
 17
0.0
 27
1.0
 37
0.0
 76
     0
330
9E42
331
A3AB
  0
LAYOUT
  5
A401
102
{ACAD_XDICTIONARY
360
A45E
102
}
102
{ACAD_REACTORS
330
9E3D
102
}
330
9E3D
100
AcDbPlotSettings
  1

  2
Canon LBP9100C
  4

  6

 40
0.0
 41
0.0
 42
0.0
 43
0.0
 44
0.0
 45
0.0
 46
0.0
 47
0.0
 48
0.0
 49
0.0
140
0.0
141
0.0
142
1.0
143
1.0
 70
   688
 72
     0
 73
     0
 74
     5
  7

 75
    16
147
1.0
148
0.0
149
0.0
100
AcDbLayout
  1
レイアウト1
 70
     0
 71
     1
 10
0.0
 20
0.0
 11
420.0
 21
297.0
 12
0.0
 22
0.0
 32
0.0
 14
1.000000000000000E+20
 24
1.000000000000000E+20
 34
1.000000000000000E+20
 15
-1.000000000000000E+20
 25
-1.000000000000000E+20
 35
-1.000000000000000E+20
146
0.0
 13
0.0
 23
0.0
 33
0.0
 16
1.0
 26
0.0
 36
0.0
 17
0.0
 27
1.0
 37
0.0
 76
     0
330
9E3E
  0
MATERIAL
  5
A3BC
102
{ACAD_XDICTIONARY
360
A3BD
102
}
102
{ACAD_REACTORS
330
A3B3
102
}
330
A3B3
100
AcDbMaterial
  1
ByBlock
 72
     0
 43
0.0208333333333333
 43
0.0
 43
0.0
 43
0.0
 43
0.0
 43
0.0208333333333333
 43
0.0
 43
0.0
 43
0.0
 43
0.0
 43
1.0
 43
0.0
 43
0.0
 43
0.0
 43
0.0
 43
1.0
 77
     0
 47
0.0208333333333333
 47
0.0
 47
0.0
 47
0.0
 47
0.0
 47
0.0208333333333333
 47
0.0
 47
0.0
 47
0.0
 47
0.0
 47
1.0
 47
0.0
 47
0.0
 47
0.0
 47
0.0
 47
1.0
171
     0
 49
0.0208333333333333
 49
0.0
 49
0.0
 49
0.0
 49
0.0
 49
0.0208333333333333
 49
0.0
 49
0.0
 49
0.0
 49
0.0
 49
1.0
 49
0.0
 49
0.0
 49
0.0
 49
0.0
 49
1.0
175
     0
142
0.0208333333333333
142
0.0
142
0.0
142
0.0
142
0.0
142
0.0208333333333333
142
0.0
142
0.0
142
0.0
142
0.0
142
1.0
142
0.0
142
0.0
142
0.0
142
0.0
142
1.0
179
     0
144
0.0208333333333333
144
0.0
144
0.0
144
0.0
144
0.0
144
0.0208333333333333
144
0.0
144
0.0
144
0.0
144
0.0
144
1.0
144
0.0
144
0.0
144
0.0
144
0.0
144
1.0
147
0.0208333333333333
147
0.0
147
0.0
147
0.0
147
0.0
147
0.0208333333333333
147
0.0
147
0.0
147
0.0
147
0.0
147
1.0
147
0.0
147
0.0
147
0.0
147
0.0
147
1.0
  0
MATERIAL
  5
A3B4
102
{ACAD_XDICTIONARY
360
A3B5
102
}
102
{ACAD_REACTORS
330
A3B3
102
}
330
A3B3
100
AcDbMaterial
  1
ByLayer
 72
     0
 43
0.0208333333333333
 43
0.0
 43
0.0
 43
0.0
 43
0.0
 43
0.0208333333333333
 43
0.0
 43
0.0
 43
0.0
 43
0.0
 43
1.0
 43
0.0
 43
0.0
 43
0.0
 43
0.0
 43
1.0
 77
     0
 47
0.0208333333333333
 47
0.0
 47
0.0
 47
0.0
 47
0.0
 47
0.0208333333333333
 47
0.0
 47
0.0
 47
0.0
 47
0.0
 47
1.0
 47
0.0
 47
0.0
 47
0.0
 47
0.0
 47
1.0
171
     0
 49
0.0208333333333333
 49
0.0
 49
0.0
 49
0.0
 49
0.0
 49
0.0208333333333333
 49
0.0
 49
0.0
 49
0.0
 49
0.0
 49
1.0
 49
0.0
 49
0.0
 49
0.0
 49
0.0
 49
1.0
175
     0
142
0.0208333333333333
142
0.0
142
0.0
142
0.0
142
0.0
142
0.0208333333333333
142
0.0
142
0.0
142
0.0
142
0.0
142
1.0
142
0.0
142
0.0
142
0.0
142
0.0
142
1.0
179
     0
144
0.0208333333333333
144
0.0
144
0.0
144
0.0
144
0.0
144
0.0208333333333333
144
0.0
144
0.0
144
0.0
144
0.0
144
1.0
144
0.0
144
0.0
144
0.0
144
0.0
144
1.0
147
0.0208333333333333
147
0.0
147
0.0
147
0.0
147
0.0
147
0.0208333333333333
147
0.0
147
0.0
147
0.0
147
0.0
147
1.0
147
0.0
147
0.0
147
0.0
147
0.0
147
1.0
  0
MATERIAL
  5
A3C4
102
{ACAD_XDICTIONARY
360
A3C5
102
}
102
{ACAD_REACTORS
330
A3B3
102
}
330
A3B3
100
AcDbMaterial
  1
Global
 72
     0
 43
0.0208333333333333
 43
0.0
 43
0.0
 43
0.0
 43
0.0
 43
0.0208333333333333
 43
0.0
 43
0.0
 43
0.0
 43
0.0
 43
1.0
 43
0.0
 43
0.0
 43
0.0
 43
0.0
 43
1.0
 77
     0
 47
0.0208333333333333
 47
0.0
 47
0.0
 47
0.0
 47
0.0
 47
0.0208333333333333
 47
0.0
 47
0.0
 47
0.0
 47
0.0
 47
1.0
 47
0.0
 47
0.0
 47
0.0
 47
0.0
 47
1.0
171
     0
 49
0.0208333333333333
 49
0.0
 49
0.0
 49
0.0
 49
0.0
 49
0.0208333333333333
 49
0.0
 49
0.0
 49
0.0
 49
0.0
 49
1.0
 49
0.0
 49
0.0
 49
0.0
 49
0.0
 49
1.0
175
     0
142
0.0208333333333333
142
0.0
142
0.0
142
0.0
142
0.0
142
0.0208333333333333
142
0.0
142
0.0
142
0.0
142
0.0
142
1.0
142
0.0
142
0.0
142
0.0
142
0.0
142
1.0
179
     0
144
0.0208333333333333
144
0.0
144
0.0
144
0.0
144
0.0
144
0.0208333333333333
144
0.0
144
0.0
144
0.0
144
0.0
144
1.0
144
0.0
144
0.0
144
0.0
144
0.0
144
1.0
147
0.0208333333333333
147
0.0
147
0.0
147
0.0
147
0.0
147
0.0208333333333333
147
0.0
147
0.0
147
0.0
147
0.0
147
1.0
147
0.0
147
0.0
147
0.0
147
0.0
147
1.0
  0
MLEADERSTYLE
  5
A3FB
102
{ACAD_REACTORS
330
A3FA
102
}
330
A3FA
100
AcDbMLeaderStyle
170
     2
171
     1
172
     0
 90
        2
 40
0.0
 41
0.0
173
     1
 91
-1056964608
340
9E37
 92
       -2
290
     1
 42
0.09
291
     1
 43
0.36
  3
Standard
 44
0.18
300

342
9E35
174
     1
178
     6
175
     1
176
     0
 93
-1056964608
 45
0.18
292
     0
297
     0
 46
0.18
 94
-1056964608
 47
1.0
 49
1.0
140
1.0
293
     1
141
0.0
294
     1
177
     0
142
1.0
295
     0
296
     0
143
0.125
1001
ACAD_MLEADERVER
1070
     2
  0
MLINESTYLE
  5
9E3B
102
{ACAD_REACTORS
330
9E3A
102
}
330
9E3A
100
AcDbMlineStyle
  2
STANDARD
 70
     0
  3

 62
   256
 51
90.0
 52
90.0
 71
     2
 49
0.5
 62
   256
  6
BYLAYER
 49
-0.5
 62
   256
  6
BYLAYER
  0
ACDBPLACEHOLDER
  5
A3B2
102
{ACAD_REACTORS
330
A3B1
102
}
330
A3B1
  0
SCALE
  5
A3E9
102
{ACAD_REACTORS
330
A3E8
102
}
330
A3E8
100
AcDbScale
 70
     0
300
1:1
140
1.0
141
1.0
290
     1
  0
SCALE
  5
A3EA
102
{ACAD_REACTORS
330
A3E8
102
}
330
A3E8
100
AcDbScale
 70
     0
300
1/128" = 1'-0"
140
0.0078125
141
12.0
290
     0
  0
SCALE
  5
A3EB
102
{ACAD_REACTORS
330
A3E8
102
}
330
A3E8
100
AcDbScale
 70
     0
300
1/64" = 1'-0"
140
0.015625
141
12.0
290
     0
  0
SCALE
  5
A3EC
102
{ACAD_REACTORS
330
A3E8
102
}
330
A3E8
100
AcDbScale
 70
     0
300
1/32" = 1'-0"
140
0.03125
141
12.0
290
     0
  0
SCALE
  5
A3ED
102
{ACAD_REACTORS
330
A3E8
102
}
330
A3E8
100
AcDbScale
 70
     0
300
1/16" = 1'-0"
140
0.0625
141
12.0
290
     0
  0
SCALE
  5
A3EE
102
{ACAD_REACTORS
330
A3E8
102
}
330
A3E8
100
AcDbScale
 70
     0
300
3/32" = 1'-0"
140
0.09375
141
12.0
290
     0
  0
SCALE
  5
A3EF
102
{ACAD_REACTORS
330
A3E8
102
}
330
A3E8
100
AcDbScale
 70
     0
300
1/8" = 1'-0"
140
0.125
141
12.0
290
     0
  0
SCALE
  5
A3F0
102
{ACAD_REACTORS
330
A3E8
102
}
330
A3E8
100
AcDbScale
 70
     0
300
3/16" = 1'-0"
140
0.1875
141
12.0
290
     0
  0
SCALE
  5
A3F1
102
{ACAD_REACTORS
330
A3E8
102
}
330
A3E8
100
AcDbScale
 70
     0
300
1/4" = 1'-0"
140
0.25
141
12.0
290
     0
  0
SCALE
  5
A3F2
102
{ACAD_REACTORS
330
A3E8
102
}
330
A3E8
100
AcDbScale
 70
     0
300
3/8" = 1'-0"
140
0.375
141
12.0
290
     0
  0
SCALE
  5
A3F3
102
{ACAD_REACTORS
330
A3E8
102
}
330
A3E8
100
AcDbScale
 70
     0
300
1/2" = 1'-0"
140
0.5
141
12.0
290
     0
  0
SCALE
  5
A3F4
102
{ACAD_REACTORS
330
A3E8
102
}
330
A3E8
100
AcDbScale
 70
     0
300
3/4" = 1'-0"
140
0.75
141
12.0
290
     0
  0
SCALE
  5
A3F5
102
{ACAD_REACTORS
330
A3E8
102
}
330
A3E8
100
AcDbScale
 70
     0
300
1" = 1'-0"
140
1.0
141
12.0
290
     0
  0
SCALE
  5
A3F6
102
{ACAD_REACTORS
330
A3E8
102
}
330
A3E8
100
AcDbScale
 70
     0
300
1-1/2" = 1'-0"
140
1.5
141
12.0
290
     0
  0
SCALE
  5
A3F7
102
{ACAD_REACTORS
330
A3E8
102
}
330
A3E8
100
AcDbScale
 70
     0
300
3" = 1'-0"
140
3.0
141
12.0
290
     0
  0
SCALE
  5
A3F8
102
{ACAD_REACTORS
330
A3E8
102
}
330
A3E8
100
AcDbScale
 70
     0
300
6" = 1'-0"
140
6.0
141
12.0
290
     0
  0
SCALE
  5
A3F9
102
{ACAD_REACTORS
330
A3E8
102
}
330
A3E8
100
AcDbScale
 70
     0
300
1'-0" = 1'-0"
140
12.0
141
12.0
290
     0
  0
ACDBSECTIONVIEWSTYLE
  5
A3FD
102
{ACAD_XDICTIONARY
360
A458
102
}
102
{ACAD_REACTORS
330
A3FC
102
}
330
A3FC
100
AcDbModelDocViewStyle
 70
     0
  3
Imperial24
290
     0
100
AcDbSectionViewStyle
 70
     0
 71
     0
 90
       78
 71
     1
340
9E35
 40
0.24
340
0
340
0
 40
0.24
300
I, O, Q, S, X, Z
 40
0.48
 90
        3
 40
0.18
 90
        1
 71
     2
340
9E39
 90
       25
340
9E39
 90
       50
 40
0.24
 40
0.0
 40
0.24
 71
     3
340
9E35
 40
0.24
 90
        1
 40
0.75
 90
        1
300
%<\AcVar ViewType \f "%tc1">% %<\AcVar ViewSectionStartId>%-%<\AcVar ViewSectionEndId>%\PSCALE %<\AcVar ViewScale \f "%sn">%
 71
     4
300
ANSI31
 40
1.0
 90
        0
290
     0
290
     0
 90
        6
 40
0.0
 40
1.570796326794896
 40
0.2617993877991494
 40
1.308996938995747
 40
-0.2617993877991494
 40
1.832595714594046
  0
TABLESTYLE
  5
A3E7
102
{ACAD_XDICTIONARY
360
A41F
102
}
102
{ACAD_REACTORS
330
A3E6
102
}
330
A3E6
100
AcDbTableStyle
  3
Standard
 70
     0
 71
     0
 40
0.06
 41
0.06
280
     0
281
     0
  7
STANDARD
140
0.18
170
     2
 62
     0
 63
     7
283
     0
274
    -2
284
     1
 64
     0
275
    -2
285
     1
 65
     0
276
    -2
286
     1
 66
     0
277
    -2
287
     1
 67
     0
278
    -2
288
     1
 68
     0
279
    -2
289
     1
 69
     0
  7
STANDARD
140
0.25
170
     5
 62
     0
 63
     7
283
     0
274
    -2
284
     1
 64
     0
275
    -2
285
     1
 65
     0
276
    -2
286
     1
 66
     0
277
    -2
287
     1
 67
     0
278
    -2
288
     1
 68
     0
279
    -2
289
     1
 69
     0
  7
STANDARD
140
0.18
170
     5
 62
     0
 63
     7
283
     0
274
    -2
284
     1
 64
     0
275
    -2
285
     1
 65
     0
276
    -2
286
     1
 66
     0
277
    -2
287
     1
 67
     0
278
    -2
288
     1
 68
     0
279
    -2
289
     1
 69
     0
  0
VISUALSTYLE
  5
A3D2
102
{ACAD_XDICTIONARY
360
A430
102
}
102
{ACAD_REACTORS
330
A3CC
102
}
330
A3CC
100
AcDbVisualStyle
  2
2dWireframe
 70
     4
 71
     0
 72
     2
 73
     0
 90
        0
 40
-0.6
 41
-30.0
 62
     5
 63
     7
 74
     1
 91
        4
 64
     7
 65
   257
 75
     1
175
     1
 42
1.0
 92
        0
 66
   257
 43
1.0
 76
     1
 77
     6
 78
     2
 67
     7
 79
     5
170
     0
171
     0
290
     0
174
     0
 93
        1
 44
0.0
173
     0
291
     0
 45
0.0
1001
ACAD
1000
AcDbSavedByObjectVersion
1070
     0
  0
VISUALSTYLE
  5
A3D1
102
{ACAD_XDICTIONARY
360
A42E
102
}
102
{ACAD_REACTORS
330
A3CC
102
}
330
A3CC
100
AcDbVisualStyle
  2
Basic
 70
     7
 71
     1
 72
     0
 73
     1
 90
        0
 40
-0.6
 41
-30.0
 62
     5
 63
     7
 74
     0
 91
        4
 64
     7
 65
   257
 75
     1
175
     1
 42
1.0
 92
        8
 66
     7
 43
1.0
 76
     1
 77
     6
 78
     2
 67
     7
 79
     5
170
     0
171
     0
290
     0
174
     0
 93
        1
 44
0.0
173
     0
291
     1
 45
0.0
1001
ACAD
1000
AcDbSavedByObjectVersion
1070
     0
  0
VISUALSTYLE
  5
A3D8
102
{ACAD_XDICTIONARY
360
A43C
102
}
102
{ACAD_REACTORS
330
A3CC
102
}
330
A3CC
100
AcDbVisualStyle
  2
Brighten
 70
    12
 71
     2
 72
     2
 73
     0
 90
        0
 40
-0.6
 41
-30.0
 62
     5
 63
     7
 74
     1
 91
        4
 64
     7
 65
   257
 75
     1
175
     1
 42
1.0
 92
        8
 66
     7
 43
1.0
 76
     1
 77
     6
 78
     2
 67
     7
 79
     5
170
     0
171
     0
290
     0
174
     0
 93
        1
 44
50.0
173
     0
291
     1
 45
0.0
1001
ACAD
1000
AcDbSavedByObjectVersion
1070
     0
  0
VISUALSTYLE
  5
A3DC
102
{ACAD_XDICTIONARY
360
A444
102
}
102
{ACAD_REACTORS
330
A3CC
102
}
330
A3CC
100
AcDbVisualStyle
  2
ColorChange
 70
    16
 71
     2
 72
     2
 73
     3
 90
        0
 40
-0.6
 41
-30.0
 62
     5
 63
     8
 74
     1
 91
        4
 64
     7
 65
   257
 75
     1
175
     1
 42
1.0
 92
        8
 66
     8
 43
1.0
 76
     1
 77
     6
 78
     2
 67
     7
 79
     5
170
     0
171
     0
290
     0
174
     0
 93
        1
 44
0.0
173
     0
291
     1
 45
0.0
1001
ACAD
1000
AcDbSavedByObjectVersion
1070
     0
  0
VISUALSTYLE
  5
A3D5
102
{ACAD_XDICTIONARY
360
A436
102
}
102
{ACAD_REACTORS
330
A3CC
102
}
330
A3CC
100
AcDbVisualStyle
  2
Conceptual
 70
     9
 71
     3
 72
     2
 73
     0
 90
        0
 40
-0.6
 41
-30.0
 62
     5
 63
     7
 74
     2
 91
        2
 64
     7
 65
   257
 75
     1
175
     1
 42
179.0
 92
        8
 66
     7
 43
1.0
 76
     1
 77
     6
 78
     2
 67
     7
 79
     3
170
     0
171
     0
290
     0
174
     0
 93
        1
 44
0.0
173
     0
291
     0
 45
0.0
1001
ACAD
1000
AcDbSavedByObjectVersion
1070
     0
  0
VISUALSTYLE
  5
A3D7
102
{ACAD_XDICTIONARY
360
A43A
102
}
102
{ACAD_REACTORS
330
A3CC
102
}
330
A3CC
100
AcDbVisualStyle
  2
Dim
 70
    11
 71
     2
 72
     2
 73
     0
 90
        0
 40
-0.6
 41
-30.0
 62
     5
 63
     7
 74
     1
 91
        4
 64
     7
 65
   257
 75
     1
175
     1
 42
1.0
 92
        8
 66
     7
 43
1.0
 76
     1
 77
     6
 78
     2
 67
     7
 79
     5
170
     0
171
     0
290
     0
174
     0
 93
        1
 44
-50.0
173
     0
291
     1
 45
0.0
1001
ACAD
1000
AcDbSavedByObjectVersion
1070
     0
  0
VISUALSTYLE
  5
A3E4
102
{ACAD_XDICTIONARY
360
A454
102
}
102
{ACAD_REACTORS
330
A3CC
102
}
330
A3CC
100
AcDbVisualStyle
  2
EdgeColorOff
 70
    22
 71
     2
 72
     2
 73
     0
 90
        0
 40
-0.6
 41
-30.0
 62
     5
 63
     7
 74
     1
 91
        4
 64
     7
 65
   257
 75
     1
175
     1
 42
1.0
 92
        8
 66
     7
 43
1.0
 76
     1
 77
     6
 78
     2
 67
     7
 79
     5
170
     0
171
     0
290
     0
174
     0
 93
        1
 44
0.0
173
     0
291
     1
 45
0.0
1001
ACAD
1000
AcDbSavedByObjectVersion
1070
     0
  0
VISUALSTYLE
  5
A3DB
102
{ACAD_XDICTIONARY
360
A442
102
}
102
{ACAD_REACTORS
330
A3CC
102
}
330
A3CC
100
AcDbVisualStyle
  2
Facepattern
 70
    15
 71
     2
 72
     2
 73
     0
 90
        0
 40
-0.6
 41
-30.0
 62
     5
 63
     7
 74
     1
 91
        4
 64
     7
 65
   257
 75
     1
175
     1
 42
1.0
 92
        8
 66
     7
 43
1.0
 76
     1
 77
     6
 78
     2
 67
     7
 79
     5
170
     0
171
     0
290
     0
174
     0
 93
        1
 44
0.0
173
     0
291
     1
 45
0.0
1001
ACAD
1000
AcDbSavedByObjectVersion
1070
     0
  0
VISUALSTYLE
  5
A3CD
102
{ACAD_XDICTIONARY
360
A426
102
}
102
{ACAD_REACTORS
330
A3CC
102
}
330
A3CC
100
AcDbVisualStyle
  2
Flat
 70
     0
 71
     2
 72
     1
 73
     1
 90
        2
 40
-0.6
 41
30.0
 62
     5
 63
     7
 74
     0
 91
        0
 64
     7
 65
   257
 75
     1
175
     1
 42
1.0
 92
        8
 66
     7
 43
1.0
 76
     1
 77
     6
 78
     2
 67
     7
 79
     5
170
     0
171
     0
290
     0
174
     0
 93
       13
 44
0.0
173
     0
291
     1
 45
0.0
1001
ACAD
1000
AcDbSavedByObjectVersion
1070
     0
  0
VISUALSTYLE
  5
A3CE
102
{ACAD_XDICTIONARY
360
A428
102
}
102
{ACAD_REACTORS
330
A3CC
102
}
330
A3CC
100
AcDbVisualStyle
  2
FlatWithEdges
 70
     1
 71
     2
 72
     1
 73
     1
 90
        2
 40
-0.6
 41
30.0
 62
     5
 63
     7
 74
     1
 91
        0
 64
     7
 65
   257
 75
     1
175
     1
 42
1.0
 92
        0
 66
   257
 43
1.0
 76
     1
 77
     6
 78
     2
 67
     7
 79
     5
170
     0
171
     0
290
     0
174
     0
 93
       13
 44
0.0
173
     0
291
     1
 45
0.0
1001
ACAD
1000
AcDbSavedByObjectVersion
1070
     0
  0
VISUALSTYLE
  5
A3CF
102
{ACAD_XDICTIONARY
360
A42A
102
}
102
{ACAD_REACTORS
330
A3CC
102
}
330
A3CC
100
AcDbVisualStyle
  2
Gouraud
 70
     2
 71
     2
 72
     2
 73
     1
 90
        2
 40
-0.6
 41
30.0
 62
     5
 63
     7
 74
     0
 91
        0
 64
     7
 65
   257
 75
     1
175
     1
 42
1.0
 92
        0
 66
     7
 43
1.0
 76
     1
 77
     6
 78
     2
 67
     7
 79
     5
170
     0
171
     0
290
     0
174
     0
 93
       13
 44
0.0
173
     0
291
     1
 45
0.0
1001
ACAD
1000
AcDbSavedByObjectVersion
1070
     0
  0
VISUALSTYLE
  5
A3D0
102
{ACAD_XDICTIONARY
360
A42C
102
}
102
{ACAD_REACTORS
330
A3CC
102
}
330
A3CC
100
AcDbVisualStyle
  2
GouraudWithEdges
 70
     3
 71
     2
 72
     2
 73
     1
 90
        2
 40
-0.6
 41
30.0
 62
     5
 63
     7
 74
     1
 91
        0
 64
     7
 65
   257
 75
     1
175
     1
 42
1.0
 92
        0
 66
   257
 43
1.0
 76
     1
 77
     6
 78
     2
 67
     7
 79
     5
170
     0
171
     0
290
     0
174
     0
 93
       13
 44
0.0
173
     0
291
     1
 45
0.0
1001
ACAD
1000
AcDbSavedByObjectVersion
1070
     0
  0
VISUALSTYLE
  5
A3D4
102
{ACAD_XDICTIONARY
360
A434
102
}
102
{ACAD_REACTORS
330
A3CC
102
}
330
A3CC
100
AcDbVisualStyle
  2
Hidden
 70
     6
 71
     1
 72
     2
 73
     2
 90
        0
 40
-0.6
 41
-30.0
 62
     5
 63
     7
 74
     2
 91
        2
 64
     7
 65
   257
 75
     2
175
     1
 42
40.0
 92
        0
 66
   257
 43
1.0
 76
     1
 77
     6
 78
     2
 67
     7
 79
     3
170
     0
171
     0
290
     0
174
     0
 93
        1
 44
0.0
173
     0
291
     0
 45
0.0
1001
ACAD
1000
AcDbSavedByObjectVersion
1070
     0
  0
VISUALSTYLE
  5
A3E2
102
{ACAD_XDICTIONARY
360
A450
102
}
102
{ACAD_REACTORS
330
A3CC
102
}
330
A3CC
100
AcDbVisualStyle
  2
JitterOff
 70
    20
 71
     2
 72
     2
 73
     0
 90
        0
 40
-0.6
 41
-30.0
 62
     5
 63
     7
 74
     1
 91
        4
 64
     7
 65
   257
 75
     1
175
     1
 42
1.0
 92
       10
 66
     7
 43
1.0
 76
     1
 77
     6
 78
     2
 67
     7
 79
     5
170
     0
171
     0
290
     0
174
     0
 93
        1
 44
0.0
173
     0
291
     1
 45
0.0
1001
ACAD
1000
AcDbSavedByObjectVersion
1070
     0
  0
VISUALSTYLE
  5
A3DA
102
{ACAD_XDICTIONARY
360
A440
102
}
102
{ACAD_REACTORS
330
A3CC
102
}
330
A3CC
100
AcDbVisualStyle
  2
Linepattern
 70
    14
 71
     2
 72
     2
 73
     0
 90
        0
 40
-0.6
 41
-30.0
 62
     5
 63
     7
 74
     1
 91
        4
 64
     7
 65
   257
 75
     7
175
     7
 42
1.0
 92
        8
 66
     7
 43
1.0
 76
     1
 77
     6
 78
     2
 67
     7
 79
     5
170
     0
171
     0
290
     0
174
     0
 93
        1
 44
0.0
173
     0
291
     1
 45
0.0
1001
ACAD
1000
AcDbSavedByObjectVersion
1070
     0
  0
VISUALSTYLE
  5
A3E3
102
{ACAD_XDICTIONARY
360
A452
102
}
102
{ACAD_REACTORS
330
A3CC
102
}
330
A3CC
100
AcDbVisualStyle
  2
OverhangOff
 70
    21
 71
     2
 72
     2
 73
     0
 90
        0
 40
-0.6
 41
-30.0
 62
     5
 63
     7
 74
     1
 91
        4
 64
     7
 65
   257
 75
     1
175
     1
 42
1.0
 92
        9
 66
     7
 43
1.0
 76
     1
 77
     6
 78
     2
 67
     7
 79
     5
170
     0
171
     0
290
     0
174
     0
 93
        1
 44
0.0
173
     0
291
     1
 45
0.0
1001
ACAD
1000
AcDbSavedByObjectVersion
1070
     0
  0
VISUALSTYLE
  5
A3D6
102
{ACAD_XDICTIONARY
360
A438
102
}
102
{ACAD_REACTORS
330
A3CC
102
}
330
A3CC
100
AcDbVisualStyle
  2
Realistic
 70
     8
 71
     2
 72
     3
 73
     0
 90
        2
 40
-0.6
 41
30.0
 62
     5
 63
     7
 74
     0
 91
        0
 64
     7
 65
   257
 75
     1
175
     1
 42
1.0
 92
        8
 66
   257
 43
1.0
 76
     1
 77
     6
 78
     2
 67
     7
 79
     3
170
     0
171
     0
290
     0
174
     0
 93
       13
 44
0.0
173
     0
291
     0
 45
0.0
1001
ACAD
1000
AcDbSavedByObjectVersion
1070
     0
  0
VISUALSTYLE
  5
A3E1
102
{ACAD_XDICTIONARY
360
A44E
102
}
102
{ACAD_REACTORS
330
A3CC
102
}
330
A3CC
100
AcDbVisualStyle
  2
Shaded
 70
    27
 71
     2
 72
     2
 73
     1
 90
        2
 40
-0.6
 41
30.0
 62
     5
 63
     7
 74
     0
 91
        4
 64
     7
 65
   257
 75
     1
175
     1
 42
1.0
 92
        8
 66
   257
 43
1.0
 76
     1
 77
     6
 78
     2
 67
     8
 79
     3
170
     0
171
     0
290
     0
174
     0
 93
        5
 44
0.0
173
     0
291
     0
 45
0.0
1001
ACAD
1000
AcDbSavedByObjectVersion
1070
     0
  0
VISUALSTYLE
  5
A3E0
102
{ACAD_XDICTIONARY
360
A44C
102
}
102
{ACAD_REACTORS
330
A3CC
102
}
330
A3CC
100
AcDbVisualStyle
  2
Shaded with edges
 70
    26
 71
     2
 72
     2
 73
     1
 90
        2
 40
-0.6
 41
30.0
 62
     5
 63
     7
 74
     1
 91
       10
 64
     7
 65
   257
 75
     2
175
     1
 42
1.0
 92
        8
 66
   257
 43
1.0
 76
     1
 77
     6
 78
     2
 67
     7
 79
     3
170
     0
171
     0
290
     0
174
     0
 93
        5
 44
0.0
173
     0
291
     0
 45
0.0
1001
ACAD
1000
AcDbSavedByObjectVersion
1070
     0
  0
VISUALSTYLE
  5
A3DD
102
{ACAD_XDICTIONARY
360
A446
102
}
102
{ACAD_REACTORS
330
A3CC
102
}
330
A3CC
100
AcDbVisualStyle
  2
Shades of Gray
 70
    23
 71
     2
 72
     2
 73
     3
 90
        0
 40
-0.6
 41
-30.0
 62
     5
 63
     7
 74
     2
 91
        2
 64
     7
 65
     7
 75
     1
175
     1
 42
40.0
 92
        8
 66
     7
 43
1.0
 76
     1
 77
     6
 78
     2
 67
     7
 79
     3
170
     0
171
     0
290
     0
174
     0
 93
        1
 44
0.0
173
     0
291
     0
 45
0.0
1001
ACAD
1000
AcDbSavedByObjectVersion
1070
     0
  0
VISUALSTYLE
  5
A3DE
102
{ACAD_XDICTIONARY
360
A448
102
}
102
{ACAD_REACTORS
330
A3CC
102
}
330
A3CC
100
AcDbVisualStyle
  2
Sketchy
 70
    24
 71
     1
 72
     2
 73
     2
 90
        0
 40
-0.6
 41
-30.0
 62
     5
 63
     7
 74
     2
 91
        2
 64
     7
 65
     7
 75
     1
175
     1
 42
40.0
 92
       11
 66
     7
 43
1.0
 76
     1
 77
     6
 78
     2
 67
     7
 79
     6
170
     0
171
     0
290
     0
174
     0
 93
        1
 44
0.0
173
     0
291
     0
 45
0.0
1001
ACAD
1000
AcDbSavedByObjectVersion
1070
     0
  0
VISUALSTYLE
  5
A3D9
102
{ACAD_XDICTIONARY
360
A43E
102
}
102
{ACAD_REACTORS
330
A3CC
102
}
330
A3CC
100
AcDbVisualStyle
  2
Thicken
 70
    13
 71
     2
 72
     2
 73
     0
 90
        0
 40
-0.6
 41
-30.0
 62
     5
 63
     7
 74
     1
 91
        4
 64
     7
 65
   257
 75
     1
175
     1
 42
1.0
 92
       12
 66
     7
 43
1.0
 76
     1
 77
     6
 78
     2
 67
     7
 79
     5
170
     0
171
     0
290
     0
174
     0
 93
        1
 44
0.0
173
     0
291
     1
 45
0.0
1001
ACAD
1000
AcDbSavedByObjectVersion
1070
     0
  0
VISUALSTYLE
  5
A3D3
102
{ACAD_XDICTIONARY
360
A432
102
}
102
{ACAD_REACTORS
330
A3CC
102
}
330
A3CC
100
AcDbVisualStyle
  2
Wireframe
 70
     5
 71
     0
 72
     2
 73
     0
 90
        0
 40
-0.6
 41
-30.0
 62
     5
 63
     7
 74
     1
 91
        4
 64
     7
 65
   257
 75
     1
175
     1
 42
1.0
 92
        0
 66
   257
 43
1.0
 76
     1
 77
     6
 78
     2
 67
     7
 79
     3
170
     0
171
     0
290
     0
174
     0
 93
        1
 44
0.0
173
     0
291
     0
 45
0.0
1001
ACAD
1000
AcDbSavedByObjectVersion
1070
     0
  0
VISUALSTYLE
  5
A3DF
102
{ACAD_XDICTIONARY
360
A44A
102
}
102
{ACAD_REACTORS
330
A3CC
102
}
330
A3CC
100
AcDbVisualStyle
  2
X-Ray
 70
    25
 71
     2
 72
     2
 73
     1
 90
        1
 40
0.5
 41
-30.0
 62
     5
 63
     7
 74
     1
 91
        0
 64
     7
 65
   257
 75
     1
175
     1
 42
1.0
 92
        8
 66
     7
 43
1.0
 76
     1
 77
     6
 78
     2
 67
     7
 79
     3
170
     0
171
     0
290
     0
174
     0
 93
       13
 44
0.0
173
     0
291
     0
 45
0.0
1001
ACAD
1000
AcDbSavedByObjectVersion
1070
     0
  0
DICTIONARYVAR
  5
A419
102
{ACAD_REACTORS
330
A414
102
}
330
A414
100
DictionaryVariables
280
     0
  1
1:1
  0
DICTIONARYVAR
  5
A416
102
{ACAD_REACTORS
330
A414
102
}
330
A414
100
DictionaryVariables
280
     0
  1
STANDARD
  0
DICTIONARYVAR
  5
A415
102
{ACAD_REACTORS
330
A414
102
}
330
A414
100
DictionaryVariables
280
     0
  1
STANDARD
  0
DICTIONARYVAR
  5
A417
102
{ACAD_REACTORS
330
A414
102
}
330
A414
100
DictionaryVariables
280
     0
  1
Imperial24
  0
DICTIONARYVAR
  5
A418
102
{ACAD_REACTORS
330
A414
102
}
330
A414
100
DictionaryVariables
280
     0
  1
Imperial24
  0
DICTIONARYVAR
  5
A41C
102
{ACAD_REACTORS
330
A414
102
}
330
A414
100
DictionaryVariables
280
     0
  1
1
  0
DICTIONARYVAR
  5
A41B
102
{ACAD_REACTORS
330
A414
102
}
330
A414
100
DictionaryVariables
280
     0
  1
0
  0
DICTIONARYVAR
  5
A41A
102
{ACAD_REACTORS
330
A414
102
}
330
A414
100
DictionaryVariables
280
     0
  1
127
  0
DICTIONARYVAR
  5
A41D
102
{ACAD_REACTORS
330
A414
102
}
330
A414
100
DictionaryVariables
280
     0
  1
2
  0
DICTIONARY
  5
A45A
330
A3FF
100
AcDbDictionary
280
     1
281
     1
  3
ACAD_XREC_ROUNDTRIP
360
A45B
  0
DICTIONARY
  5
A45C
330
A400
100
AcDbDictionary
280
     1
281
     1
  3
ACAD_XREC_ROUNDTRIP
360
A45D
  0
DICTIONARY
  5
A45E
330
A401
100
AcDbDictionary
280
     1
281
     1
  3
ACAD_XREC_ROUNDTRIP
360
A45F
  0
DICTIONARY
  5
A3BD
330
A3BC
100
AcDbDictionary
280
     1
281
     1
  3
ACAD_XREC_ROUNDTRIP
360
A424
  3
BUMPTILE
360
A3BF
  3
DIFFUSETILE
360
A3BE
  3
OPACITYTILE
360
A3C2
  3
REFLECTIONTILE
360
A3C1
  3
REFRACTIONTILE
360
A3C3
  3
SPECULARTILE
360
A3C0
  0
DICTIONARY
  5
A3B5
330
A3B4
100
AcDbDictionary
280
     1
281
     1
  3
ACAD_XREC_ROUNDTRIP
360
A423
  3
BUMPTILE
360
A3B7
  3
DIFFUSETILE
360
A3B6
  3
OPACITYTILE
360
A3BA
  3
REFLECTIONTILE
360
A3B9
  3
REFRACTIONTILE
360
A3BB
  3
SPECULARTILE
360
A3B8
  0
DICTIONARY
  5
A3C5
330
A3C4
100
AcDbDictionary
280
     1
281
     1
  3
ACAD_XREC_ROUNDTRIP
360
A425
  3
BUMPTILE
360
A3C7
  3
DIFFUSETILE
360
A3C6
  3
OPACITYTILE
360
A3CA
  3
REFLECTIONTILE
360
A3C9
  3
REFRACTIONTILE
360
A3CB
  3
SPECULARTILE
360
A3C8
  0
DICTIONARY
  5
A458
330
A3FD
100
AcDbDictionary
280
     1
281
     1
  3
ACAD_XREC_ROUNDTRIP
360
A459
  0
DICTIONARY
  5
A41F
330
A3E7
100
AcDbDictionary
280
     1
281
     1
  3
ACAD_ROUNDTRIP_2008_TABLESTYLE_CELLSTYLEMAP
360
A420
  3
ACAD_XREC_ROUNDTRIP
360
A456
  0
DICTIONARY
  5
A430
330
A3D2
100
AcDbDictionary
280
     1
281
     1
  3
ACAD_XREC_ROUNDTRIP
360
A431
  0
DICTIONARY
  5
A42E
330
A3D1
100
AcDbDictionary
280
     1
281
     1
  3
ACAD_XREC_ROUNDTRIP
360
A42F
  0
DICTIONARY
  5
A43C
330
A3D8
100
AcDbDictionary
280
     1
281
     1
  3
ACAD_XREC_ROUNDTRIP
360
A43D
  0
DICTIONARY
  5
A444
330
A3DC
100
AcDbDictionary
280
     1
281
     1
  3
ACAD_XREC_ROUNDTRIP
360
A445
  0
DICTIONARY
  5
A436
330
A3D5
100
AcDbDictionary
280
     1
281
     1
  3
ACAD_XREC_ROUNDTRIP
360
A437
  0
DICTIONARY
  5
A43A
330
A3D7
100
AcDbDictionary
280
     1
281
     1
  3
ACAD_XREC_ROUNDTRIP
360
A43B
  0
DICTIONARY
  5
A454
330
A3E4
100
AcDbDictionary
280
     1
281
     1
  3
ACAD_XREC_ROUNDTRIP
360
A455
  0
DICTIONARY
  5
A442
330
A3DB
100
AcDbDictionary
280
     1
281
     1
  3
ACAD_XREC_ROUNDTRIP
360
A443
  0
DICTIONARY
  5
A426
330
A3CD
100
AcDbDictionary
280
     1
281
     1
  3
ACAD_XREC_ROUNDTRIP
360
A427
  0
DICTIONARY
  5
A428
330
A3CE
100
AcDbDictionary
280
     1
281
     1
  3
ACAD_XREC_ROUNDTRIP
360
A429
  0
DICTIONARY
  5
A42A
330
A3CF
100
AcDbDictionary
280
     1
281
     1
  3
ACAD_XREC_ROUNDTRIP
360
A42B
  0
DICTIONARY
  5
A42C
330
A3D0
100
AcDbDictionary
280
     1
281
     1
  3
ACAD_XREC_ROUNDTRIP
360
A42D
  0
DICTIONARY
  5
A434
330
A3D4
100
AcDbDictionary
280
     1
281
     1
  3
ACAD_XREC_ROUNDTRIP
360
A435
  0
DICTIONARY
  5
A450
330
A3E2
100
AcDbDictionary
280
     1
281
     1
  3
ACAD_XREC_ROUNDTRIP
360
A451
  0
DICTIONARY
  5
A440
330
A3DA
100
AcDbDictionary
280
     1
281
     1
  3
ACAD_XREC_ROUNDTRIP
360
A441
  0
DICTIONARY
  5
A452
330
A3E3
100
AcDbDictionary
280
     1
281
     1
  3
ACAD_XREC_ROUNDTRIP
360
A453
  0
DICTIONARY
  5
A438
330
A3D6
100
AcDbDictionary
280
     1
281
     1
  3
ACAD_XREC_ROUNDTRIP
360
A439
  0
DICTIONARY
  5
A44E
330
A3E1
100
AcDbDictionary
280
     1
281
     1
  3
ACAD_XREC_ROUNDTRIP
360
A44F
  0
DICTIONARY
  5
A44C
330
A3E0
100
AcDbDictionary
280
     1
281
     1
  3
ACAD_XREC_ROUNDTRIP
360
A44D
  0
DICTIONARY
  5
A446
330
A3DD
100
AcDbDictionary
280
     1
281
     1
  3
ACAD_XREC_ROUNDTRIP
360
A447
  0
DICTIONARY
  5
A448
330
A3DE
100
AcDbDictionary
280
     1
281
     1
  3
ACAD_XREC_ROUNDTRIP
360
A449
  0
DICTIONARY
  5
A43E
330
A3D9
100
AcDbDictionary
280
     1
281
     1
  3
ACAD_XREC_ROUNDTRIP
360
A43F
  0
DICTIONARY
  5
A432
330
A3D3
100
AcDbDictionary
280
     1
281
     1
  3
ACAD_XREC_ROUNDTRIP
360
A433
  0
DICTIONARY
  5
A44A
330
A3DF
100
AcDbDictionary
280
     1
281
     1
  3
ACAD_XREC_ROUNDTRIP
360
A44B
  0
XRECORD
  5
A45B
102
{ACAD_REACTORS
330
A45A
102
}
330
A45A
100
AcDbXrecord
280
     1
102
DISPLAYNAME
  1
Imperial24
102
FLAGS
 90
        0
  0
XRECORD
  5
A45D
102
{ACAD_REACTORS
330
A45C
102
}
330
A45C
100
AcDbXrecord
280
     1
102
SHADEPLOT
 70
     0
102
SHADEPLOTRESLEVEL
 70
     2
102
SHADEPLOTCUSTOMDPI
 70
   300
  0
XRECORD
  5
A45F
102
{ACAD_REACTORS
330
A45E
102
}
330
A45E
100
AcDbXrecord
280
     1
102
SHADEPLOT
 70
     0
102
SHADEPLOTRESLEVEL
 70
     2
102
SHADEPLOTCUSTOMDPI
 70
   300
  0
XRECORD
  5
A424
102
{ACAD_REACTORS
330
A3BD
102
}
330
A3BD
100
AcDbXrecord
280
     1
102
MATERIAL
148
0.0
149
0.0
149
0.0
 93
        0
 94
      127
282
     0
 72
     0
 77
     0
171
     0
175
     0
179
     0
273
     0
  0
XRECORD
  5
A3BF
102
{ACAD_REACTORS
330
A3BD
102
}
330
A3BD
100
AcDbXrecord
280
     1
270
     1
271
     1
  0
XRECORD
  5
A3BE
102
{ACAD_REACTORS
330
A3BD
102
}
330
A3BD
100
AcDbXrecord
280
     1
270
     1
271
     1
  0
XRECORD
  5
A3C2
102
{ACAD_REACTORS
330
A3BD
102
}
330
A3BD
100
AcDbXrecord
280
     1
270
     1
271
     1
  0
XRECORD
  5
A3C1
102
{ACAD_REACTORS
330
A3BD
102
}
330
A3BD
100
AcDbXrecord
280
     1
270
     1
271
     1
  0
XRECORD
  5
A3C3
102
{ACAD_REACTORS
330
A3BD
102
}
330
A3BD
100
AcDbXrecord
280
     1
270
     1
271
     1
  0
XRECORD
  5
A3C0
102
{ACAD_REACTORS
330
A3BD
102
}
330
A3BD
100
AcDbXrecord
280
     1
270
     1
271
     1
  0
XRECORD
  5
A423
102
{ACAD_REACTORS
330
A3B5
102
}
330
A3B5
100
AcDbXrecord
280
     1
102
MATERIAL
148
0.0
149
0.0
149
0.0
 93
        0
 94
      127
282
     0
 72
     0
 77
     0
171
     0
175
     0
179
     0
273
     0
  0
XRECORD
  5
A3B7
102
{ACAD_REACTORS
330
A3B5
102
}
330
A3B5
100
AcDbXrecord
280
     1
270
     1
271
     1
  0
XRECORD
  5
A3B6
102
{ACAD_REACTORS
330
A3B5
102
}
330
A3B5
100
AcDbXrecord
280
     1
270
     1
271
     1
  0
XRECORD
  5
A3BA
102
{ACAD_REACTORS
330
A3B5
102
}
330
A3B5
100
AcDbXrecord
280
     1
270
     1
271
     1
  0
XRECORD
  5
A3B9
102
{ACAD_REACTORS
330
A3B5
102
}
330
A3B5
100
AcDbXrecord
280
     1
270
     1
271
     1
  0
XRECORD
  5
A3BB
102
{ACAD_REACTORS
330
A3B5
102
}
330
A3B5
100
AcDbXrecord
280
     1
270
     1
271
     1
  0
XRECORD
  5
A3B8
102
{ACAD_REACTORS
330
A3B5
102
}
330
A3B5
100
AcDbXrecord
280
     1
270
     1
271
     1
  0
XRECORD
  5
A425
102
{ACAD_REACTORS
330
A3C5
102
}
330
A3C5
100
AcDbXrecord
280
     1
102
MATERIAL
148
0.0
149
0.0
149
0.0
 93
        0
 94
      127
282
     0
 72
     0
 77
     0
171
     0
175
     0
179
     0
273
     0
  0
XRECORD
  5
A3C7
102
{ACAD_REACTORS
330
A3C5
102
}
330
A3C5
100
AcDbXrecord
280
     1
270
     1
271
     1
  0
XRECORD
  5
A3C6
102
{ACAD_REACTORS
330
A3C5
102
}
330
A3C5
100
AcDbXrecord
280
     1
270
     1
271
     1
  0
XRECORD
  5
A3CA
102
{ACAD_REACTORS
330
A3C5
102
}
330
A3C5
100
AcDbXrecord
280
     1
270
     1
271
     1
  0
XRECORD
  5
A3C9
102
{ACAD_REACTORS
330
A3C5
102
}
330
A3C5
100
AcDbXrecord
280
     1
270
     1
271
     1
  0
XRECORD
  5
A3CB
102
{ACAD_REACTORS
330
A3C5
102
}
330
A3C5
100
AcDbXrecord
280
     1
270
     1
271
     1
  0
XRECORD
  5
A3C8
102
{ACAD_REACTORS
330
A3C5
102
}
330
A3C5
100
AcDbXrecord
280
     1
270
     1
271
     1
  0
XRECORD
  5
A459
102
{ACAD_REACTORS
330
A458
102
}
330
A458
100
AcDbXrecord
280
     1
102
DISPLAYNAME
  1
Imperial24
102
FLAGS
 90
        0
  0
CELLSTYLEMAP
  5
A420
102
{ACAD_REACTORS
330
A41F
102
}
330
A41F
100
AcDbCellStyleMap
 90
        3
300
CELLSTYLE
  1
TABLEFORMAT_BEGIN
 90
        5
170
     1
 91
        0
 92
    32768
 62
   257
 93
        1
300
CONTENTFORMAT
  1
CONTENTFORMAT_BEGIN
 90
        0
 91
        0
 92
      512
 93
        0
300

 40
0.0
140
1.0
 94
        5
 62
     0
340
9E35
144
0.25
309
CONTENTFORMAT_END
171
     0
 94
        0
309
TABLEFORMAT_END
  1
CELLSTYLE_BEGIN
 90
        1
 91
        1
300
_TITLE
309
CELLSTYLE_END
300
CELLSTYLE
  1
TABLEFORMAT_BEGIN
 90
        5
170
     1
 91
        0
 92
        0
 62
   257
 93
        1
300
CONTENTFORMAT
  1
CONTENTFORMAT_BEGIN
 90
        0
 91
        0
 92
      512
 93
        0
300

 40
0.0
140
1.0
 94
        5
 62
     0
340
9E35
144
0.18
309
CONTENTFORMAT_END
171
     0
 94
        0
309
TABLEFORMAT_END
  1
CELLSTYLE_BEGIN
 90
        2
 91
        1
300
_HEADER
309
CELLSTYLE_END
300
CELLSTYLE
  1
TABLEFORMAT_BEGIN
 90
        5
170
     1
 91
        0
 92
        0
 62
   257
 93
        1
300
CONTENTFORMAT
  1
CONTENTFORMAT_BEGIN
 90
        0
 91
        0
 92
      512
 93
        0
300

 40
0.0
140
1.0
 94
        2
 62
     0
340
9E35
144
0.18
309
CONTENTFORMAT_END
171
     0
 94
        0
309
TABLEFORMAT_END
  1
CELLSTYLE_BEGIN
 90
        3
 91
        2
300
_DATA
309
CELLSTYLE_END
  0
XRECORD
  5
A456
102
{ACAD_REACTORS
330
A41F
102
}
330
A41F
100
AcDbXrecord
280
     1
102
ACAD_ROUNDTRIP_PRE2007_TABLESTYLE
 90
      512
 91
        0
  1

 92
      512
 93
        0
  2

 94
      512
 95
        0
  3

  0
XRECORD
  5
A431
102
{ACAD_REACTORS
330
A430
102
}
330
A430
100
AcDbXrecord
280
     1
102
RTVSPost2010Prop28
280
     1
102
RTVSPost2010PropOp28
 70
     1
102
RTVSPost2010Prop29
280
     1
102
RTVSPost2010PropOp29
 70
     1
102
RTVSPost2010Prop30
280
     0
102
RTVSPost2010PropOp30
 70
     1
102
RTVSPost2010Prop31
280
     0
102
RTVSPost2010PropOp31
 70
     1
102
RTVSPost2010Prop32
280
     0
102
RTVSPost2010PropOp32
 70
     1
102
RTVSPost2010Prop33
280
     0
102
RTVSPost2010PropOp33
 70
     1
102
RTVSPost2010Prop34
280
     0
102
RTVSPost2010PropOp34
 70
     1
102
RTVSPost2010Prop35
280
     0
102
RTVSPost2010PropOp35
 70
     1
102
RTVSPost2010Prop36
280
     0
102
RTVSPost2010PropOp36
 70
     1
102
RTVSPost2010Prop37
 90
       50
102
RTVSPost2010PropOp37
 70
     1
102
RTVSPost2010Prop38
140
0.0
102
RTVSPost2010PropOp38
 70
     1
102
RTVSPost2010Prop39
140
1.0
102
RTVSPost2010PropOp39
 70
     1
102
RTVSPost2010Prop40
 90
        0
102
RTVSPost2010PropOp40
 70
     1
102
RTVSPost2010Prop41ColorIndex
 90
       18
102
RTVSPost2010Prop41ColorRGB
 90
        0
102
RTVSPost2010PropOp41
 70
     1
102
RTVSPost2010Prop42
 90
       50
102
RTVSPost2010PropOp42
 70
     1
102
RTVSPost2010Prop43
 90
        3
102
RTVSPost2010PropOp43
 70
     1
102
RTVSPost2010Prop44ColorIndex
 90
        5
102
RTVSPost2010Prop44ColorRGB
 90
      255
102
RTVSPost2010PropOp44
 70
     1
102
RTVSPost2010Prop45
280
     0
102
RTVSPost2010PropOp45
 70
     1
102
RTVSPost2010Prop46
 90
       50
102
RTVSPost2010PropOp46
 70
     1
102
RTVSPost2010Prop47
 90
       50
102
RTVSPost2010PropOp47
 70
     1
102
RTVSPost2010Prop48
 90
       50
102
RTVSPost2010PropOp48
 70
     1
102
RTVSPost2010Prop49
280
     0
102
RTVSPost2010PropOp49
 70
     1
102
RTVSPost2010Prop50
 90
       50
102
RTVSPost2010PropOp50
 70
     1
102
RTVSPost2010Prop51ColorIndex
 90
      256
102
RTVSPost2010Prop51ColorRGB
 90
-16777216
102
RTVSPost2010PropOp51
 70
     0
102
RTVSPost2010Prop52
140
1.0
102
RTVSPost2010PropOp52
 70
     0
102
RTVSPost2010Prop53
 90
        2
102
RTVSPost2010PropOp53
 70
     1
102
RTVSPost2010Prop54
  1
strokes_ogs.tif
102
RTVSPost2010PropOp54
 70
     1
102
RTVSPost2010Prop55
280
     0
102
RTVSPost2010PropOp55
 70
     1
102
RTVSPost2010Prop56
140
1.0
102
RTVSPost2010PropOp56
 70
     1
102
RTVSPost2010Prop57
140
1.0
102
RTVSPost2010PropOp57
 70
     1
102
RTVSPropertyOp0
 70
     1
102
RTVSPropertyOp1
 70
     1
102
RTVSPropertyOp2
 70
     1
102
RTVSPropertyOp3
 70
     1
102
RTVSPropertyOp4
 70
     1
102
RTVSPropertyOp5
 70
     1
102
RTVSPropertyOp6
 70
     1
102
RTVSPropertyOp7
 70
     1
102
RTVSPropertyOp8
 70
     1
102
RTVSPropertyOp9
 70
     1
102
RTVSPropertyOp10
 70
     1
102
RTVSPropertyOp11
 70
     1
102
RTVSPropertyOp12
 70
     1
102
RTVSPropertyOp13
 70
     1
102
RTVSPropertyOp14
 70
     1
102
RTVSPropertyOp15
 70
     1
102
RTVSPropertyOp16
 70
     1
102
RTVSPropertyOp17
 70
     1
102
RTVSPropertyOp18
 70
     1
102
RTVSPropertyOp19
 70
     1
102
RTVSPropertyOp20
 70
     1
102
RTVSPropertyOp21
 70
     1
102
RTVSPropertyOp22
 70
     1
102
RTVSPropertyOp23
 70
     1
102
RTVSPropertyOp24
 70
     1
102
RTVSPropertyOp25
 70
     1
102
RTVSPropertyOp26
 70
     1
102
RTVSPropertyOp27
 70
     1
102
RTVSPropertyOp28
 70
     1
102
RTVSPropertyOp29
 70
     1
102
RTVSPropertyOp30
 70
     1
102
RTVSPropertyOp31
 70
     1
102
RTVSPropertyOp32
 70
     1
102
RTVSPropertyOp33
 70
     1
102
RTVSPropertyOp34
 70
     1
102
RTVSPropertyOp35
 70
     1
102
RTVSPropertyOp36
 70
     1
102
RTVSPropertyOp37
 70
     1
102
RTVSPropertyOp38
 70
     1
102
RTVSPropertyOp39
 70
     1
102
RTVSPropertyOp40
 70
     1
102
RTVSPropertyOp41
 70
     1
102
RTVSPropertyOp42
 70
     1
102
RTVSPropertyOp43
 70
     1
102
RTVSPropertyOp44
 70
     1
102
RTVSPropertyOp45
 70
     1
102
RTVSPropertyOp46
 70
     1
102
RTVSPropertyOp47
 70
     1
102
RTVSPropertyOp48
 70
     1
102
RTVSPropertyOp49
 70
     1
102
RTVSPropertyOp50
 70
     1
102
RTVSPropertyOp51
 70
     0
102
RTVSPropertyOp52
 70
     0
102
RTVSPropertyOp53
 70
     1
102
RTVSPropertyOp54
 70
     1
102
RTVSPropertyOp55
 70
     1
102
RTVSPropertyOp56
 70
     1
102
RTVSPropertyOp57
 70
     1
102
RTVSPropertyOp58
 70
     1
102
RTVSPropertyOp59
 70
     1
102
RTVSPropertyOp60
 70
     1
102
RTVSPropertyOp61
 70
     1
102
RTVSPropertyOp62
 70
     1
  0
XRECORD
  5
A42F
102
{ACAD_REACTORS
330
A42E
102
}
330
A42E
100
AcDbXrecord
280
     1
102
RTVSPost2010Prop28
280
     0
102
RTVSPost2010PropOp28
 70
     1
102
RTVSPost2010Prop29
280
     1
102
RTVSPost2010PropOp29
 70
     1
102
RTVSPost2010Prop30
280
     1
102
RTVSPost2010PropOp30
 70
     1
102
RTVSPost2010Prop31
280
     0
102
RTVSPost2010PropOp31
 70
     1
102
RTVSPost2010Prop32
280
     0
102
RTVSPost2010PropOp32
 70
     1
102
RTVSPost2010Prop33
280
     0
102
RTVSPost2010PropOp33
 70
     1
102
RTVSPost2010Prop34
280
     0
102
RTVSPost2010PropOp34
 70
     1
102
RTVSPost2010Prop35
280
     0
102
RTVSPost2010PropOp35
 70
     1
102
RTVSPost2010Prop36
280
     0
102
RTVSPost2010PropOp36
 70
     1
102
RTVSPost2010Prop37
 90
       50
102
RTVSPost2010PropOp37
 70
     1
102
RTVSPost2010Prop38
140
0.0
102
RTVSPost2010PropOp38
 70
     1
102
RTVSPost2010Prop39
140
1.0
102
RTVSPost2010PropOp39
 70
     1
102
RTVSPost2010Prop40
 90
        0
102
RTVSPost2010PropOp40
 70
     1
102
RTVSPost2010Prop41ColorIndex
 90
       18
102
RTVSPost2010Prop41ColorRGB
 90
        0
102
RTVSPost2010PropOp41
 70
     1
102
RTVSPost2010Prop42
 90
       50
102
RTVSPost2010PropOp42
 70
     1
102
RTVSPost2010Prop43
 90
        3
102
RTVSPost2010PropOp43
 70
     1
102
RTVSPost2010Prop44ColorIndex
 90
        5
102
RTVSPost2010Prop44ColorRGB
 90
      255
102
RTVSPost2010PropOp44
 70
     1
102
RTVSPost2010Prop45
280
     0
102
RTVSPost2010PropOp45
 70
     1
102
RTVSPost2010Prop46
 90
       50
102
RTVSPost2010PropOp46
 70
     1
102
RTVSPost2010Prop47
 90
       50
102
RTVSPost2010PropOp47
 70
     1
102
RTVSPost2010Prop48
 90
       50
102
RTVSPost2010PropOp48
 70
     1
102
RTVSPost2010Prop49
280
     0
102
RTVSPost2010PropOp49
 70
     1
102
RTVSPost2010Prop50
 90
       50
102
RTVSPost2010PropOp50
 70
     1
102
RTVSPost2010Prop51ColorIndex
 90
      256
102
RTVSPost2010Prop51ColorRGB
 90
-16777216
102
RTVSPost2010PropOp51
 70
     0
102
RTVSPost2010Prop52
140
1.0
102
RTVSPost2010PropOp52
 70
     0
102
RTVSPost2010Prop53
 90
        2
102
RTVSPost2010PropOp53
 70
     1
102
RTVSPost2010Prop54
  1
strokes_ogs.tif
102
RTVSPost2010PropOp54
 70
     1
102
RTVSPost2010Prop55
280
     0
102
RTVSPost2010PropOp55
 70
     1
102
RTVSPost2010Prop56
140
1.0
102
RTVSPost2010PropOp56
 70
     1
102
RTVSPost2010Prop57
140
1.0
102
RTVSPost2010PropOp57
 70
     1
102
RTVSPropertyOp0
 70
     1
102
RTVSPropertyOp1
 70
     1
102
RTVSPropertyOp2
 70
     1
102
RTVSPropertyOp3
 70
     1
102
RTVSPropertyOp4
 70
     1
102
RTVSPropertyOp5
 70
     1
102
RTVSPropertyOp6
 70
     1
102
RTVSPropertyOp7
 70
     1
102
RTVSPropertyOp8
 70
     1
102
RTVSPropertyOp9
 70
     1
102
RTVSPropertyOp10
 70
     1
102
RTVSPropertyOp11
 70
     1
102
RTVSPropertyOp12
 70
     1
102
RTVSPropertyOp13
 70
     1
102
RTVSPropertyOp14
 70
     1
102
RTVSPropertyOp15
 70
     1
102
RTVSPropertyOp16
 70
     1
102
RTVSPropertyOp17
 70
     1
102
RTVSPropertyOp18
 70
     1
102
RTVSPropertyOp19
 70
     1
102
RTVSPropertyOp20
 70
     1
102
RTVSPropertyOp21
 70
     1
102
RTVSPropertyOp22
 70
     1
102
RTVSPropertyOp23
 70
     1
102
RTVSPropertyOp24
 70
     1
102
RTVSPropertyOp25
 70
     1
102
RTVSPropertyOp26
 70
     1
102
RTVSPropertyOp27
 70
     1
102
RTVSPropertyOp28
 70
     1
102
RTVSPropertyOp29
 70
     1
102
RTVSPropertyOp30
 70
     1
102
RTVSPropertyOp31
 70
     1
102
RTVSPropertyOp32
 70
     1
102
RTVSPropertyOp33
 70
     1
102
RTVSPropertyOp34
 70
     1
102
RTVSPropertyOp35
 70
     1
102
RTVSPropertyOp36
 70
     1
102
RTVSPropertyOp37
 70
     1
102
RTVSPropertyOp38
 70
     1
102
RTVSPropertyOp39
 70
     1
102
RTVSPropertyOp40
 70
     1
102
RTVSPropertyOp41
 70
     1
102
RTVSPropertyOp42
 70
     1
102
RTVSPropertyOp43
 70
     1
102
RTVSPropertyOp44
 70
     1
102
RTVSPropertyOp45
 70
     1
102
RTVSPropertyOp46
 70
     1
102
RTVSPropertyOp47
 70
     1
102
RTVSPropertyOp48
 70
     1
102
RTVSPropertyOp49
 70
     1
102
RTVSPropertyOp50
 70
     1
102
RTVSPropertyOp51
 70
     0
102
RTVSPropertyOp52
 70
     0
102
RTVSPropertyOp53
 70
     1
102
RTVSPropertyOp54
 70
     1
102
RTVSPropertyOp55
 70
     1
102
RTVSPropertyOp56
 70
     1
102
RTVSPropertyOp57
 70
     1
102
RTVSPropertyOp58
 70
     1
102
RTVSPropertyOp59
 70
     1
102
RTVSPropertyOp60
 70
     1
102
RTVSPropertyOp61
 70
     1
102
RTVSPropertyOp62
 70
     1
  0
XRECORD
  5
A43D
102
{ACAD_REACTORS
330
A43C
102
}
330
A43C
100
AcDbXrecord
280
     1
102
RTVSPost2010Prop28
280
     0
102
RTVSPost2010PropOp28
 70
     1
102
RTVSPost2010Prop29
280
     1
102
RTVSPost2010PropOp29
 70
     1
102
RTVSPost2010Prop30
280
     1
102
RTVSPost2010PropOp30
 70
     1
102
RTVSPost2010Prop31
280
     0
102
RTVSPost2010PropOp31
 70
     1
102
RTVSPost2010Prop32
280
     0
102
RTVSPost2010PropOp32
 70
     1
102
RTVSPost2010Prop33
280
     0
102
RTVSPost2010PropOp33
 70
     1
102
RTVSPost2010Prop34
280
     0
102
RTVSPost2010PropOp34
 70
     1
102
RTVSPost2010Prop35
280
     0
102
RTVSPost2010PropOp35
 70
     1
102
RTVSPost2010Prop36
280
     0
102
RTVSPost2010PropOp36
 70
     1
102
RTVSPost2010Prop37
 90
       50
102
RTVSPost2010PropOp37
 70
     1
102
RTVSPost2010Prop38
140
0.0
102
RTVSPost2010PropOp38
 70
     1
102
RTVSPost2010Prop39
140
1.0
102
RTVSPost2010PropOp39
 70
     1
102
RTVSPost2010Prop40
 90
        0
102
RTVSPost2010PropOp40
 70
     1
102
RTVSPost2010Prop41ColorIndex
 90
       18
102
RTVSPost2010Prop41ColorRGB
 90
        0
102
RTVSPost2010PropOp41
 70
     1
102
RTVSPost2010Prop42
 90
       50
102
RTVSPost2010PropOp42
 70
     1
102
RTVSPost2010Prop43
 90
        3
102
RTVSPost2010PropOp43
 70
     1
102
RTVSPost2010Prop44ColorIndex
 90
        5
102
RTVSPost2010Prop44ColorRGB
 90
      255
102
RTVSPost2010PropOp44
 70
     1
102
RTVSPost2010Prop45
280
     0
102
RTVSPost2010PropOp45
 70
     1
102
RTVSPost2010Prop46
 90
       50
102
RTVSPost2010PropOp46
 70
     1
102
RTVSPost2010Prop47
 90
       50
102
RTVSPost2010PropOp47
 70
     1
102
RTVSPost2010Prop48
 90
       50
102
RTVSPost2010PropOp48
 70
     1
102
RTVSPost2010Prop49
280
     0
102
RTVSPost2010PropOp49
 70
     1
102
RTVSPost2010Prop50
 90
       50
102
RTVSPost2010PropOp50
 70
     1
102
RTVSPost2010Prop51ColorIndex
 90
      256
102
RTVSPost2010Prop51ColorRGB
 90
-16777216
102
RTVSPost2010PropOp51
 70
     0
102
RTVSPost2010Prop52
140
1.0
102
RTVSPost2010PropOp52
 70
     0
102
RTVSPost2010Prop53
 90
        2
102
RTVSPost2010PropOp53
 70
     1
102
RTVSPost2010Prop54
  1
strokes_ogs.tif
102
RTVSPost2010PropOp54
 70
     1
102
RTVSPost2010Prop55
280
     0
102
RTVSPost2010PropOp55
 70
     1
102
RTVSPost2010Prop56
140
1.0
102
RTVSPost2010PropOp56
 70
     1
102
RTVSPost2010Prop57
140
1.0
102
RTVSPost2010PropOp57
 70
     1
102
RTVSPropertyOp0
 70
     1
102
RTVSPropertyOp1
 70
     1
102
RTVSPropertyOp2
 70
     1
102
RTVSPropertyOp3
 70
     1
102
RTVSPropertyOp4
 70
     1
102
RTVSPropertyOp5
 70
     1
102
RTVSPropertyOp6
 70
     1
102
RTVSPropertyOp7
 70
     1
102
RTVSPropertyOp8
 70
     1
102
RTVSPropertyOp9
 70
     1
102
RTVSPropertyOp10
 70
     1
102
RTVSPropertyOp11
 70
     1
102
RTVSPropertyOp12
 70
     1
102
RTVSPropertyOp13
 70
     1
102
RTVSPropertyOp14
 70
     1
102
RTVSPropertyOp15
 70
     1
102
RTVSPropertyOp16
 70
     1
102
RTVSPropertyOp17
 70
     1
102
RTVSPropertyOp18
 70
     1
102
RTVSPropertyOp19
 70
     1
102
RTVSPropertyOp20
 70
     1
102
RTVSPropertyOp21
 70
     1
102
RTVSPropertyOp22
 70
     1
102
RTVSPropertyOp23
 70
     1
102
RTVSPropertyOp24
 70
     1
102
RTVSPropertyOp25
 70
     1
102
RTVSPropertyOp26
 70
     1
102
RTVSPropertyOp27
 70
     1
102
RTVSPropertyOp28
 70
     1
102
RTVSPropertyOp29
 70
     1
102
RTVSPropertyOp30
 70
     1
102
RTVSPropertyOp31
 70
     1
102
RTVSPropertyOp32
 70
     1
102
RTVSPropertyOp33
 70
     1
102
RTVSPropertyOp34
 70
     1
102
RTVSPropertyOp35
 70
     1
102
RTVSPropertyOp36
 70
     1
102
RTVSPropertyOp37
 70
     1
102
RTVSPropertyOp38
 70
     1
102
RTVSPropertyOp39
 70
     1
102
RTVSPropertyOp40
 70
     1
102
RTVSPropertyOp41
 70
     1
102
RTVSPropertyOp42
 70
     1
102
RTVSPropertyOp43
 70
     1
102
RTVSPropertyOp44
 70
     1
102
RTVSPropertyOp45
 70
     1
102
RTVSPropertyOp46
 70
     1
102
RTVSPropertyOp47
 70
     1
102
RTVSPropertyOp48
 70
     1
102
RTVSPropertyOp49
 70
     1
102
RTVSPropertyOp50
 70
     1
102
RTVSPropertyOp51
 70
     0
102
RTVSPropertyOp52
 70
     0
102
RTVSPropertyOp53
 70
     1
102
RTVSPropertyOp54
 70
     1
102
RTVSPropertyOp55
 70
     1
102
RTVSPropertyOp56
 70
     1
102
RTVSPropertyOp57
 70
     1
102
RTVSPropertyOp58
 70
     1
102
RTVSPropertyOp59
 70
     1
102
RTVSPropertyOp60
 70
     1
102
RTVSPropertyOp61
 70
     1
102
RTVSPropertyOp62
 70
     1
  0
XRECORD
  5
A445
102
{ACAD_REACTORS
330
A444
102
}
330
A444
100
AcDbXrecord
280
     1
102
RTVSPost2010Prop28
280
     0
102
RTVSPost2010PropOp28
 70
     1
102
RTVSPost2010Prop29
280
     1
102
RTVSPost2010PropOp29
 70
     1
102
RTVSPost2010Prop30
280
     1
102
RTVSPost2010PropOp30
 70
     1
102
RTVSPost2010Prop31
280
     0
102
RTVSPost2010PropOp31
 70
     1
102
RTVSPost2010Prop32
280
     0
102
RTVSPost2010PropOp32
 70
     1
102
RTVSPost2010Prop33
280
     0
102
RTVSPost2010PropOp33
 70
     1
102
RTVSPost2010Prop34
280
     0
102
RTVSPost2010PropOp34
 70
     1
102
RTVSPost2010Prop35
280
     0
102
RTVSPost2010PropOp35
 70
     1
102
RTVSPost2010Prop36
280
     0
102
RTVSPost2010PropOp36
 70
     1
102
RTVSPost2010Prop37
 90
       50
102
RTVSPost2010PropOp37
 70
     1
102
RTVSPost2010Prop38
140
0.0
102
RTVSPost2010PropOp38
 70
     1
102
RTVSPost2010Prop39
140
1.0
102
RTVSPost2010PropOp39
 70
     1
102
RTVSPost2010Prop40
 90
        0
102
RTVSPost2010PropOp40
 70
     1
102
RTVSPost2010Prop41ColorIndex
 90
       18
102
RTVSPost2010Prop41ColorRGB
 90
        0
102
RTVSPost2010PropOp41
 70
     1
102
RTVSPost2010Prop42
 90
       50
102
RTVSPost2010PropOp42
 70
     1
102
RTVSPost2010Prop43
 90
        3
102
RTVSPost2010PropOp43
 70
     1
102
RTVSPost2010Prop44ColorIndex
 90
        5
102
RTVSPost2010Prop44ColorRGB
 90
      255
102
RTVSPost2010PropOp44
 70
     1
102
RTVSPost2010Prop45
280
     0
102
RTVSPost2010PropOp45
 70
     1
102
RTVSPost2010Prop46
 90
       50
102
RTVSPost2010PropOp46
 70
     1
102
RTVSPost2010Prop47
 90
       50
102
RTVSPost2010PropOp47
 70
     1
102
RTVSPost2010Prop48
 90
       50
102
RTVSPost2010PropOp48
 70
     1
102
RTVSPost2010Prop49
280
     0
102
RTVSPost2010PropOp49
 70
     1
102
RTVSPost2010Prop50
 90
       50
102
RTVSPost2010PropOp50
 70
     1
102
RTVSPost2010Prop51ColorIndex
 90
      256
102
RTVSPost2010Prop51ColorRGB
 90
-16777216
102
RTVSPost2010PropOp51
 70
     0
102
RTVSPost2010Prop52
140
1.0
102
RTVSPost2010PropOp52
 70
     0
102
RTVSPost2010Prop53
 90
        2
102
RTVSPost2010PropOp53
 70
     1
102
RTVSPost2010Prop54
  1
strokes_ogs.tif
102
RTVSPost2010PropOp54
 70
     1
102
RTVSPost2010Prop55
280
     0
102
RTVSPost2010PropOp55
 70
     1
102
RTVSPost2010Prop56
140
1.0
102
RTVSPost2010PropOp56
 70
     1
102
RTVSPost2010Prop57
140
1.0
102
RTVSPost2010PropOp57
 70
     1
102
RTVSPropertyOp0
 70
     1
102
RTVSPropertyOp1
 70
     1
102
RTVSPropertyOp2
 70
     1
102
RTVSPropertyOp3
 70
     1
102
RTVSPropertyOp4
 70
     1
102
RTVSPropertyOp5
 70
     1
102
RTVSPropertyOp6
 70
     1
102
RTVSPropertyOp7
 70
     1
102
RTVSPropertyOp8
 70
     1
102
RTVSPropertyOp9
 70
     1
102
RTVSPropertyOp10
 70
     1
102
RTVSPropertyOp11
 70
     1
102
RTVSPropertyOp12
 70
     1
102
RTVSPropertyOp13
 70
     1
102
RTVSPropertyOp14
 70
     1
102
RTVSPropertyOp15
 70
     1
102
RTVSPropertyOp16
 70
     1
102
RTVSPropertyOp17
 70
     1
102
RTVSPropertyOp18
 70
     1
102
RTVSPropertyOp19
 70
     1
102
RTVSPropertyOp20
 70
     1
102
RTVSPropertyOp21
 70
     1
102
RTVSPropertyOp22
 70
     1
102
RTVSPropertyOp23
 70
     1
102
RTVSPropertyOp24
 70
     1
102
RTVSPropertyOp25
 70
     1
102
RTVSPropertyOp26
 70
     1
102
RTVSPropertyOp27
 70
     1
102
RTVSPropertyOp28
 70
     1
102
RTVSPropertyOp29
 70
     1
102
RTVSPropertyOp30
 70
     1
102
RTVSPropertyOp31
 70
     1
102
RTVSPropertyOp32
 70
     1
102
RTVSPropertyOp33
 70
     1
102
RTVSPropertyOp34
 70
     1
102
RTVSPropertyOp35
 70
     1
102
RTVSPropertyOp36
 70
     1
102
RTVSPropertyOp37
 70
     1
102
RTVSPropertyOp38
 70
     1
102
RTVSPropertyOp39
 70
     1
102
RTVSPropertyOp40
 70
     1
102
RTVSPropertyOp41
 70
     1
102
RTVSPropertyOp42
 70
     1
102
RTVSPropertyOp43
 70
     1
102
RTVSPropertyOp44
 70
     1
102
RTVSPropertyOp45
 70
     1
102
RTVSPropertyOp46
 70
     1
102
RTVSPropertyOp47
 70
     1
102
RTVSPropertyOp48
 70
     1
102
RTVSPropertyOp49
 70
     1
102
RTVSPropertyOp50
 70
     1
102
RTVSPropertyOp51
 70
     0
102
RTVSPropertyOp52
 70
     0
102
RTVSPropertyOp53
 70
     1
102
RTVSPropertyOp54
 70
     1
102
RTVSPropertyOp55
 70
     1
102
RTVSPropertyOp56
 70
     1
102
RTVSPropertyOp57
 70
     1
102
RTVSPropertyOp58
 70
     1
102
RTVSPropertyOp59
 70
     1
102
RTVSPropertyOp60
 70
     1
102
RTVSPropertyOp61
 70
     1
102
RTVSPropertyOp62
 70
     1
  0
XRECORD
  5
A437
102
{ACAD_REACTORS
330
A436
102
}
330
A436
100
AcDbXrecord
280
     1
102
RTVSPost2010Prop28
280
     0
102
RTVSPost2010PropOp28
 70
     1
102
RTVSPost2010Prop29
280
     1
102
RTVSPost2010PropOp29
 70
     1
102
RTVSPost2010Prop30
280
     1
102
RTVSPost2010PropOp30
 70
     1
102
RTVSPost2010Prop31
280
     0
102
RTVSPost2010PropOp31
 70
     1
102
RTVSPost2010Prop32
280
     0
102
RTVSPost2010PropOp32
 70
     1
102
RTVSPost2010Prop33
280
     0
102
RTVSPost2010PropOp33
 70
     1
102
RTVSPost2010Prop34
280
     0
102
RTVSPost2010PropOp34
 70
     1
102
RTVSPost2010Prop35
280
     0
102
RTVSPost2010PropOp35
 70
     1
102
RTVSPost2010Prop36
280
     0
102
RTVSPost2010PropOp36
 70
     1
102
RTVSPost2010Prop37
 90
       50
102
RTVSPost2010PropOp37
 70
     1
102
RTVSPost2010Prop38
140
0.0
102
RTVSPost2010PropOp38
 70
     1
102
RTVSPost2010Prop39
140
1.0
102
RTVSPost2010PropOp39
 70
     1
102
RTVSPost2010Prop40
 90
        0
102
RTVSPost2010PropOp40
 70
     1
102
RTVSPost2010Prop41ColorIndex
 90
       18
102
RTVSPost2010Prop41ColorRGB
 90
        0
102
RTVSPost2010PropOp41
 70
     1
102
RTVSPost2010Prop42
 90
       50
102
RTVSPost2010PropOp42
 70
     1
102
RTVSPost2010Prop43
 90
        3
102
RTVSPost2010PropOp43
 70
     1
102
RTVSPost2010Prop44ColorIndex
 90
        5
102
RTVSPost2010Prop44ColorRGB
 90
      255
102
RTVSPost2010PropOp44
 70
     1
102
RTVSPost2010Prop45
280
     0
102
RTVSPost2010PropOp45
 70
     1
102
RTVSPost2010Prop46
 90
       50
102
RTVSPost2010PropOp46
 70
     1
102
RTVSPost2010Prop47
 90
       50
102
RTVSPost2010PropOp47
 70
     1
102
RTVSPost2010Prop48
 90
       50
102
RTVSPost2010PropOp48
 70
     1
102
RTVSPost2010Prop49
280
     0
102
RTVSPost2010PropOp49
 70
     1
102
RTVSPost2010Prop50
 90
       50
102
RTVSPost2010PropOp50
 70
     1
102
RTVSPost2010Prop51ColorIndex
 90
      256
102
RTVSPost2010Prop51ColorRGB
 90
-16777216
102
RTVSPost2010PropOp51
 70
     0
102
RTVSPost2010Prop52
140
1.0
102
RTVSPost2010PropOp52
 70
     0
102
RTVSPost2010Prop53
 90
        2
102
RTVSPost2010PropOp53
 70
     1
102
RTVSPost2010Prop54
  1
strokes_ogs.tif
102
RTVSPost2010PropOp54
 70
     1
102
RTVSPost2010Prop55
280
     0
102
RTVSPost2010PropOp55
 70
     1
102
RTVSPost2010Prop56
140
1.0
102
RTVSPost2010PropOp56
 70
     1
102
RTVSPost2010Prop57
140
1.0
102
RTVSPost2010PropOp57
 70
     1
102
RTVSPropertyOp0
 70
     1
102
RTVSPropertyOp1
 70
     1
102
RTVSPropertyOp2
 70
     1
102
RTVSPropertyOp3
 70
     1
102
RTVSPropertyOp4
 70
     1
102
RTVSPropertyOp5
 70
     1
102
RTVSPropertyOp6
 70
     1
102
RTVSPropertyOp7
 70
     1
102
RTVSPropertyOp8
 70
     1
102
RTVSPropertyOp9
 70
     1
102
RTVSPropertyOp10
 70
     1
102
RTVSPropertyOp11
 70
     1
102
RTVSPropertyOp12
 70
     1
102
RTVSPropertyOp13
 70
     1
102
RTVSPropertyOp14
 70
     1
102
RTVSPropertyOp15
 70
     1
102
RTVSPropertyOp16
 70
     1
102
RTVSPropertyOp17
 70
     1
102
RTVSPropertyOp18
 70
     1
102
RTVSPropertyOp19
 70
     1
102
RTVSPropertyOp20
 70
     1
102
RTVSPropertyOp21
 70
     1
102
RTVSPropertyOp22
 70
     1
102
RTVSPropertyOp23
 70
     1
102
RTVSPropertyOp24
 70
     1
102
RTVSPropertyOp25
 70
     1
102
RTVSPropertyOp26
 70
     1
102
RTVSPropertyOp27
 70
     1
102
RTVSPropertyOp28
 70
     1
102
RTVSPropertyOp29
 70
     1
102
RTVSPropertyOp30
 70
     1
102
RTVSPropertyOp31
 70
     1
102
RTVSPropertyOp32
 70
     1
102
RTVSPropertyOp33
 70
     1
102
RTVSPropertyOp34
 70
     1
102
RTVSPropertyOp35
 70
     1
102
RTVSPropertyOp36
 70
     1
102
RTVSPropertyOp37
 70
     1
102
RTVSPropertyOp38
 70
     1
102
RTVSPropertyOp39
 70
     1
102
RTVSPropertyOp40
 70
     1
102
RTVSPropertyOp41
 70
     1
102
RTVSPropertyOp42
 70
     1
102
RTVSPropertyOp43
 70
     1
102
RTVSPropertyOp44
 70
     1
102
RTVSPropertyOp45
 70
     1
102
RTVSPropertyOp46
 70
     1
102
RTVSPropertyOp47
 70
     1
102
RTVSPropertyOp48
 70
     1
102
RTVSPropertyOp49
 70
     1
102
RTVSPropertyOp50
 70
     1
102
RTVSPropertyOp51
 70
     0
102
RTVSPropertyOp52
 70
     0
102
RTVSPropertyOp53
 70
     1
102
RTVSPropertyOp54
 70
     1
102
RTVSPropertyOp55
 70
     1
102
RTVSPropertyOp56
 70
     1
102
RTVSPropertyOp57
 70
     1
102
RTVSPropertyOp58
 70
     1
102
RTVSPropertyOp59
 70
     1
102
RTVSPropertyOp60
 70
     1
102
RTVSPropertyOp61
 70
     1
102
RTVSPropertyOp62
 70
     1
  0
XRECORD
  5
A43B
102
{ACAD_REACTORS
330
A43A
102
}
330
A43A
100
AcDbXrecord
280
     1
102
RTVSPost2010Prop28
280
     0
102
RTVSPost2010PropOp28
 70
     1
102
RTVSPost2010Prop29
280
     1
102
RTVSPost2010PropOp29
 70
     1
102
RTVSPost2010Prop30
280
     1
102
RTVSPost2010PropOp30
 70
     1
102
RTVSPost2010Prop31
280
     0
102
RTVSPost2010PropOp31
 70
     1
102
RTVSPost2010Prop32
280
     0
102
RTVSPost2010PropOp32
 70
     1
102
RTVSPost2010Prop33
280
     0
102
RTVSPost2010PropOp33
 70
     1
102
RTVSPost2010Prop34
280
     0
102
RTVSPost2010PropOp34
 70
     1
102
RTVSPost2010Prop35
280
     0
102
RTVSPost2010PropOp35
 70
     1
102
RTVSPost2010Prop36
280
     0
102
RTVSPost2010PropOp36
 70
     1
102
RTVSPost2010Prop37
 90
       50
102
RTVSPost2010PropOp37
 70
     1
102
RTVSPost2010Prop38
140
0.0
102
RTVSPost2010PropOp38
 70
     1
102
RTVSPost2010Prop39
140
1.0
102
RTVSPost2010PropOp39
 70
     1
102
RTVSPost2010Prop40
 90
        0
102
RTVSPost2010PropOp40
 70
     1
102
RTVSPost2010Prop41ColorIndex
 90
       18
102
RTVSPost2010Prop41ColorRGB
 90
        0
102
RTVSPost2010PropOp41
 70
     1
102
RTVSPost2010Prop42
 90
       50
102
RTVSPost2010PropOp42
 70
     1
102
RTVSPost2010Prop43
 90
        3
102
RTVSPost2010PropOp43
 70
     1
102
RTVSPost2010Prop44ColorIndex
 90
        5
102
RTVSPost2010Prop44ColorRGB
 90
      255
102
RTVSPost2010PropOp44
 70
     1
102
RTVSPost2010Prop45
280
     0
102
RTVSPost2010PropOp45
 70
     1
102
RTVSPost2010Prop46
 90
       50
102
RTVSPost2010PropOp46
 70
     1
102
RTVSPost2010Prop47
 90
       50
102
RTVSPost2010PropOp47
 70
     1
102
RTVSPost2010Prop48
 90
       50
102
RTVSPost2010PropOp48
 70
     1
102
RTVSPost2010Prop49
280
     0
102
RTVSPost2010PropOp49
 70
     1
102
RTVSPost2010Prop50
 90
       50
102
RTVSPost2010PropOp50
 70
     1
102
RTVSPost2010Prop51ColorIndex
 90
      256
102
RTVSPost2010Prop51ColorRGB
 90
-16777216
102
RTVSPost2010PropOp51
 70
     0
102
RTVSPost2010Prop52
140
1.0
102
RTVSPost2010PropOp52
 70
     0
102
RTVSPost2010Prop53
 90
        2
102
RTVSPost2010PropOp53
 70
     1
102
RTVSPost2010Prop54
  1
strokes_ogs.tif
102
RTVSPost2010PropOp54
 70
     1
102
RTVSPost2010Prop55
280
     0
102
RTVSPost2010PropOp55
 70
     1
102
RTVSPost2010Prop56
140
1.0
102
RTVSPost2010PropOp56
 70
     1
102
RTVSPost2010Prop57
140
1.0
102
RTVSPost2010PropOp57
 70
     1
102
RTVSPropertyOp0
 70
     1
102
RTVSPropertyOp1
 70
     1
102
RTVSPropertyOp2
 70
     1
102
RTVSPropertyOp3
 70
     1
102
RTVSPropertyOp4
 70
     1
102
RTVSPropertyOp5
 70
     1
102
RTVSPropertyOp6
 70
     1
102
RTVSPropertyOp7
 70
     1
102
RTVSPropertyOp8
 70
     1
102
RTVSPropertyOp9
 70
     1
102
RTVSPropertyOp10
 70
     1
102
RTVSPropertyOp11
 70
     1
102
RTVSPropertyOp12
 70
     1
102
RTVSPropertyOp13
 70
     1
102
RTVSPropertyOp14
 70
     1
102
RTVSPropertyOp15
 70
     1
102
RTVSPropertyOp16
 70
     1
102
RTVSPropertyOp17
 70
     1
102
RTVSPropertyOp18
 70
     1
102
RTVSPropertyOp19
 70
     1
102
RTVSPropertyOp20
 70
     1
102
RTVSPropertyOp21
 70
     1
102
RTVSPropertyOp22
 70
     1
102
RTVSPropertyOp23
 70
     1
102
RTVSPropertyOp24
 70
     1
102
RTVSPropertyOp25
 70
     1
102
RTVSPropertyOp26
 70
     1
102
RTVSPropertyOp27
 70
     1
102
RTVSPropertyOp28
 70
     1
102
RTVSPropertyOp29
 70
     1
102
RTVSPropertyOp30
 70
     1
102
RTVSPropertyOp31
 70
     1
102
RTVSPropertyOp32
 70
     1
102
RTVSPropertyOp33
 70
     1
102
RTVSPropertyOp34
 70
     1
102
RTVSPropertyOp35
 70
     1
102
RTVSPropertyOp36
 70
     1
102
RTVSPropertyOp37
 70
     1
102
RTVSPropertyOp38
 70
     1
102
RTVSPropertyOp39
 70
     1
102
RTVSPropertyOp40
 70
     1
102
RTVSPropertyOp41
 70
     1
102
RTVSPropertyOp42
 70
     1
102
RTVSPropertyOp43
 70
     1
102
RTVSPropertyOp44
 70
     1
102
RTVSPropertyOp45
 70
     1
102
RTVSPropertyOp46
 70
     1
102
RTVSPropertyOp47
 70
     1
102
RTVSPropertyOp48
 70
     1
102
RTVSPropertyOp49
 70
     1
102
RTVSPropertyOp50
 70
     1
102
RTVSPropertyOp51
 70
     0
102
RTVSPropertyOp52
 70
     0
102
RTVSPropertyOp53
 70
     1
102
RTVSPropertyOp54
 70
     1
102
RTVSPropertyOp55
 70
     1
102
RTVSPropertyOp56
 70
     1
102
RTVSPropertyOp57
 70
     1
102
RTVSPropertyOp58
 70
     1
102
RTVSPropertyOp59
 70
     1
102
RTVSPropertyOp60
 70
     1
102
RTVSPropertyOp61
 70
     1
102
RTVSPropertyOp62
 70
     1
  0
XRECORD
  5
A455
102
{ACAD_REACTORS
330
A454
102
}
330
A454
100
AcDbXrecord
280
     1
102
RTVSPost2010Prop28
280
     0
102
RTVSPost2010PropOp28
 70
     1
102
RTVSPost2010Prop29
280
     1
102
RTVSPost2010PropOp29
 70
     1
102
RTVSPost2010Prop30
280
     1
102
RTVSPost2010PropOp30
 70
     1
102
RTVSPost2010Prop31
280
     0
102
RTVSPost2010PropOp31
 70
     1
102
RTVSPost2010Prop32
280
     0
102
RTVSPost2010PropOp32
 70
     1
102
RTVSPost2010Prop33
280
     0
102
RTVSPost2010PropOp33
 70
     1
102
RTVSPost2010Prop34
280
     0
102
RTVSPost2010PropOp34
 70
     1
102
RTVSPost2010Prop35
280
     0
102
RTVSPost2010PropOp35
 70
     1
102
RTVSPost2010Prop36
280
     0
102
RTVSPost2010PropOp36
 70
     1
102
RTVSPost2010Prop37
 90
       50
102
RTVSPost2010PropOp37
 70
     0
102
RTVSPost2010Prop38
140
0.0
102
RTVSPost2010PropOp38
 70
     0
102
RTVSPost2010Prop39
140
1.0
102
RTVSPost2010PropOp39
 70
     0
102
RTVSPost2010Prop40
 90
        0
102
RTVSPost2010PropOp40
 70
     0
102
RTVSPost2010Prop41ColorIndex
 90
       18
102
RTVSPost2010Prop41ColorRGB
 90
        0
102
RTVSPost2010PropOp41
 70
     0
102
RTVSPost2010Prop42
 90
       50
102
RTVSPost2010PropOp42
 70
     0
102
RTVSPost2010Prop43
 90
        3
102
RTVSPost2010PropOp43
 70
     0
102
RTVSPost2010Prop44ColorIndex
 90
        5
102
RTVSPost2010Prop44ColorRGB
 90
      255
102
RTVSPost2010PropOp44
 70
     0
102
RTVSPost2010Prop45
280
     0
102
RTVSPost2010PropOp45
 70
     1
102
RTVSPost2010Prop46
 90
       50
102
RTVSPost2010PropOp46
 70
     0
102
RTVSPost2010Prop47
 90
       50
102
RTVSPost2010PropOp47
 70
     0
102
RTVSPost2010Prop48
 90
       50
102
RTVSPost2010PropOp48
 70
     0
102
RTVSPost2010Prop49
280
     0
102
RTVSPost2010PropOp49
 70
     1
102
RTVSPost2010Prop50
 90
       50
102
RTVSPost2010PropOp50
 70
     0
102
RTVSPost2010Prop51ColorIndex
 90
      256
102
RTVSPost2010Prop51ColorRGB
 90
-16777216
102
RTVSPost2010PropOp51
 70
     0
102
RTVSPost2010Prop52
140
1.0
102
RTVSPost2010PropOp52
 70
     0
102
RTVSPost2010Prop53
 90
        2
102
RTVSPost2010PropOp53
 70
     0
102
RTVSPost2010Prop54
  1
strokes_ogs.tif
102
RTVSPost2010PropOp54
 70
     0
102
RTVSPost2010Prop55
280
     0
102
RTVSPost2010PropOp55
 70
     1
102
RTVSPost2010Prop56
140
1.0
102
RTVSPost2010PropOp56
 70
     0
102
RTVSPost2010Prop57
140
1.0
102
RTVSPost2010PropOp57
 70
     0
102
RTVSPropertyOp0
 70
     0
102
RTVSPropertyOp1
 70
     0
102
RTVSPropertyOp2
 70
     0
102
RTVSPropertyOp3
 70
     0
102
RTVSPropertyOp4
 70
     0
102
RTVSPropertyOp5
 70
     0
102
RTVSPropertyOp6
 70
     0
102
RTVSPropertyOp7
 70
     0
102
RTVSPropertyOp8
 70
     0
102
RTVSPropertyOp9
 70
     0
102
RTVSPropertyOp10
 70
     0
102
RTVSPropertyOp11
 70
     0
102
RTVSPropertyOp12
 70
     0
102
RTVSPropertyOp13
 70
     0
102
RTVSPropertyOp14
 70
     2
102
RTVSPropertyOp15
 70
     0
102
RTVSPropertyOp16
 70
     0
102
RTVSPropertyOp17
 70
     0
102
RTVSPropertyOp18
 70
     0
102
RTVSPropertyOp19
 70
     0
102
RTVSPropertyOp20
 70
     0
102
RTVSPropertyOp21
 70
     0
102
RTVSPropertyOp22
 70
     0
102
RTVSPropertyOp23
 70
     0
102
RTVSPropertyOp24
 70
     0
102
RTVSPropertyOp25
 70
     0
102
RTVSPropertyOp26
 70
     0
102
RTVSPropertyOp27
 70
     0
102
RTVSPropertyOp28
 70
     1
102
RTVSPropertyOp29
 70
     1
102
RTVSPropertyOp30
 70
     1
102
RTVSPropertyOp31
 70
     1
102
RTVSPropertyOp32
 70
     1
102
RTVSPropertyOp33
 70
     1
102
RTVSPropertyOp34
 70
     1
102
RTVSPropertyOp35
 70
     1
102
RTVSPropertyOp36
 70
     1
102
RTVSPropertyOp37
 70
     0
102
RTVSPropertyOp38
 70
     0
102
RTVSPropertyOp39
 70
     0
102
RTVSPropertyOp40
 70
     0
102
RTVSPropertyOp41
 70
     0
102
RTVSPropertyOp42
 70
     0
102
RTVSPropertyOp43
 70
     0
102
RTVSPropertyOp44
 70
     0
102
RTVSPropertyOp45
 70
     1
102
RTVSPropertyOp46
 70
     0
102
RTVSPropertyOp47
 70
     0
102
RTVSPropertyOp48
 70
     0
102
RTVSPropertyOp49
 70
     1
102
RTVSPropertyOp50
 70
     0
102
RTVSPropertyOp51
 70
     0
102
RTVSPropertyOp52
 70
     0
102
RTVSPropertyOp53
 70
     0
102
RTVSPropertyOp54
 70
     0
102
RTVSPropertyOp55
 70
     1
102
RTVSPropertyOp56
 70
     0
102
RTVSPropertyOp57
 70
     0
102
RTVSPropertyOp58
 70
     0
102
RTVSPropertyOp59
 70
     0
102
RTVSPropertyOp60
 70
     0
102
RTVSPropertyOp61
 70
     0
102
RTVSPropertyOp62
 70
     0
  0
XRECORD
  5
A443
102
{ACAD_REACTORS
330
A442
102
}
330
A442
100
AcDbXrecord
280
     1
102
RTVSPost2010Prop28
280
     0
102
RTVSPost2010PropOp28
 70
     1
102
RTVSPost2010Prop29
280
     1
102
RTVSPost2010PropOp29
 70
     1
102
RTVSPost2010Prop30
280
     1
102
RTVSPost2010PropOp30
 70
     1
102
RTVSPost2010Prop31
280
     0
102
RTVSPost2010PropOp31
 70
     1
102
RTVSPost2010Prop32
280
     0
102
RTVSPost2010PropOp32
 70
     1
102
RTVSPost2010Prop33
280
     0
102
RTVSPost2010PropOp33
 70
     1
102
RTVSPost2010Prop34
280
     0
102
RTVSPost2010PropOp34
 70
     1
102
RTVSPost2010Prop35
280
     0
102
RTVSPost2010PropOp35
 70
     1
102
RTVSPost2010Prop36
280
     0
102
RTVSPost2010PropOp36
 70
     1
102
RTVSPost2010Prop37
 90
       50
102
RTVSPost2010PropOp37
 70
     1
102
RTVSPost2010Prop38
140
0.0
102
RTVSPost2010PropOp38
 70
     1
102
RTVSPost2010Prop39
140
1.0
102
RTVSPost2010PropOp39
 70
     1
102
RTVSPost2010Prop40
 90
        0
102
RTVSPost2010PropOp40
 70
     1
102
RTVSPost2010Prop41ColorIndex
 90
       18
102
RTVSPost2010Prop41ColorRGB
 90
        0
102
RTVSPost2010PropOp41
 70
     1
102
RTVSPost2010Prop42
 90
       50
102
RTVSPost2010PropOp42
 70
     1
102
RTVSPost2010Prop43
 90
        3
102
RTVSPost2010PropOp43
 70
     1
102
RTVSPost2010Prop44ColorIndex
 90
        5
102
RTVSPost2010Prop44ColorRGB
 90
      255
102
RTVSPost2010PropOp44
 70
     1
102
RTVSPost2010Prop45
280
     0
102
RTVSPost2010PropOp45
 70
     1
102
RTVSPost2010Prop46
 90
       50
102
RTVSPost2010PropOp46
 70
     1
102
RTVSPost2010Prop47
 90
       50
102
RTVSPost2010PropOp47
 70
     1
102
RTVSPost2010Prop48
 90
       50
102
RTVSPost2010PropOp48
 70
     1
102
RTVSPost2010Prop49
280
     0
102
RTVSPost2010PropOp49
 70
     1
102
RTVSPost2010Prop50
 90
       50
102
RTVSPost2010PropOp50
 70
     1
102
RTVSPost2010Prop51ColorIndex
 90
      256
102
RTVSPost2010Prop51ColorRGB
 90
-16777216
102
RTVSPost2010PropOp51
 70
     0
102
RTVSPost2010Prop52
140
1.0
102
RTVSPost2010PropOp52
 70
     0
102
RTVSPost2010Prop53
 90
        2
102
RTVSPost2010PropOp53
 70
     1
102
RTVSPost2010Prop54
  1
strokes_ogs.tif
102
RTVSPost2010PropOp54
 70
     1
102
RTVSPost2010Prop55
280
     0
102
RTVSPost2010PropOp55
 70
     1
102
RTVSPost2010Prop56
140
1.0
102
RTVSPost2010PropOp56
 70
     1
102
RTVSPost2010Prop57
140
1.0
102
RTVSPost2010PropOp57
 70
     1
102
RTVSPropertyOp0
 70
     1
102
RTVSPropertyOp1
 70
     1
102
RTVSPropertyOp2
 70
     1
102
RTVSPropertyOp3
 70
     1
102
RTVSPropertyOp4
 70
     1
102
RTVSPropertyOp5
 70
     1
102
RTVSPropertyOp6
 70
     1
102
RTVSPropertyOp7
 70
     1
102
RTVSPropertyOp8
 70
     1
102
RTVSPropertyOp9
 70
     1
102
RTVSPropertyOp10
 70
     1
102
RTVSPropertyOp11
 70
     1
102
RTVSPropertyOp12
 70
     1
102
RTVSPropertyOp13
 70
     1
102
RTVSPropertyOp14
 70
     1
102
RTVSPropertyOp15
 70
     1
102
RTVSPropertyOp16
 70
     1
102
RTVSPropertyOp17
 70
     1
102
RTVSPropertyOp18
 70
     1
102
RTVSPropertyOp19
 70
     1
102
RTVSPropertyOp20
 70
     1
102
RTVSPropertyOp21
 70
     1
102
RTVSPropertyOp22
 70
     1
102
RTVSPropertyOp23
 70
     1
102
RTVSPropertyOp24
 70
     1
102
RTVSPropertyOp25
 70
     1
102
RTVSPropertyOp26
 70
     1
102
RTVSPropertyOp27
 70
     1
102
RTVSPropertyOp28
 70
     1
102
RTVSPropertyOp29
 70
     1
102
RTVSPropertyOp30
 70
     1
102
RTVSPropertyOp31
 70
     1
102
RTVSPropertyOp32
 70
     1
102
RTVSPropertyOp33
 70
     1
102
RTVSPropertyOp34
 70
     1
102
RTVSPropertyOp35
 70
     1
102
RTVSPropertyOp36
 70
     1
102
RTVSPropertyOp37
 70
     1
102
RTVSPropertyOp38
 70
     1
102
RTVSPropertyOp39
 70
     1
102
RTVSPropertyOp40
 70
     1
102
RTVSPropertyOp41
 70
     1
102
RTVSPropertyOp42
 70
     1
102
RTVSPropertyOp43
 70
     1
102
RTVSPropertyOp44
 70
     1
102
RTVSPropertyOp45
 70
     1
102
RTVSPropertyOp46
 70
     1
102
RTVSPropertyOp47
 70
     1
102
RTVSPropertyOp48
 70
     1
102
RTVSPropertyOp49
 70
     1
102
RTVSPropertyOp50
 70
     1
102
RTVSPropertyOp51
 70
     0
102
RTVSPropertyOp52
 70
     0
102
RTVSPropertyOp53
 70
     1
102
RTVSPropertyOp54
 70
     1
102
RTVSPropertyOp55
 70
     1
102
RTVSPropertyOp56
 70
     1
102
RTVSPropertyOp57
 70
     1
102
RTVSPropertyOp58
 70
     1
102
RTVSPropertyOp59
 70
     1
102
RTVSPropertyOp60
 70
     1
102
RTVSPropertyOp61
 70
     1
102
RTVSPropertyOp62
 70
     1
  0
XRECORD
  5
A427
102
{ACAD_REACTORS
330
A426
102
}
330
A426
100
AcDbXrecord
280
     1
102
RTVSPost2010Prop28
280
     0
102
RTVSPost2010PropOp28
 70
     1
102
RTVSPost2010Prop29
280
     1
102
RTVSPost2010PropOp29
 70
     1
102
RTVSPost2010Prop30
280
     1
102
RTVSPost2010PropOp30
 70
     1
102
RTVSPost2010Prop31
280
     0
102
RTVSPost2010PropOp31
 70
     1
102
RTVSPost2010Prop32
280
     0
102
RTVSPost2010PropOp32
 70
     1
102
RTVSPost2010Prop33
280
     0
102
RTVSPost2010PropOp33
 70
     1
102
RTVSPost2010Prop34
280
     0
102
RTVSPost2010PropOp34
 70
     1
102
RTVSPost2010Prop35
280
     0
102
RTVSPost2010PropOp35
 70
     1
102
RTVSPost2010Prop36
280
     0
102
RTVSPost2010PropOp36
 70
     1
102
RTVSPost2010Prop37
 90
       50
102
RTVSPost2010PropOp37
 70
     1
102
RTVSPost2010Prop38
140
0.0
102
RTVSPost2010PropOp38
 70
     1
102
RTVSPost2010Prop39
140
1.0
102
RTVSPost2010PropOp39
 70
     1
102
RTVSPost2010Prop40
 90
        0
102
RTVSPost2010PropOp40
 70
     1
102
RTVSPost2010Prop41ColorIndex
 90
       18
102
RTVSPost2010Prop41ColorRGB
 90
        0
102
RTVSPost2010PropOp41
 70
     1
102
RTVSPost2010Prop42
 90
       50
102
RTVSPost2010PropOp42
 70
     1
102
RTVSPost2010Prop43
 90
        3
102
RTVSPost2010PropOp43
 70
     1
102
RTVSPost2010Prop44ColorIndex
 90
        5
102
RTVSPost2010Prop44ColorRGB
 90
      255
102
RTVSPost2010PropOp44
 70
     1
102
RTVSPost2010Prop45
280
     0
102
RTVSPost2010PropOp45
 70
     1
102
RTVSPost2010Prop46
 90
       50
102
RTVSPost2010PropOp46
 70
     1
102
RTVSPost2010Prop47
 90
       50
102
RTVSPost2010PropOp47
 70
     1
102
RTVSPost2010Prop48
 90
       50
102
RTVSPost2010PropOp48
 70
     1
102
RTVSPost2010Prop49
280
     0
102
RTVSPost2010PropOp49
 70
     1
102
RTVSPost2010Prop50
 90
       50
102
RTVSPost2010PropOp50
 70
     1
102
RTVSPost2010Prop51ColorIndex
 90
      256
102
RTVSPost2010Prop51ColorRGB
 90
-16777216
102
RTVSPost2010PropOp51
 70
     0
102
RTVSPost2010Prop52
140
1.0
102
RTVSPost2010PropOp52
 70
     0
102
RTVSPost2010Prop53
 90
        2
102
RTVSPost2010PropOp53
 70
     1
102
RTVSPost2010Prop54
  1
strokes_ogs.tif
102
RTVSPost2010PropOp54
 70
     1
102
RTVSPost2010Prop55
280
     0
102
RTVSPost2010PropOp55
 70
     1
102
RTVSPost2010Prop56
140
1.0
102
RTVSPost2010PropOp56
 70
     1
102
RTVSPost2010Prop57
140
1.0
102
RTVSPost2010PropOp57
 70
     1
102
RTVSPropertyOp0
 70
     1
102
RTVSPropertyOp1
 70
     1
102
RTVSPropertyOp2
 70
     1
102
RTVSPropertyOp3
 70
     1
102
RTVSPropertyOp4
 70
     1
102
RTVSPropertyOp5
 70
     1
102
RTVSPropertyOp6
 70
     1
102
RTVSPropertyOp7
 70
     1
102
RTVSPropertyOp8
 70
     1
102
RTVSPropertyOp9
 70
     1
102
RTVSPropertyOp10
 70
     1
102
RTVSPropertyOp11
 70
     1
102
RTVSPropertyOp12
 70
     1
102
RTVSPropertyOp13
 70
     1
102
RTVSPropertyOp14
 70
     1
102
RTVSPropertyOp15
 70
     1
102
RTVSPropertyOp16
 70
     1
102
RTVSPropertyOp17
 70
     1
102
RTVSPropertyOp18
 70
     1
102
RTVSPropertyOp19
 70
     1
102
RTVSPropertyOp20
 70
     1
102
RTVSPropertyOp21
 70
     1
102
RTVSPropertyOp22
 70
     1
102
RTVSPropertyOp23
 70
     1
102
RTVSPropertyOp24
 70
     1
102
RTVSPropertyOp25
 70
     1
102
RTVSPropertyOp26
 70
     1
102
RTVSPropertyOp27
 70
     1
102
RTVSPropertyOp28
 70
     1
102
RTVSPropertyOp29
 70
     1
102
RTVSPropertyOp30
 70
     1
102
RTVSPropertyOp31
 70
     1
102
RTVSPropertyOp32
 70
     1
102
RTVSPropertyOp33
 70
     1
102
RTVSPropertyOp34
 70
     1
102
RTVSPropertyOp35
 70
     1
102
RTVSPropertyOp36
 70
     1
102
RTVSPropertyOp37
 70
     1
102
RTVSPropertyOp38
 70
     1
102
RTVSPropertyOp39
 70
     1
102
RTVSPropertyOp40
 70
     1
102
RTVSPropertyOp41
 70
     1
102
RTVSPropertyOp42
 70
     1
102
RTVSPropertyOp43
 70
     1
102
RTVSPropertyOp44
 70
     1
102
RTVSPropertyOp45
 70
     1
102
RTVSPropertyOp46
 70
     1
102
RTVSPropertyOp47
 70
     1
102
RTVSPropertyOp48
 70
     1
102
RTVSPropertyOp49
 70
     1
102
RTVSPropertyOp50
 70
     1
102
RTVSPropertyOp51
 70
     0
102
RTVSPropertyOp52
 70
     0
102
RTVSPropertyOp53
 70
     1
102
RTVSPropertyOp54
 70
     1
102
RTVSPropertyOp55
 70
     1
102
RTVSPropertyOp56
 70
     1
102
RTVSPropertyOp57
 70
     1
102
RTVSPropertyOp58
 70
     1
102
RTVSPropertyOp59
 70
     1
102
RTVSPropertyOp60
 70
     1
102
RTVSPropertyOp61
 70
     1
102
RTVSPropertyOp62
 70
     1
  0
XRECORD
  5
A429
102
{ACAD_REACTORS
330
A428
102
}
330
A428
100
AcDbXrecord
280
     1
102
RTVSPost2010Prop28
280
     0
102
RTVSPost2010PropOp28
 70
     1
102
RTVSPost2010Prop29
280
     1
102
RTVSPost2010PropOp29
 70
     1
102
RTVSPost2010Prop30
280
     1
102
RTVSPost2010PropOp30
 70
     1
102
RTVSPost2010Prop31
280
     0
102
RTVSPost2010PropOp31
 70
     1
102
RTVSPost2010Prop32
280
     0
102
RTVSPost2010PropOp32
 70
     1
102
RTVSPost2010Prop33
280
     0
102
RTVSPost2010PropOp33
 70
     1
102
RTVSPost2010Prop34
280
     0
102
RTVSPost2010PropOp34
 70
     1
102
RTVSPost2010Prop35
280
     0
102
RTVSPost2010PropOp35
 70
     1
102
RTVSPost2010Prop36
280
     0
102
RTVSPost2010PropOp36
 70
     1
102
RTVSPost2010Prop37
 90
       50
102
RTVSPost2010PropOp37
 70
     1
102
RTVSPost2010Prop38
140
0.0
102
RTVSPost2010PropOp38
 70
     1
102
RTVSPost2010Prop39
140
1.0
102
RTVSPost2010PropOp39
 70
     1
102
RTVSPost2010Prop40
 90
        0
102
RTVSPost2010PropOp40
 70
     1
102
RTVSPost2010Prop41ColorIndex
 90
       18
102
RTVSPost2010Prop41ColorRGB
 90
        0
102
RTVSPost2010PropOp41
 70
     1
102
RTVSPost2010Prop42
 90
       50
102
RTVSPost2010PropOp42
 70
     1
102
RTVSPost2010Prop43
 90
        3
102
RTVSPost2010PropOp43
 70
     1
102
RTVSPost2010Prop44ColorIndex
 90
        5
102
RTVSPost2010Prop44ColorRGB
 90
      255
102
RTVSPost2010PropOp44
 70
     1
102
RTVSPost2010Prop45
280
     0
102
RTVSPost2010PropOp45
 70
     1
102
RTVSPost2010Prop46
 90
       50
102
RTVSPost2010PropOp46
 70
     1
102
RTVSPost2010Prop47
 90
       50
102
RTVSPost2010PropOp47
 70
     1
102
RTVSPost2010Prop48
 90
       50
102
RTVSPost2010PropOp48
 70
     1
102
RTVSPost2010Prop49
280
     0
102
RTVSPost2010PropOp49
 70
     1
102
RTVSPost2010Prop50
 90
       50
102
RTVSPost2010PropOp50
 70
     1
102
RTVSPost2010Prop51ColorIndex
 90
      256
102
RTVSPost2010Prop51ColorRGB
 90
-16777216
102
RTVSPost2010PropOp51
 70
     0
102
RTVSPost2010Prop52
140
1.0
102
RTVSPost2010PropOp52
 70
     0
102
RTVSPost2010Prop53
 90
        2
102
RTVSPost2010PropOp53
 70
     1
102
RTVSPost2010Prop54
  1
strokes_ogs.tif
102
RTVSPost2010PropOp54
 70
     1
102
RTVSPost2010Prop55
280
     0
102
RTVSPost2010PropOp55
 70
     1
102
RTVSPost2010Prop56
140
1.0
102
RTVSPost2010PropOp56
 70
     1
102
RTVSPost2010Prop57
140
1.0
102
RTVSPost2010PropOp57
 70
     1
102
RTVSPropertyOp0
 70
     1
102
RTVSPropertyOp1
 70
     1
102
RTVSPropertyOp2
 70
     1
102
RTVSPropertyOp3
 70
     1
102
RTVSPropertyOp4
 70
     1
102
RTVSPropertyOp5
 70
     1
102
RTVSPropertyOp6
 70
     1
102
RTVSPropertyOp7
 70
     1
102
RTVSPropertyOp8
 70
     1
102
RTVSPropertyOp9
 70
     1
102
RTVSPropertyOp10
 70
     1
102
RTVSPropertyOp11
 70
     1
102
RTVSPropertyOp12
 70
     1
102
RTVSPropertyOp13
 70
     1
102
RTVSPropertyOp14
 70
     1
102
RTVSPropertyOp15
 70
     1
102
RTVSPropertyOp16
 70
     1
102
RTVSPropertyOp17
 70
     1
102
RTVSPropertyOp18
 70
     1
102
RTVSPropertyOp19
 70
     1
102
RTVSPropertyOp20
 70
     1
102
RTVSPropertyOp21
 70
     1
102
RTVSPropertyOp22
 70
     1
102
RTVSPropertyOp23
 70
     1
102
RTVSPropertyOp24
 70
     1
102
RTVSPropertyOp25
 70
     1
102
RTVSPropertyOp26
 70
     1
102
RTVSPropertyOp27
 70
     1
102
RTVSPropertyOp28
 70
     1
102
RTVSPropertyOp29
 70
     1
102
RTVSPropertyOp30
 70
     1
102
RTVSPropertyOp31
 70
     1
102
RTVSPropertyOp32
 70
     1
102
RTVSPropertyOp33
 70
     1
102
RTVSPropertyOp34
 70
     1
102
RTVSPropertyOp35
 70
     1
102
RTVSPropertyOp36
 70
     1
102
RTVSPropertyOp37
 70
     1
102
RTVSPropertyOp38
 70
     1
102
RTVSPropertyOp39
 70
     1
102
RTVSPropertyOp40
 70
     1
102
RTVSPropertyOp41
 70
     1
102
RTVSPropertyOp42
 70
     1
102
RTVSPropertyOp43
 70
     1
102
RTVSPropertyOp44
 70
     1
102
RTVSPropertyOp45
 70
     1
102
RTVSPropertyOp46
 70
     1
102
RTVSPropertyOp47
 70
     1
102
RTVSPropertyOp48
 70
     1
102
RTVSPropertyOp49
 70
     1
102
RTVSPropertyOp50
 70
     1
102
RTVSPropertyOp51
 70
     0
102
RTVSPropertyOp52
 70
     0
102
RTVSPropertyOp53
 70
     1
102
RTVSPropertyOp54
 70
     1
102
RTVSPropertyOp55
 70
     1
102
RTVSPropertyOp56
 70
     1
102
RTVSPropertyOp57
 70
     1
102
RTVSPropertyOp58
 70
     1
102
RTVSPropertyOp59
 70
     1
102
RTVSPropertyOp60
 70
     1
102
RTVSPropertyOp61
 70
     1
102
RTVSPropertyOp62
 70
     1
  0
XRECORD
  5
A42B
102
{ACAD_REACTORS
330
A42A
102
}
330
A42A
100
AcDbXrecord
280
     1
102
RTVSPost2010Prop28
280
     0
102
RTVSPost2010PropOp28
 70
     1
102
RTVSPost2010Prop29
280
     1
102
RTVSPost2010PropOp29
 70
     1
102
RTVSPost2010Prop30
280
     1
102
RTVSPost2010PropOp30
 70
     1
102
RTVSPost2010Prop31
280
     0
102
RTVSPost2010PropOp31
 70
     1
102
RTVSPost2010Prop32
280
     0
102
RTVSPost2010PropOp32
 70
     1
102
RTVSPost2010Prop33
280
     0
102
RTVSPost2010PropOp33
 70
     1
102
RTVSPost2010Prop34
280
     0
102
RTVSPost2010PropOp34
 70
     1
102
RTVSPost2010Prop35
280
     0
102
RTVSPost2010PropOp35
 70
     1
102
RTVSPost2010Prop36
280
     0
102
RTVSPost2010PropOp36
 70
     1
102
RTVSPost2010Prop37
 90
       50
102
RTVSPost2010PropOp37
 70
     1
102
RTVSPost2010Prop38
140
0.0
102
RTVSPost2010PropOp38
 70
     1
102
RTVSPost2010Prop39
140
1.0
102
RTVSPost2010PropOp39
 70
     1
102
RTVSPost2010Prop40
 90
        0
102
RTVSPost2010PropOp40
 70
     1
102
RTVSPost2010Prop41ColorIndex
 90
       18
102
RTVSPost2010Prop41ColorRGB
 90
        0
102
RTVSPost2010PropOp41
 70
     1
102
RTVSPost2010Prop42
 90
       50
102
RTVSPost2010PropOp42
 70
     1
102
RTVSPost2010Prop43
 90
        3
102
RTVSPost2010PropOp43
 70
     1
102
RTVSPost2010Prop44ColorIndex
 90
        5
102
RTVSPost2010Prop44ColorRGB
 90
      255
102
RTVSPost2010PropOp44
 70
     1
102
RTVSPost2010Prop45
280
     0
102
RTVSPost2010PropOp45
 70
     1
102
RTVSPost2010Prop46
 90
       50
102
RTVSPost2010PropOp46
 70
     1
102
RTVSPost2010Prop47
 90
       50
102
RTVSPost2010PropOp47
 70
     1
102
RTVSPost2010Prop48
 90
       50
102
RTVSPost2010PropOp48
 70
     1
102
RTVSPost2010Prop49
280
     0
102
RTVSPost2010PropOp49
 70
     1
102
RTVSPost2010Prop50
 90
       50
102
RTVSPost2010PropOp50
 70
     1
102
RTVSPost2010Prop51ColorIndex
 90
      256
102
RTVSPost2010Prop51ColorRGB
 90
-16777216
102
RTVSPost2010PropOp51
 70
     0
102
RTVSPost2010Prop52
140
1.0
102
RTVSPost2010PropOp52
 70
     0
102
RTVSPost2010Prop53
 90
        2
102
RTVSPost2010PropOp53
 70
     1
102
RTVSPost2010Prop54
  1
strokes_ogs.tif
102
RTVSPost2010PropOp54
 70
     1
102
RTVSPost2010Prop55
280
     0
102
RTVSPost2010PropOp55
 70
     1
102
RTVSPost2010Prop56
140
1.0
102
RTVSPost2010PropOp56
 70
     1
102
RTVSPost2010Prop57
140
1.0
102
RTVSPost2010PropOp57
 70
     1
102
RTVSPropertyOp0
 70
     1
102
RTVSPropertyOp1
 70
     1
102
RTVSPropertyOp2
 70
     1
102
RTVSPropertyOp3
 70
     1
102
RTVSPropertyOp4
 70
     1
102
RTVSPropertyOp5
 70
     1
102
RTVSPropertyOp6
 70
     1
102
RTVSPropertyOp7
 70
     1
102
RTVSPropertyOp8
 70
     1
102
RTVSPropertyOp9
 70
     1
102
RTVSPropertyOp10
 70
     1
102
RTVSPropertyOp11
 70
     1
102
RTVSPropertyOp12
 70
     1
102
RTVSPropertyOp13
 70
     1
102
RTVSPropertyOp14
 70
     1
102
RTVSPropertyOp15
 70
     1
102
RTVSPropertyOp16
 70
     1
102
RTVSPropertyOp17
 70
     1
102
RTVSPropertyOp18
 70
     1
102
RTVSPropertyOp19
 70
     1
102
RTVSPropertyOp20
 70
     1
102
RTVSPropertyOp21
 70
     1
102
RTVSPropertyOp22
 70
     1
102
RTVSPropertyOp23
 70
     1
102
RTVSPropertyOp24
 70
     1
102
RTVSPropertyOp25
 70
     1
102
RTVSPropertyOp26
 70
     1
102
RTVSPropertyOp27
 70
     1
102
RTVSPropertyOp28
 70
     1
102
RTVSPropertyOp29
 70
     1
102
RTVSPropertyOp30
 70
     1
102
RTVSPropertyOp31
 70
     1
102
RTVSPropertyOp32
 70
     1
102
RTVSPropertyOp33
 70
     1
102
RTVSPropertyOp34
 70
     1
102
RTVSPropertyOp35
 70
     1
102
RTVSPropertyOp36
 70
     1
102
RTVSPropertyOp37
 70
     1
102
RTVSPropertyOp38
 70
     1
102
RTVSPropertyOp39
 70
     1
102
RTVSPropertyOp40
 70
     1
102
RTVSPropertyOp41
 70
     1
102
RTVSPropertyOp42
 70
     1
102
RTVSPropertyOp43
 70
     1
102
RTVSPropertyOp44
 70
     1
102
RTVSPropertyOp45
 70
     1
102
RTVSPropertyOp46
 70
     1
102
RTVSPropertyOp47
 70
     1
102
RTVSPropertyOp48
 70
     1
102
RTVSPropertyOp49
 70
     1
102
RTVSPropertyOp50
 70
     1
102
RTVSPropertyOp51
 70
     0
102
RTVSPropertyOp52
 70
     0
102
RTVSPropertyOp53
 70
     1
102
RTVSPropertyOp54
 70
     1
102
RTVSPropertyOp55
 70
     1
102
RTVSPropertyOp56
 70
     1
102
RTVSPropertyOp57
 70
     1
102
RTVSPropertyOp58
 70
     1
102
RTVSPropertyOp59
 70
     1
102
RTVSPropertyOp60
 70
     1
102
RTVSPropertyOp61
 70
     1
102
RTVSPropertyOp62
 70
     1
  0
XRECORD
  5
A42D
102
{ACAD_REACTORS
330
A42C
102
}
330
A42C
100
AcDbXrecord
280
     1
102
RTVSPost2010Prop28
280
     0
102
RTVSPost2010PropOp28
 70
     1
102
RTVSPost2010Prop29
280
     1
102
RTVSPost2010PropOp29
 70
     1
102
RTVSPost2010Prop30
280
     1
102
RTVSPost2010PropOp30
 70
     1
102
RTVSPost2010Prop31
280
     0
102
RTVSPost2010PropOp31
 70
     1
102
RTVSPost2010Prop32
280
     0
102
RTVSPost2010PropOp32
 70
     1
102
RTVSPost2010Prop33
280
     0
102
RTVSPost2010PropOp33
 70
     1
102
RTVSPost2010Prop34
280
     0
102
RTVSPost2010PropOp34
 70
     1
102
RTVSPost2010Prop35
280
     0
102
RTVSPost2010PropOp35
 70
     1
102
RTVSPost2010Prop36
280
     0
102
RTVSPost2010PropOp36
 70
     1
102
RTVSPost2010Prop37
 90
       50
102
RTVSPost2010PropOp37
 70
     1
102
RTVSPost2010Prop38
140
0.0
102
RTVSPost2010PropOp38
 70
     1
102
RTVSPost2010Prop39
140
1.0
102
RTVSPost2010PropOp39
 70
     1
102
RTVSPost2010Prop40
 90
        0
102
RTVSPost2010PropOp40
 70
     1
102
RTVSPost2010Prop41ColorIndex
 90
       18
102
RTVSPost2010Prop41ColorRGB
 90
        0
102
RTVSPost2010PropOp41
 70
     1
102
RTVSPost2010Prop42
 90
       50
102
RTVSPost2010PropOp42
 70
     1
102
RTVSPost2010Prop43
 90
        3
102
RTVSPost2010PropOp43
 70
     1
102
RTVSPost2010Prop44ColorIndex
 90
        5
102
RTVSPost2010Prop44ColorRGB
 90
      255
102
RTVSPost2010PropOp44
 70
     1
102
RTVSPost2010Prop45
280
     0
102
RTVSPost2010PropOp45
 70
     1
102
RTVSPost2010Prop46
 90
       50
102
RTVSPost2010PropOp46
 70
     1
102
RTVSPost2010Prop47
 90
       50
102
RTVSPost2010PropOp47
 70
     1
102
RTVSPost2010Prop48
 90
       50
102
RTVSPost2010PropOp48
 70
     1
102
RTVSPost2010Prop49
280
     0
102
RTVSPost2010PropOp49
 70
     1
102
RTVSPost2010Prop50
 90
       50
102
RTVSPost2010PropOp50
 70
     1
102
RTVSPost2010Prop51ColorIndex
 90
      256
102
RTVSPost2010Prop51ColorRGB
 90
-16777216
102
RTVSPost2010PropOp51
 70
     0
102
RTVSPost2010Prop52
140
1.0
102
RTVSPost2010PropOp52
 70
     0
102
RTVSPost2010Prop53
 90
        2
102
RTVSPost2010PropOp53
 70
     1
102
RTVSPost2010Prop54
  1
strokes_ogs.tif
102
RTVSPost2010PropOp54
 70
     1
102
RTVSPost2010Prop55
280
     0
102
RTVSPost2010PropOp55
 70
     1
102
RTVSPost2010Prop56
140
1.0
102
RTVSPost2010PropOp56
 70
     1
102
RTVSPost2010Prop57
140
1.0
102
RTVSPost2010PropOp57
 70
     1
102
RTVSPropertyOp0
 70
     1
102
RTVSPropertyOp1
 70
     1
102
RTVSPropertyOp2
 70
     1
102
RTVSPropertyOp3
 70
     1
102
RTVSPropertyOp4
 70
     1
102
RTVSPropertyOp5
 70
     1
102
RTVSPropertyOp6
 70
     1
102
RTVSPropertyOp7
 70
     1
102
RTVSPropertyOp8
 70
     1
102
RTVSPropertyOp9
 70
     1
102
RTVSPropertyOp10
 70
     1
102
RTVSPropertyOp11
 70
     1
102
RTVSPropertyOp12
 70
     1
102
RTVSPropertyOp13
 70
     1
102
RTVSPropertyOp14
 70
     1
102
RTVSPropertyOp15
 70
     1
102
RTVSPropertyOp16
 70
     1
102
RTVSPropertyOp17
 70
     1
102
RTVSPropertyOp18
 70
     1
102
RTVSPropertyOp19
 70
     1
102
RTVSPropertyOp20
 70
     1
102
RTVSPropertyOp21
 70
     1
102
RTVSPropertyOp22
 70
     1
102
RTVSPropertyOp23
 70
     1
102
RTVSPropertyOp24
 70
     1
102
RTVSPropertyOp25
 70
     1
102
RTVSPropertyOp26
 70
     1
102
RTVSPropertyOp27
 70
     1
102
RTVSPropertyOp28
 70
     1
102
RTVSPropertyOp29
 70
     1
102
RTVSPropertyOp30
 70
     1
102
RTVSPropertyOp31
 70
     1
102
RTVSPropertyOp32
 70
     1
102
RTVSPropertyOp33
 70
     1
102
RTVSPropertyOp34
 70
     1
102
RTVSPropertyOp35
 70
     1
102
RTVSPropertyOp36
 70
     1
102
RTVSPropertyOp37
 70
     1
102
RTVSPropertyOp38
 70
     1
102
RTVSPropertyOp39
 70
     1
102
RTVSPropertyOp40
 70
     1
102
RTVSPropertyOp41
 70
     1
102
RTVSPropertyOp42
 70
     1
102
RTVSPropertyOp43
 70
     1
102
RTVSPropertyOp44
 70
     1
102
RTVSPropertyOp45
 70
     1
102
RTVSPropertyOp46
 70
     1
102
RTVSPropertyOp47
 70
     1
102
RTVSPropertyOp48
 70
     1
102
RTVSPropertyOp49
 70
     1
102
RTVSPropertyOp50
 70
     1
102
RTVSPropertyOp51
 70
     0
102
RTVSPropertyOp52
 70
     0
102
RTVSPropertyOp53
 70
     1
102
RTVSPropertyOp54
 70
     1
102
RTVSPropertyOp55
 70
     1
102
RTVSPropertyOp56
 70
     1
102
RTVSPropertyOp57
 70
     1
102
RTVSPropertyOp58
 70
     1
102
RTVSPropertyOp59
 70
     1
102
RTVSPropertyOp60
 70
     1
102
RTVSPropertyOp61
 70
     1
102
RTVSPropertyOp62
 70
     1
  0
XRECORD
  5
A435
102
{ACAD_REACTORS
330
A434
102
}
330
A434
100
AcDbXrecord
280
     1
102
RTVSPost2010Prop28
280
     0
102
RTVSPost2010PropOp28
 70
     1
102
RTVSPost2010Prop29
280
     1
102
RTVSPost2010PropOp29
 70
     1
102
RTVSPost2010Prop30
280
     1
102
RTVSPost2010PropOp30
 70
     1
102
RTVSPost2010Prop31
280
     0
102
RTVSPost2010PropOp31
 70
     1
102
RTVSPost2010Prop32
280
     0
102
RTVSPost2010PropOp32
 70
     1
102
RTVSPost2010Prop33
280
     0
102
RTVSPost2010PropOp33
 70
     1
102
RTVSPost2010Prop34
280
     0
102
RTVSPost2010PropOp34
 70
     1
102
RTVSPost2010Prop35
280
     0
102
RTVSPost2010PropOp35
 70
     1
102
RTVSPost2010Prop36
280
     0
102
RTVSPost2010PropOp36
 70
     1
102
RTVSPost2010Prop37
 90
       50
102
RTVSPost2010PropOp37
 70
     1
102
RTVSPost2010Prop38
140
0.0
102
RTVSPost2010PropOp38
 70
     1
102
RTVSPost2010Prop39
140
1.0
102
RTVSPost2010PropOp39
 70
     1
102
RTVSPost2010Prop40
 90
        0
102
RTVSPost2010PropOp40
 70
     1
102
RTVSPost2010Prop41ColorIndex
 90
       18
102
RTVSPost2010Prop41ColorRGB
 90
        0
102
RTVSPost2010PropOp41
 70
     1
102
RTVSPost2010Prop42
 90
       50
102
RTVSPost2010PropOp42
 70
     1
102
RTVSPost2010Prop43
 90
        3
102
RTVSPost2010PropOp43
 70
     1
102
RTVSPost2010Prop44ColorIndex
 90
        5
102
RTVSPost2010Prop44ColorRGB
 90
      255
102
RTVSPost2010PropOp44
 70
     1
102
RTVSPost2010Prop45
280
     0
102
RTVSPost2010PropOp45
 70
     1
102
RTVSPost2010Prop46
 90
       50
102
RTVSPost2010PropOp46
 70
     1
102
RTVSPost2010Prop47
 90
       50
102
RTVSPost2010PropOp47
 70
     1
102
RTVSPost2010Prop48
 90
       50
102
RTVSPost2010PropOp48
 70
     1
102
RTVSPost2010Prop49
280
     0
102
RTVSPost2010PropOp49
 70
     1
102
RTVSPost2010Prop50
 90
       50
102
RTVSPost2010PropOp50
 70
     1
102
RTVSPost2010Prop51ColorIndex
 90
      256
102
RTVSPost2010Prop51ColorRGB
 90
-16777216
102
RTVSPost2010PropOp51
 70
     0
102
RTVSPost2010Prop52
140
1.0
102
RTVSPost2010PropOp52
 70
     0
102
RTVSPost2010Prop53
 90
        2
102
RTVSPost2010PropOp53
 70
     1
102
RTVSPost2010Prop54
  1
strokes_ogs.tif
102
RTVSPost2010PropOp54
 70
     1
102
RTVSPost2010Prop55
280
     0
102
RTVSPost2010PropOp55
 70
     1
102
RTVSPost2010Prop56
140
1.0
102
RTVSPost2010PropOp56
 70
     1
102
RTVSPost2010Prop57
140
1.0
102
RTVSPost2010PropOp57
 70
     1
102
RTVSPropertyOp0
 70
     1
102
RTVSPropertyOp1
 70
     1
102
RTVSPropertyOp2
 70
     1
102
RTVSPropertyOp3
 70
     1
102
RTVSPropertyOp4
 70
     1
102
RTVSPropertyOp5
 70
     1
102
RTVSPropertyOp6
 70
     1
102
RTVSPropertyOp7
 70
     1
102
RTVSPropertyOp8
 70
     1
102
RTVSPropertyOp9
 70
     1
102
RTVSPropertyOp10
 70
     1
102
RTVSPropertyOp11
 70
     1
102
RTVSPropertyOp12
 70
     1
102
RTVSPropertyOp13
 70
     1
102
RTVSPropertyOp14
 70
     1
102
RTVSPropertyOp15
 70
     1
102
RTVSPropertyOp16
 70
     1
102
RTVSPropertyOp17
 70
     1
102
RTVSPropertyOp18
 70
     1
102
RTVSPropertyOp19
 70
     1
102
RTVSPropertyOp20
 70
     1
102
RTVSPropertyOp21
 70
     1
102
RTVSPropertyOp22
 70
     1
102
RTVSPropertyOp23
 70
     1
102
RTVSPropertyOp24
 70
     1
102
RTVSPropertyOp25
 70
     1
102
RTVSPropertyOp26
 70
     1
102
RTVSPropertyOp27
 70
     1
102
RTVSPropertyOp28
 70
     1
102
RTVSPropertyOp29
 70
     1
102
RTVSPropertyOp30
 70
     1
102
RTVSPropertyOp31
 70
     1
102
RTVSPropertyOp32
 70
     1
102
RTVSPropertyOp33
 70
     1
102
RTVSPropertyOp34
 70
     1
102
RTVSPropertyOp35
 70
     1
102
RTVSPropertyOp36
 70
     1
102
RTVSPropertyOp37
 70
     1
102
RTVSPropertyOp38
 70
     1
102
RTVSPropertyOp39
 70
     1
102
RTVSPropertyOp40
 70
     1
102
RTVSPropertyOp41
 70
     1
102
RTVSPropertyOp42
 70
     1
102
RTVSPropertyOp43
 70
     1
102
RTVSPropertyOp44
 70
     1
102
RTVSPropertyOp45
 70
     1
102
RTVSPropertyOp46
 70
     1
102
RTVSPropertyOp47
 70
     1
102
RTVSPropertyOp48
 70
     1
102
RTVSPropertyOp49
 70
     1
102
RTVSPropertyOp50
 70
     1
102
RTVSPropertyOp51
 70
     0
102
RTVSPropertyOp52
 70
     0
102
RTVSPropertyOp53
 70
     1
102
RTVSPropertyOp54
 70
     1
102
RTVSPropertyOp55
 70
     1
102
RTVSPropertyOp56
 70
     1
102
RTVSPropertyOp57
 70
     1
102
RTVSPropertyOp58
 70
     1
102
RTVSPropertyOp59
 70
     1
102
RTVSPropertyOp60
 70
     1
102
RTVSPropertyOp61
 70
     1
102
RTVSPropertyOp62
 70
     1
  0
XRECORD
  5
A451
102
{ACAD_REACTORS
330
A450
102
}
330
A450
100
AcDbXrecord
280
     1
102
RTVSPost2010Prop28
280
     0
102
RTVSPost2010PropOp28
 70
     1
102
RTVSPost2010Prop29
280
     1
102
RTVSPost2010PropOp29
 70
     1
102
RTVSPost2010Prop30
280
     1
102
RTVSPost2010PropOp30
 70
     1
102
RTVSPost2010Prop31
280
     0
102
RTVSPost2010PropOp31
 70
     1
102
RTVSPost2010Prop32
280
     0
102
RTVSPost2010PropOp32
 70
     1
102
RTVSPost2010Prop33
280
     0
102
RTVSPost2010PropOp33
 70
     1
102
RTVSPost2010Prop34
280
     0
102
RTVSPost2010PropOp34
 70
     1
102
RTVSPost2010Prop35
280
     0
102
RTVSPost2010PropOp35
 70
     1
102
RTVSPost2010Prop36
280
     0
102
RTVSPost2010PropOp36
 70
     1
102
RTVSPost2010Prop37
 90
       50
102
RTVSPost2010PropOp37
 70
     0
102
RTVSPost2010Prop38
140
0.0
102
RTVSPost2010PropOp38
 70
     0
102
RTVSPost2010Prop39
140
1.0
102
RTVSPost2010PropOp39
 70
     0
102
RTVSPost2010Prop40
 90
        0
102
RTVSPost2010PropOp40
 70
     0
102
RTVSPost2010Prop41ColorIndex
 90
       18
102
RTVSPost2010Prop41ColorRGB
 90
        0
102
RTVSPost2010PropOp41
 70
     0
102
RTVSPost2010Prop42
 90
       50
102
RTVSPost2010PropOp42
 70
     0
102
RTVSPost2010Prop43
 90
        3
102
RTVSPost2010PropOp43
 70
     0
102
RTVSPost2010Prop44ColorIndex
 90
        5
102
RTVSPost2010Prop44ColorRGB
 90
      255
102
RTVSPost2010PropOp44
 70
     0
102
RTVSPost2010Prop45
280
     0
102
RTVSPost2010PropOp45
 70
     1
102
RTVSPost2010Prop46
 90
       50
102
RTVSPost2010PropOp46
 70
     0
102
RTVSPost2010Prop47
 90
       50
102
RTVSPost2010PropOp47
 70
     0
102
RTVSPost2010Prop48
 90
       50
102
RTVSPost2010PropOp48
 70
     0
102
RTVSPost2010Prop49
280
     0
102
RTVSPost2010PropOp49
 70
     1
102
RTVSPost2010Prop50
 90
       50
102
RTVSPost2010PropOp50
 70
     0
102
RTVSPost2010Prop51ColorIndex
 90
      256
102
RTVSPost2010Prop51ColorRGB
 90
-16777216
102
RTVSPost2010PropOp51
 70
     0
102
RTVSPost2010Prop52
140
1.0
102
RTVSPost2010PropOp52
 70
     0
102
RTVSPost2010Prop53
 90
        2
102
RTVSPost2010PropOp53
 70
     0
102
RTVSPost2010Prop54
  1
strokes_ogs.tif
102
RTVSPost2010PropOp54
 70
     0
102
RTVSPost2010Prop55
280
     0
102
RTVSPost2010PropOp55
 70
     1
102
RTVSPost2010Prop56
140
1.0
102
RTVSPost2010PropOp56
 70
     0
102
RTVSPost2010Prop57
140
1.0
102
RTVSPost2010PropOp57
 70
     0
102
RTVSPropertyOp0
 70
     0
102
RTVSPropertyOp1
 70
     0
102
RTVSPropertyOp2
 70
     0
102
RTVSPropertyOp3
 70
     0
102
RTVSPropertyOp4
 70
     0
102
RTVSPropertyOp5
 70
     0
102
RTVSPropertyOp6
 70
     0
102
RTVSPropertyOp7
 70
     0
102
RTVSPropertyOp8
 70
     0
102
RTVSPropertyOp9
 70
     0
102
RTVSPropertyOp10
 70
     0
102
RTVSPropertyOp11
 70
     0
102
RTVSPropertyOp12
 70
     0
102
RTVSPropertyOp13
 70
     0
102
RTVSPropertyOp14
 70
     2
102
RTVSPropertyOp15
 70
     0
102
RTVSPropertyOp16
 70
     0
102
RTVSPropertyOp17
 70
     0
102
RTVSPropertyOp18
 70
     0
102
RTVSPropertyOp19
 70
     0
102
RTVSPropertyOp20
 70
     0
102
RTVSPropertyOp21
 70
     0
102
RTVSPropertyOp22
 70
     0
102
RTVSPropertyOp23
 70
     0
102
RTVSPropertyOp24
 70
     0
102
RTVSPropertyOp25
 70
     0
102
RTVSPropertyOp26
 70
     0
102
RTVSPropertyOp27
 70
     0
102
RTVSPropertyOp28
 70
     1
102
RTVSPropertyOp29
 70
     1
102
RTVSPropertyOp30
 70
     1
102
RTVSPropertyOp31
 70
     1
102
RTVSPropertyOp32
 70
     1
102
RTVSPropertyOp33
 70
     1
102
RTVSPropertyOp34
 70
     1
102
RTVSPropertyOp35
 70
     1
102
RTVSPropertyOp36
 70
     1
102
RTVSPropertyOp37
 70
     0
102
RTVSPropertyOp38
 70
     0
102
RTVSPropertyOp39
 70
     0
102
RTVSPropertyOp40
 70
     0
102
RTVSPropertyOp41
 70
     0
102
RTVSPropertyOp42
 70
     0
102
RTVSPropertyOp43
 70
     0
102
RTVSPropertyOp44
 70
     0
102
RTVSPropertyOp45
 70
     1
102
RTVSPropertyOp46
 70
     0
102
RTVSPropertyOp47
 70
     0
102
RTVSPropertyOp48
 70
     0
102
RTVSPropertyOp49
 70
     1
102
RTVSPropertyOp50
 70
     0
102
RTVSPropertyOp51
 70
     0
102
RTVSPropertyOp52
 70
     0
102
RTVSPropertyOp53
 70
     0
102
RTVSPropertyOp54
 70
     0
102
RTVSPropertyOp55
 70
     1
102
RTVSPropertyOp56
 70
     0
102
RTVSPropertyOp57
 70
     0
102
RTVSPropertyOp58
 70
     0
102
RTVSPropertyOp59
 70
     0
102
RTVSPropertyOp60
 70
     0
102
RTVSPropertyOp61
 70
     0
102
RTVSPropertyOp62
 70
     0
  0
XRECORD
  5
A441
102
{ACAD_REACTORS
330
A440
102
}
330
A440
100
AcDbXrecord
280
     1
102
RTVSPost2010Prop28
280
     0
102
RTVSPost2010PropOp28
 70
     1
102
RTVSPost2010Prop29
280
     1
102
RTVSPost2010PropOp29
 70
     1
102
RTVSPost2010Prop30
280
     1
102
RTVSPost2010PropOp30
 70
     1
102
RTVSPost2010Prop31
280
     0
102
RTVSPost2010PropOp31
 70
     1
102
RTVSPost2010Prop32
280
     0
102
RTVSPost2010PropOp32
 70
     1
102
RTVSPost2010Prop33
280
     0
102
RTVSPost2010PropOp33
 70
     1
102
RTVSPost2010Prop34
280
     0
102
RTVSPost2010PropOp34
 70
     1
102
RTVSPost2010Prop35
280
     0
102
RTVSPost2010PropOp35
 70
     1
102
RTVSPost2010Prop36
280
     0
102
RTVSPost2010PropOp36
 70
     1
102
RTVSPost2010Prop37
 90
       50
102
RTVSPost2010PropOp37
 70
     1
102
RTVSPost2010Prop38
140
0.0
102
RTVSPost2010PropOp38
 70
     1
102
RTVSPost2010Prop39
140
1.0
102
RTVSPost2010PropOp39
 70
     1
102
RTVSPost2010Prop40
 90
        0
102
RTVSPost2010PropOp40
 70
     1
102
RTVSPost2010Prop41ColorIndex
 90
       18
102
RTVSPost2010Prop41ColorRGB
 90
        0
102
RTVSPost2010PropOp41
 70
     1
102
RTVSPost2010Prop42
 90
       50
102
RTVSPost2010PropOp42
 70
     1
102
RTVSPost2010Prop43
 90
        3
102
RTVSPost2010PropOp43
 70
     1
102
RTVSPost2010Prop44ColorIndex
 90
        5
102
RTVSPost2010Prop44ColorRGB
 90
      255
102
RTVSPost2010PropOp44
 70
     1
102
RTVSPost2010Prop45
280
     0
102
RTVSPost2010PropOp45
 70
     1
102
RTVSPost2010Prop46
 90
       50
102
RTVSPost2010PropOp46
 70
     1
102
RTVSPost2010Prop47
 90
       50
102
RTVSPost2010PropOp47
 70
     1
102
RTVSPost2010Prop48
 90
       50
102
RTVSPost2010PropOp48
 70
     1
102
RTVSPost2010Prop49
280
     0
102
RTVSPost2010PropOp49
 70
     1
102
RTVSPost2010Prop50
 90
       50
102
RTVSPost2010PropOp50
 70
     1
102
RTVSPost2010Prop51ColorIndex
 90
      256
102
RTVSPost2010Prop51ColorRGB
 90
-16777216
102
RTVSPost2010PropOp51
 70
     0
102
RTVSPost2010Prop52
140
1.0
102
RTVSPost2010PropOp52
 70
     0
102
RTVSPost2010Prop53
 90
        2
102
RTVSPost2010PropOp53
 70
     1
102
RTVSPost2010Prop54
  1
strokes_ogs.tif
102
RTVSPost2010PropOp54
 70
     1
102
RTVSPost2010Prop55
280
     0
102
RTVSPost2010PropOp55
 70
     1
102
RTVSPost2010Prop56
140
1.0
102
RTVSPost2010PropOp56
 70
     1
102
RTVSPost2010Prop57
140
1.0
102
RTVSPost2010PropOp57
 70
     1
102
RTVSPropertyOp0
 70
     1
102
RTVSPropertyOp1
 70
     1
102
RTVSPropertyOp2
 70
     1
102
RTVSPropertyOp3
 70
     1
102
RTVSPropertyOp4
 70
     1
102
RTVSPropertyOp5
 70
     1
102
RTVSPropertyOp6
 70
     1
102
RTVSPropertyOp7
 70
     1
102
RTVSPropertyOp8
 70
     1
102
RTVSPropertyOp9
 70
     1
102
RTVSPropertyOp10
 70
     1
102
RTVSPropertyOp11
 70
     1
102
RTVSPropertyOp12
 70
     1
102
RTVSPropertyOp13
 70
     1
102
RTVSPropertyOp14
 70
     1
102
RTVSPropertyOp15
 70
     1
102
RTVSPropertyOp16
 70
     1
102
RTVSPropertyOp17
 70
     1
102
RTVSPropertyOp18
 70
     1
102
RTVSPropertyOp19
 70
     1
102
RTVSPropertyOp20
 70
     1
102
RTVSPropertyOp21
 70
     1
102
RTVSPropertyOp22
 70
     1
102
RTVSPropertyOp23
 70
     1
102
RTVSPropertyOp24
 70
     1
102
RTVSPropertyOp25
 70
     1
102
RTVSPropertyOp26
 70
     1
102
RTVSPropertyOp27
 70
     1
102
RTVSPropertyOp28
 70
     1
102
RTVSPropertyOp29
 70
     1
102
RTVSPropertyOp30
 70
     1
102
RTVSPropertyOp31
 70
     1
102
RTVSPropertyOp32
 70
     1
102
RTVSPropertyOp33
 70
     1
102
RTVSPropertyOp34
 70
     1
102
RTVSPropertyOp35
 70
     1
102
RTVSPropertyOp36
 70
     1
102
RTVSPropertyOp37
 70
     1
102
RTVSPropertyOp38
 70
     1
102
RTVSPropertyOp39
 70
     1
102
RTVSPropertyOp40
 70
     1
102
RTVSPropertyOp41
 70
     1
102
RTVSPropertyOp42
 70
     1
102
RTVSPropertyOp43
 70
     1
102
RTVSPropertyOp44
 70
     1
102
RTVSPropertyOp45
 70
     1
102
RTVSPropertyOp46
 70
     1
102
RTVSPropertyOp47
 70
     1
102
RTVSPropertyOp48
 70
     1
102
RTVSPropertyOp49
 70
     1
102
RTVSPropertyOp50
 70
     1
102
RTVSPropertyOp51
 70
     0
102
RTVSPropertyOp52
 70
     0
102
RTVSPropertyOp53
 70
     1
102
RTVSPropertyOp54
 70
     1
102
RTVSPropertyOp55
 70
     1
102
RTVSPropertyOp56
 70
     1
102
RTVSPropertyOp57
 70
     1
102
RTVSPropertyOp58
 70
     1
102
RTVSPropertyOp59
 70
     1
102
RTVSPropertyOp60
 70
     1
102
RTVSPropertyOp61
 70
     1
102
RTVSPropertyOp62
 70
     1
  0
XRECORD
  5
A453
102
{ACAD_REACTORS
330
A452
102
}
330
A452
100
AcDbXrecord
280
     1
102
RTVSPost2010Prop28
280
     0
102
RTVSPost2010PropOp28
 70
     1
102
RTVSPost2010Prop29
280
     1
102
RTVSPost2010PropOp29
 70
     1
102
RTVSPost2010Prop30
280
     1
102
RTVSPost2010PropOp30
 70
     1
102
RTVSPost2010Prop31
280
     0
102
RTVSPost2010PropOp31
 70
     1
102
RTVSPost2010Prop32
280
     0
102
RTVSPost2010PropOp32
 70
     1
102
RTVSPost2010Prop33
280
     0
102
RTVSPost2010PropOp33
 70
     1
102
RTVSPost2010Prop34
280
     0
102
RTVSPost2010PropOp34
 70
     1
102
RTVSPost2010Prop35
280
     0
102
RTVSPost2010PropOp35
 70
     1
102
RTVSPost2010Prop36
280
     0
102
RTVSPost2010PropOp36
 70
     1
102
RTVSPost2010Prop37
 90
       50
102
RTVSPost2010PropOp37
 70
     0
102
RTVSPost2010Prop38
140
0.0
102
RTVSPost2010PropOp38
 70
     0
102
RTVSPost2010Prop39
140
1.0
102
RTVSPost2010PropOp39
 70
     0
102
RTVSPost2010Prop40
 90
        0
102
RTVSPost2010PropOp40
 70
     0
102
RTVSPost2010Prop41ColorIndex
 90
       18
102
RTVSPost2010Prop41ColorRGB
 90
        0
102
RTVSPost2010PropOp41
 70
     0
102
RTVSPost2010Prop42
 90
       50
102
RTVSPost2010PropOp42
 70
     0
102
RTVSPost2010Prop43
 90
        3
102
RTVSPost2010PropOp43
 70
     0
102
RTVSPost2010Prop44ColorIndex
 90
        5
102
RTVSPost2010Prop44ColorRGB
 90
      255
102
RTVSPost2010PropOp44
 70
     0
102
RTVSPost2010Prop45
280
     0
102
RTVSPost2010PropOp45
 70
     1
102
RTVSPost2010Prop46
 90
       50
102
RTVSPost2010PropOp46
 70
     0
102
RTVSPost2010Prop47
 90
       50
102
RTVSPost2010PropOp47
 70
     0
102
RTVSPost2010Prop48
 90
       50
102
RTVSPost2010PropOp48
 70
     0
102
RTVSPost2010Prop49
280
     0
102
RTVSPost2010PropOp49
 70
     1
102
RTVSPost2010Prop50
 90
       50
102
RTVSPost2010PropOp50
 70
     0
102
RTVSPost2010Prop51ColorIndex
 90
      256
102
RTVSPost2010Prop51ColorRGB
 90
-16777216
102
RTVSPost2010PropOp51
 70
     0
102
RTVSPost2010Prop52
140
1.0
102
RTVSPost2010PropOp52
 70
     0
102
RTVSPost2010Prop53
 90
        2
102
RTVSPost2010PropOp53
 70
     0
102
RTVSPost2010Prop54
  1
strokes_ogs.tif
102
RTVSPost2010PropOp54
 70
     0
102
RTVSPost2010Prop55
280
     0
102
RTVSPost2010PropOp55
 70
     1
102
RTVSPost2010Prop56
140
1.0
102
RTVSPost2010PropOp56
 70
     0
102
RTVSPost2010Prop57
140
1.0
102
RTVSPost2010PropOp57
 70
     0
102
RTVSPropertyOp0
 70
     0
102
RTVSPropertyOp1
 70
     0
102
RTVSPropertyOp2
 70
     0
102
RTVSPropertyOp3
 70
     0
102
RTVSPropertyOp4
 70
     0
102
RTVSPropertyOp5
 70
     0
102
RTVSPropertyOp6
 70
     0
102
RTVSPropertyOp7
 70
     0
102
RTVSPropertyOp8
 70
     0
102
RTVSPropertyOp9
 70
     0
102
RTVSPropertyOp10
 70
     0
102
RTVSPropertyOp11
 70
     0
102
RTVSPropertyOp12
 70
     0
102
RTVSPropertyOp13
 70
     0
102
RTVSPropertyOp14
 70
     2
102
RTVSPropertyOp15
 70
     0
102
RTVSPropertyOp16
 70
     0
102
RTVSPropertyOp17
 70
     0
102
RTVSPropertyOp18
 70
     0
102
RTVSPropertyOp19
 70
     0
102
RTVSPropertyOp20
 70
     0
102
RTVSPropertyOp21
 70
     0
102
RTVSPropertyOp22
 70
     0
102
RTVSPropertyOp23
 70
     0
102
RTVSPropertyOp24
 70
     0
102
RTVSPropertyOp25
 70
     0
102
RTVSPropertyOp26
 70
     0
102
RTVSPropertyOp27
 70
     0
102
RTVSPropertyOp28
 70
     1
102
RTVSPropertyOp29
 70
     1
102
RTVSPropertyOp30
 70
     1
102
RTVSPropertyOp31
 70
     1
102
RTVSPropertyOp32
 70
     1
102
RTVSPropertyOp33
 70
     1
102
RTVSPropertyOp34
 70
     1
102
RTVSPropertyOp35
 70
     1
102
RTVSPropertyOp36
 70
     1
102
RTVSPropertyOp37
 70
     0
102
RTVSPropertyOp38
 70
     0
102
RTVSPropertyOp39
 70
     0
102
RTVSPropertyOp40
 70
     0
102
RTVSPropertyOp41
 70
     0
102
RTVSPropertyOp42
 70
     0
102
RTVSPropertyOp43
 70
     0
102
RTVSPropertyOp44
 70
     0
102
RTVSPropertyOp45
 70
     1
102
RTVSPropertyOp46
 70
     0
102
RTVSPropertyOp47
 70
     0
102
RTVSPropertyOp48
 70
     0
102
RTVSPropertyOp49
 70
     1
102
RTVSPropertyOp50
 70
     0
102
RTVSPropertyOp51
 70
     0
102
RTVSPropertyOp52
 70
     0
102
RTVSPropertyOp53
 70
     0
102
RTVSPropertyOp54
 70
     0
102
RTVSPropertyOp55
 70
     1
102
RTVSPropertyOp56
 70
     0
102
RTVSPropertyOp57
 70
     0
102
RTVSPropertyOp58
 70
     0
102
RTVSPropertyOp59
 70
     0
102
RTVSPropertyOp60
 70
     0
102
RTVSPropertyOp61
 70
     0
102
RTVSPropertyOp62
 70
     0
  0
XRECORD
  5
A439
102
{ACAD_REACTORS
330
A438
102
}
330
A438
100
AcDbXrecord
280
     1
102
RTVSPost2010Prop28
280
     0
102
RTVSPost2010PropOp28
 70
     1
102
RTVSPost2010Prop29
280
     1
102
RTVSPost2010PropOp29
 70
     1
102
RTVSPost2010Prop30
280
     1
102
RTVSPost2010PropOp30
 70
     1
102
RTVSPost2010Prop31
280
     0
102
RTVSPost2010PropOp31
 70
     1
102
RTVSPost2010Prop32
280
     0
102
RTVSPost2010PropOp32
 70
     1
102
RTVSPost2010Prop33
280
     0
102
RTVSPost2010PropOp33
 70
     1
102
RTVSPost2010Prop34
280
     0
102
RTVSPost2010PropOp34
 70
     1
102
RTVSPost2010Prop35
280
     0
102
RTVSPost2010PropOp35
 70
     1
102
RTVSPost2010Prop36
280
     0
102
RTVSPost2010PropOp36
 70
     1
102
RTVSPost2010Prop37
 90
       50
102
RTVSPost2010PropOp37
 70
     1
102
RTVSPost2010Prop38
140
0.0
102
RTVSPost2010PropOp38
 70
     1
102
RTVSPost2010Prop39
140
1.0
102
RTVSPost2010PropOp39
 70
     1
102
RTVSPost2010Prop40
 90
        0
102
RTVSPost2010PropOp40
 70
     1
102
RTVSPost2010Prop41ColorIndex
 90
       18
102
RTVSPost2010Prop41ColorRGB
 90
        0
102
RTVSPost2010PropOp41
 70
     1
102
RTVSPost2010Prop42
 90
       50
102
RTVSPost2010PropOp42
 70
     1
102
RTVSPost2010Prop43
 90
        3
102
RTVSPost2010PropOp43
 70
     1
102
RTVSPost2010Prop44ColorIndex
 90
        5
102
RTVSPost2010Prop44ColorRGB
 90
      255
102
RTVSPost2010PropOp44
 70
     1
102
RTVSPost2010Prop45
280
     0
102
RTVSPost2010PropOp45
 70
     1
102
RTVSPost2010Prop46
 90
       50
102
RTVSPost2010PropOp46
 70
     1
102
RTVSPost2010Prop47
 90
       50
102
RTVSPost2010PropOp47
 70
     1
102
RTVSPost2010Prop48
 90
       50
102
RTVSPost2010PropOp48
 70
     1
102
RTVSPost2010Prop49
280
     0
102
RTVSPost2010PropOp49
 70
     1
102
RTVSPost2010Prop50
 90
       50
102
RTVSPost2010PropOp50
 70
     1
102
RTVSPost2010Prop51ColorIndex
 90
      256
102
RTVSPost2010Prop51ColorRGB
 90
-16777216
102
RTVSPost2010PropOp51
 70
     0
102
RTVSPost2010Prop52
140
1.0
102
RTVSPost2010PropOp52
 70
     0
102
RTVSPost2010Prop53
 90
        2
102
RTVSPost2010PropOp53
 70
     1
102
RTVSPost2010Prop54
  1
strokes_ogs.tif
102
RTVSPost2010PropOp54
 70
     1
102
RTVSPost2010Prop55
280
     0
102
RTVSPost2010PropOp55
 70
     1
102
RTVSPost2010Prop56
140
1.0
102
RTVSPost2010PropOp56
 70
     1
102
RTVSPost2010Prop57
140
1.0
102
RTVSPost2010PropOp57
 70
     1
102
RTVSPropertyOp0
 70
     1
102
RTVSPropertyOp1
 70
     1
102
RTVSPropertyOp2
 70
     1
102
RTVSPropertyOp3
 70
     1
102
RTVSPropertyOp4
 70
     1
102
RTVSPropertyOp5
 70
     1
102
RTVSPropertyOp6
 70
     1
102
RTVSPropertyOp7
 70
     1
102
RTVSPropertyOp8
 70
     1
102
RTVSPropertyOp9
 70
     1
102
RTVSPropertyOp10
 70
     1
102
RTVSPropertyOp11
 70
     1
102
RTVSPropertyOp12
 70
     1
102
RTVSPropertyOp13
 70
     1
102
RTVSPropertyOp14
 70
     1
102
RTVSPropertyOp15
 70
     1
102
RTVSPropertyOp16
 70
     1
102
RTVSPropertyOp17
 70
     1
102
RTVSPropertyOp18
 70
     1
102
RTVSPropertyOp19
 70
     1
102
RTVSPropertyOp20
 70
     1
102
RTVSPropertyOp21
 70
     1
102
RTVSPropertyOp22
 70
     1
102
RTVSPropertyOp23
 70
     1
102
RTVSPropertyOp24
 70
     1
102
RTVSPropertyOp25
 70
     1
102
RTVSPropertyOp26
 70
     1
102
RTVSPropertyOp27
 70
     1
102
RTVSPropertyOp28
 70
     1
102
RTVSPropertyOp29
 70
     1
102
RTVSPropertyOp30
 70
     1
102
RTVSPropertyOp31
 70
     1
102
RTVSPropertyOp32
 70
     1
102
RTVSPropertyOp33
 70
     1
102
RTVSPropertyOp34
 70
     1
102
RTVSPropertyOp35
 70
     1
102
RTVSPropertyOp36
 70
     1
102
RTVSPropertyOp37
 70
     1
102
RTVSPropertyOp38
 70
     1
102
RTVSPropertyOp39
 70
     1
102
RTVSPropertyOp40
 70
     1
102
RTVSPropertyOp41
 70
     1
102
RTVSPropertyOp42
 70
     1
102
RTVSPropertyOp43
 70
     1
102
RTVSPropertyOp44
 70
     1
102
RTVSPropertyOp45
 70
     1
102
RTVSPropertyOp46
 70
     1
102
RTVSPropertyOp47
 70
     1
102
RTVSPropertyOp48
 70
     1
102
RTVSPropertyOp49
 70
     1
102
RTVSPropertyOp50
 70
     1
102
RTVSPropertyOp51
 70
     0
102
RTVSPropertyOp52
 70
     0
102
RTVSPropertyOp53
 70
     1
102
RTVSPropertyOp54
 70
     1
102
RTVSPropertyOp55
 70
     1
102
RTVSPropertyOp56
 70
     1
102
RTVSPropertyOp57
 70
     1
102
RTVSPropertyOp58
 70
     1
102
RTVSPropertyOp59
 70
     1
102
RTVSPropertyOp60
 70
     1
102
RTVSPropertyOp61
 70
     1
102
RTVSPropertyOp62
 70
     1
  0
XRECORD
  5
A44F
102
{ACAD_REACTORS
330
A44E
102
}
330
A44E
100
AcDbXrecord
280
     1
102
RTVSPost2010Prop28
280
     0
102
RTVSPost2010PropOp28
 70
     1
102
RTVSPost2010Prop29
280
     1
102
RTVSPost2010PropOp29
 70
     1
102
RTVSPost2010Prop30
280
     1
102
RTVSPost2010PropOp30
 70
     1
102
RTVSPost2010Prop31
280
     0
102
RTVSPost2010PropOp31
 70
     1
102
RTVSPost2010Prop32
280
     0
102
RTVSPost2010PropOp32
 70
     1
102
RTVSPost2010Prop33
280
     0
102
RTVSPost2010PropOp33
 70
     1
102
RTVSPost2010Prop34
280
     0
102
RTVSPost2010PropOp34
 70
     1
102
RTVSPost2010Prop35
280
     0
102
RTVSPost2010PropOp35
 70
     1
102
RTVSPost2010Prop36
280
     0
102
RTVSPost2010PropOp36
 70
     1
102
RTVSPost2010Prop37
 90
       50
102
RTVSPost2010PropOp37
 70
     1
102
RTVSPost2010Prop38
140
0.0
102
RTVSPost2010PropOp38
 70
     1
102
RTVSPost2010Prop39
140
1.0
102
RTVSPost2010PropOp39
 70
     1
102
RTVSPost2010Prop40
 90
        0
102
RTVSPost2010PropOp40
 70
     1
102
RTVSPost2010Prop41ColorIndex
 90
       18
102
RTVSPost2010Prop41ColorRGB
 90
        0
102
RTVSPost2010PropOp41
 70
     1
102
RTVSPost2010Prop42
 90
       50
102
RTVSPost2010PropOp42
 70
     1
102
RTVSPost2010Prop43
 90
        3
102
RTVSPost2010PropOp43
 70
     1
102
RTVSPost2010Prop44ColorIndex
 90
        5
102
RTVSPost2010Prop44ColorRGB
 90
      255
102
RTVSPost2010PropOp44
 70
     1
102
RTVSPost2010Prop45
280
     0
102
RTVSPost2010PropOp45
 70
     1
102
RTVSPost2010Prop46
 90
       50
102
RTVSPost2010PropOp46
 70
     1
102
RTVSPost2010Prop47
 90
       50
102
RTVSPost2010PropOp47
 70
     1
102
RTVSPost2010Prop48
 90
       50
102
RTVSPost2010PropOp48
 70
     1
102
RTVSPost2010Prop49
280
     0
102
RTVSPost2010PropOp49
 70
     1
102
RTVSPost2010Prop50
 90
       50
102
RTVSPost2010PropOp50
 70
     1
102
RTVSPost2010Prop51ColorIndex
 90
      256
102
RTVSPost2010Prop51ColorRGB
 90
-16777216
102
RTVSPost2010PropOp51
 70
     0
102
RTVSPost2010Prop52
140
1.0
102
RTVSPost2010PropOp52
 70
     0
102
RTVSPost2010Prop53
 90
        2
102
RTVSPost2010PropOp53
 70
     1
102
RTVSPost2010Prop54
  1
strokes_ogs.tif
102
RTVSPost2010PropOp54
 70
     1
102
RTVSPost2010Prop55
280
     0
102
RTVSPost2010PropOp55
 70
     1
102
RTVSPost2010Prop56
140
1.0
102
RTVSPost2010PropOp56
 70
     1
102
RTVSPost2010Prop57
140
1.0
102
RTVSPost2010PropOp57
 70
     1
102
RTVSPropertyOp0
 70
     1
102
RTVSPropertyOp1
 70
     1
102
RTVSPropertyOp2
 70
     1
102
RTVSPropertyOp3
 70
     1
102
RTVSPropertyOp4
 70
     1
102
RTVSPropertyOp5
 70
     1
102
RTVSPropertyOp6
 70
     1
102
RTVSPropertyOp7
 70
     1
102
RTVSPropertyOp8
 70
     1
102
RTVSPropertyOp9
 70
     1
102
RTVSPropertyOp10
 70
     1
102
RTVSPropertyOp11
 70
     1
102
RTVSPropertyOp12
 70
     1
102
RTVSPropertyOp13
 70
     1
102
RTVSPropertyOp14
 70
     1
102
RTVSPropertyOp15
 70
     1
102
RTVSPropertyOp16
 70
     1
102
RTVSPropertyOp17
 70
     1
102
RTVSPropertyOp18
 70
     1
102
RTVSPropertyOp19
 70
     1
102
RTVSPropertyOp20
 70
     1
102
RTVSPropertyOp21
 70
     1
102
RTVSPropertyOp22
 70
     1
102
RTVSPropertyOp23
 70
     1
102
RTVSPropertyOp24
 70
     1
102
RTVSPropertyOp25
 70
     1
102
RTVSPropertyOp26
 70
     1
102
RTVSPropertyOp27
 70
     1
102
RTVSPropertyOp28
 70
     1
102
RTVSPropertyOp29
 70
     1
102
RTVSPropertyOp30
 70
     1
102
RTVSPropertyOp31
 70
     1
102
RTVSPropertyOp32
 70
     1
102
RTVSPropertyOp33
 70
     1
102
RTVSPropertyOp34
 70
     1
102
RTVSPropertyOp35
 70
     1
102
RTVSPropertyOp36
 70
     1
102
RTVSPropertyOp37
 70
     1
102
RTVSPropertyOp38
 70
     1
102
RTVSPropertyOp39
 70
     1
102
RTVSPropertyOp40
 70
     1
102
RTVSPropertyOp41
 70
     1
102
RTVSPropertyOp42
 70
     1
102
RTVSPropertyOp43
 70
     1
102
RTVSPropertyOp44
 70
     1
102
RTVSPropertyOp45
 70
     1
102
RTVSPropertyOp46
 70
     1
102
RTVSPropertyOp47
 70
     1
102
RTVSPropertyOp48
 70
     1
102
RTVSPropertyOp49
 70
     1
102
RTVSPropertyOp50
 70
     1
102
RTVSPropertyOp51
 70
     0
102
RTVSPropertyOp52
 70
     0
102
RTVSPropertyOp53
 70
     1
102
RTVSPropertyOp54
 70
     1
102
RTVSPropertyOp55
 70
     1
102
RTVSPropertyOp56
 70
     1
102
RTVSPropertyOp57
 70
     1
102
RTVSPropertyOp58
 70
     1
102
RTVSPropertyOp59
 70
     1
102
RTVSPropertyOp60
 70
     1
102
RTVSPropertyOp61
 70
     1
102
RTVSPropertyOp62
 70
     1
  0
XRECORD
  5
A44D
102
{ACAD_REACTORS
330
A44C
102
}
330
A44C
100
AcDbXrecord
280
     1
102
RTVSPost2010Prop28
280
     0
102
RTVSPost2010PropOp28
 70
     1
102
RTVSPost2010Prop29
280
     1
102
RTVSPost2010PropOp29
 70
     1
102
RTVSPost2010Prop30
280
     1
102
RTVSPost2010PropOp30
 70
     1
102
RTVSPost2010Prop31
280
     0
102
RTVSPost2010PropOp31
 70
     1
102
RTVSPost2010Prop32
280
     0
102
RTVSPost2010PropOp32
 70
     1
102
RTVSPost2010Prop33
280
     0
102
RTVSPost2010PropOp33
 70
     1
102
RTVSPost2010Prop34
280
     0
102
RTVSPost2010PropOp34
 70
     1
102
RTVSPost2010Prop35
280
     0
102
RTVSPost2010PropOp35
 70
     1
102
RTVSPost2010Prop36
280
     0
102
RTVSPost2010PropOp36
 70
     1
102
RTVSPost2010Prop37
 90
       50
102
RTVSPost2010PropOp37
 70
     1
102
RTVSPost2010Prop38
140
0.0
102
RTVSPost2010PropOp38
 70
     1
102
RTVSPost2010Prop39
140
1.0
102
RTVSPost2010PropOp39
 70
     1
102
RTVSPost2010Prop40
 90
        0
102
RTVSPost2010PropOp40
 70
     1
102
RTVSPost2010Prop41ColorIndex
 90
       18
102
RTVSPost2010Prop41ColorRGB
 90
        0
102
RTVSPost2010PropOp41
 70
     1
102
RTVSPost2010Prop42
 90
       50
102
RTVSPost2010PropOp42
 70
     1
102
RTVSPost2010Prop43
 90
        3
102
RTVSPost2010PropOp43
 70
     1
102
RTVSPost2010Prop44ColorIndex
 90
        5
102
RTVSPost2010Prop44ColorRGB
 90
      255
102
RTVSPost2010PropOp44
 70
     1
102
RTVSPost2010Prop45
280
     0
102
RTVSPost2010PropOp45
 70
     1
102
RTVSPost2010Prop46
 90
       50
102
RTVSPost2010PropOp46
 70
     1
102
RTVSPost2010Prop47
 90
       50
102
RTVSPost2010PropOp47
 70
     1
102
RTVSPost2010Prop48
 90
       50
102
RTVSPost2010PropOp48
 70
     1
102
RTVSPost2010Prop49
280
     0
102
RTVSPost2010PropOp49
 70
     1
102
RTVSPost2010Prop50
 90
       50
102
RTVSPost2010PropOp50
 70
     1
102
RTVSPost2010Prop51ColorIndex
 90
      256
102
RTVSPost2010Prop51ColorRGB
 90
-16777216
102
RTVSPost2010PropOp51
 70
     0
102
RTVSPost2010Prop52
140
1.0
102
RTVSPost2010PropOp52
 70
     0
102
RTVSPost2010Prop53
 90
        2
102
RTVSPost2010PropOp53
 70
     1
102
RTVSPost2010Prop54
  1
strokes_ogs.tif
102
RTVSPost2010PropOp54
 70
     1
102
RTVSPost2010Prop55
280
     0
102
RTVSPost2010PropOp55
 70
     1
102
RTVSPost2010Prop56
140
1.0
102
RTVSPost2010PropOp56
 70
     1
102
RTVSPost2010Prop57
140
1.0
102
RTVSPost2010PropOp57
 70
     1
102
RTVSPropertyOp0
 70
     1
102
RTVSPropertyOp1
 70
     1
102
RTVSPropertyOp2
 70
     1
102
RTVSPropertyOp3
 70
     1
102
RTVSPropertyOp4
 70
     1
102
RTVSPropertyOp5
 70
     1
102
RTVSPropertyOp6
 70
     1
102
RTVSPropertyOp7
 70
     1
102
RTVSPropertyOp8
 70
     1
102
RTVSPropertyOp9
 70
     1
102
RTVSPropertyOp10
 70
     1
102
RTVSPropertyOp11
 70
     1
102
RTVSPropertyOp12
 70
     1
102
RTVSPropertyOp13
 70
     1
102
RTVSPropertyOp14
 70
     1
102
RTVSPropertyOp15
 70
     1
102
RTVSPropertyOp16
 70
     1
102
RTVSPropertyOp17
 70
     1
102
RTVSPropertyOp18
 70
     1
102
RTVSPropertyOp19
 70
     1
102
RTVSPropertyOp20
 70
     1
102
RTVSPropertyOp21
 70
     1
102
RTVSPropertyOp22
 70
     1
102
RTVSPropertyOp23
 70
     1
102
RTVSPropertyOp24
 70
     1
102
RTVSPropertyOp25
 70
     1
102
RTVSPropertyOp26
 70
     1
102
RTVSPropertyOp27
 70
     1
102
RTVSPropertyOp28
 70
     1
102
RTVSPropertyOp29
 70
     1
102
RTVSPropertyOp30
 70
     1
102
RTVSPropertyOp31
 70
     1
102
RTVSPropertyOp32
 70
     1
102
RTVSPropertyOp33
 70
     1
102
RTVSPropertyOp34
 70
     1
102
RTVSPropertyOp35
 70
     1
102
RTVSPropertyOp36
 70
     1
102
RTVSPropertyOp37
 70
     1
102
RTVSPropertyOp38
 70
     1
102
RTVSPropertyOp39
 70
     1
102
RTVSPropertyOp40
 70
     1
102
RTVSPropertyOp41
 70
     1
102
RTVSPropertyOp42
 70
     1
102
RTVSPropertyOp43
 70
     1
102
RTVSPropertyOp44
 70
     1
102
RTVSPropertyOp45
 70
     1
102
RTVSPropertyOp46
 70
     1
102
RTVSPropertyOp47
 70
     1
102
RTVSPropertyOp48
 70
     1
102
RTVSPropertyOp49
 70
     1
102
RTVSPropertyOp50
 70
     1
102
RTVSPropertyOp51
 70
     0
102
RTVSPropertyOp52
 70
     0
102
RTVSPropertyOp53
 70
     1
102
RTVSPropertyOp54
 70
     1
102
RTVSPropertyOp55
 70
     1
102
RTVSPropertyOp56
 70
     1
102
RTVSPropertyOp57
 70
     1
102
RTVSPropertyOp58
 70
     1
102
RTVSPropertyOp59
 70
     1
102
RTVSPropertyOp60
 70
     1
102
RTVSPropertyOp61
 70
     1
102
RTVSPropertyOp62
 70
     1
  0
XRECORD
  5
A447
102
{ACAD_REACTORS
330
A446
102
}
330
A446
100
AcDbXrecord
280
     1
102
RTVSPost2010Prop28
280
     0
102
RTVSPost2010PropOp28
 70
     1
102
RTVSPost2010Prop29
280
     1
102
RTVSPost2010PropOp29
 70
     1
102
RTVSPost2010Prop30
280
     1
102
RTVSPost2010PropOp30
 70
     1
102
RTVSPost2010Prop31
280
     0
102
RTVSPost2010PropOp31
 70
     1
102
RTVSPost2010Prop32
280
     0
102
RTVSPost2010PropOp32
 70
     1
102
RTVSPost2010Prop33
280
     0
102
RTVSPost2010PropOp33
 70
     1
102
RTVSPost2010Prop34
280
     0
102
RTVSPost2010PropOp34
 70
     1
102
RTVSPost2010Prop35
280
     0
102
RTVSPost2010PropOp35
 70
     1
102
RTVSPost2010Prop36
280
     0
102
RTVSPost2010PropOp36
 70
     1
102
RTVSPost2010Prop37
 90
       50
102
RTVSPost2010PropOp37
 70
     1
102
RTVSPost2010Prop38
140
0.0
102
RTVSPost2010PropOp38
 70
     1
102
RTVSPost2010Prop39
140
1.0
102
RTVSPost2010PropOp39
 70
     1
102
RTVSPost2010Prop40
 90
        0
102
RTVSPost2010PropOp40
 70
     1
102
RTVSPost2010Prop41ColorIndex
 90
       18
102
RTVSPost2010Prop41ColorRGB
 90
        0
102
RTVSPost2010PropOp41
 70
     1
102
RTVSPost2010Prop42
 90
       50
102
RTVSPost2010PropOp42
 70
     1
102
RTVSPost2010Prop43
 90
        3
102
RTVSPost2010PropOp43
 70
     1
102
RTVSPost2010Prop44ColorIndex
 90
        5
102
RTVSPost2010Prop44ColorRGB
 90
      255
102
RTVSPost2010PropOp44
 70
     1
102
RTVSPost2010Prop45
280
     0
102
RTVSPost2010PropOp45
 70
     1
102
RTVSPost2010Prop46
 90
       50
102
RTVSPost2010PropOp46
 70
     1
102
RTVSPost2010Prop47
 90
       50
102
RTVSPost2010PropOp47
 70
     1
102
RTVSPost2010Prop48
 90
       50
102
RTVSPost2010PropOp48
 70
     1
102
RTVSPost2010Prop49
280
     0
102
RTVSPost2010PropOp49
 70
     1
102
RTVSPost2010Prop50
 90
       50
102
RTVSPost2010PropOp50
 70
     1
102
RTVSPost2010Prop51ColorIndex
 90
      256
102
RTVSPost2010Prop51ColorRGB
 90
-16777216
102
RTVSPost2010PropOp51
 70
     0
102
RTVSPost2010Prop52
140
1.0
102
RTVSPost2010PropOp52
 70
     0
102
RTVSPost2010Prop53
 90
        2
102
RTVSPost2010PropOp53
 70
     1
102
RTVSPost2010Prop54
  1
strokes_ogs.tif
102
RTVSPost2010PropOp54
 70
     1
102
RTVSPost2010Prop55
280
     0
102
RTVSPost2010PropOp55
 70
     1
102
RTVSPost2010Prop56
140
1.0
102
RTVSPost2010PropOp56
 70
     1
102
RTVSPost2010Prop57
140
1.0
102
RTVSPost2010PropOp57
 70
     1
102
RTVSPropertyOp0
 70
     1
102
RTVSPropertyOp1
 70
     1
102
RTVSPropertyOp2
 70
     1
102
RTVSPropertyOp3
 70
     1
102
RTVSPropertyOp4
 70
     1
102
RTVSPropertyOp5
 70
     1
102
RTVSPropertyOp6
 70
     1
102
RTVSPropertyOp7
 70
     1
102
RTVSPropertyOp8
 70
     1
102
RTVSPropertyOp9
 70
     1
102
RTVSPropertyOp10
 70
     1
102
RTVSPropertyOp11
 70
     1
102
RTVSPropertyOp12
 70
     1
102
RTVSPropertyOp13
 70
     1
102
RTVSPropertyOp14
 70
     1
102
RTVSPropertyOp15
 70
     1
102
RTVSPropertyOp16
 70
     1
102
RTVSPropertyOp17
 70
     1
102
RTVSPropertyOp18
 70
     1
102
RTVSPropertyOp19
 70
     1
102
RTVSPropertyOp20
 70
     1
102
RTVSPropertyOp21
 70
     1
102
RTVSPropertyOp22
 70
     1
102
RTVSPropertyOp23
 70
     1
102
RTVSPropertyOp24
 70
     1
102
RTVSPropertyOp25
 70
     1
102
RTVSPropertyOp26
 70
     1
102
RTVSPropertyOp27
 70
     1
102
RTVSPropertyOp28
 70
     1
102
RTVSPropertyOp29
 70
     1
102
RTVSPropertyOp30
 70
     1
102
RTVSPropertyOp31
 70
     1
102
RTVSPropertyOp32
 70
     1
102
RTVSPropertyOp33
 70
     1
102
RTVSPropertyOp34
 70
     1
102
RTVSPropertyOp35
 70
     1
102
RTVSPropertyOp36
 70
     1
102
RTVSPropertyOp37
 70
     1
102
RTVSPropertyOp38
 70
     1
102
RTVSPropertyOp39
 70
     1
102
RTVSPropertyOp40
 70
     1
102
RTVSPropertyOp41
 70
     1
102
RTVSPropertyOp42
 70
     1
102
RTVSPropertyOp43
 70
     1
102
RTVSPropertyOp44
 70
     1
102
RTVSPropertyOp45
 70
     1
102
RTVSPropertyOp46
 70
     1
102
RTVSPropertyOp47
 70
     1
102
RTVSPropertyOp48
 70
     1
102
RTVSPropertyOp49
 70
     1
102
RTVSPropertyOp50
 70
     1
102
RTVSPropertyOp51
 70
     0
102
RTVSPropertyOp52
 70
     0
102
RTVSPropertyOp53
 70
     1
102
RTVSPropertyOp54
 70
     1
102
RTVSPropertyOp55
 70
     1
102
RTVSPropertyOp56
 70
     1
102
RTVSPropertyOp57
 70
     1
102
RTVSPropertyOp58
 70
     1
102
RTVSPropertyOp59
 70
     1
102
RTVSPropertyOp60
 70
     1
102
RTVSPropertyOp61
 70
     1
102
RTVSPropertyOp62
 70
     1
  0
XRECORD
  5
A449
102
{ACAD_REACTORS
330
A448
102
}
330
A448
100
AcDbXrecord
280
     1
102
RTVSPost2010Prop28
280
     0
102
RTVSPost2010PropOp28
 70
     1
102
RTVSPost2010Prop29
280
     1
102
RTVSPost2010PropOp29
 70
     1
102
RTVSPost2010Prop30
280
     1
102
RTVSPost2010PropOp30
 70
     1
102
RTVSPost2010Prop31
280
     0
102
RTVSPost2010PropOp31
 70
     1
102
RTVSPost2010Prop32
280
     0
102
RTVSPost2010PropOp32
 70
     1
102
RTVSPost2010Prop33
280
     0
102
RTVSPost2010PropOp33
 70
     1
102
RTVSPost2010Prop34
280
     0
102
RTVSPost2010PropOp34
 70
     1
102
RTVSPost2010Prop35
280
     0
102
RTVSPost2010PropOp35
 70
     1
102
RTVSPost2010Prop36
280
     0
102
RTVSPost2010PropOp36
 70
     1
102
RTVSPost2010Prop37
 90
       50
102
RTVSPost2010PropOp37
 70
     1
102
RTVSPost2010Prop38
140
0.0
102
RTVSPost2010PropOp38
 70
     1
102
RTVSPost2010Prop39
140
1.0
102
RTVSPost2010PropOp39
 70
     1
102
RTVSPost2010Prop40
 90
        0
102
RTVSPost2010PropOp40
 70
     1
102
RTVSPost2010Prop41ColorIndex
 90
       18
102
RTVSPost2010Prop41ColorRGB
 90
        0
102
RTVSPost2010PropOp41
 70
     1
102
RTVSPost2010Prop42
 90
       50
102
RTVSPost2010PropOp42
 70
     1
102
RTVSPost2010Prop43
 90
        3
102
RTVSPost2010PropOp43
 70
     1
102
RTVSPost2010Prop44ColorIndex
 90
        5
102
RTVSPost2010Prop44ColorRGB
 90
      255
102
RTVSPost2010PropOp44
 70
     1
102
RTVSPost2010Prop45
280
     0
102
RTVSPost2010PropOp45
 70
     1
102
RTVSPost2010Prop46
 90
       50
102
RTVSPost2010PropOp46
 70
     1
102
RTVSPost2010Prop47
 90
       50
102
RTVSPost2010PropOp47
 70
     1
102
RTVSPost2010Prop48
 90
       50
102
RTVSPost2010PropOp48
 70
     1
102
RTVSPost2010Prop49
280
     0
102
RTVSPost2010PropOp49
 70
     1
102
RTVSPost2010Prop50
 90
       50
102
RTVSPost2010PropOp50
 70
     1
102
RTVSPost2010Prop51ColorIndex
 90
      256
102
RTVSPost2010Prop51ColorRGB
 90
-16777216
102
RTVSPost2010PropOp51
 70
     0
102
RTVSPost2010Prop52
140
1.0
102
RTVSPost2010PropOp52
 70
     0
102
RTVSPost2010Prop53
 90
        2
102
RTVSPost2010PropOp53
 70
     1
102
RTVSPost2010Prop54
  1
strokes_ogs.tif
102
RTVSPost2010PropOp54
 70
     1
102
RTVSPost2010Prop55
280
     0
102
RTVSPost2010PropOp55
 70
     1
102
RTVSPost2010Prop56
140
1.0
102
RTVSPost2010PropOp56
 70
     1
102
RTVSPost2010Prop57
140
1.0
102
RTVSPost2010PropOp57
 70
     1
102
RTVSPropertyOp0
 70
     1
102
RTVSPropertyOp1
 70
     1
102
RTVSPropertyOp2
 70
     1
102
RTVSPropertyOp3
 70
     1
102
RTVSPropertyOp4
 70
     1
102
RTVSPropertyOp5
 70
     1
102
RTVSPropertyOp6
 70
     1
102
RTVSPropertyOp7
 70
     1
102
RTVSPropertyOp8
 70
     1
102
RTVSPropertyOp9
 70
     1
102
RTVSPropertyOp10
 70
     1
102
RTVSPropertyOp11
 70
     1
102
RTVSPropertyOp12
 70
     1
102
RTVSPropertyOp13
 70
     1
102
RTVSPropertyOp14
 70
     1
102
RTVSPropertyOp15
 70
     1
102
RTVSPropertyOp16
 70
     1
102
RTVSPropertyOp17
 70
     1
102
RTVSPropertyOp18
 70
     1
102
RTVSPropertyOp19
 70
     1
102
RTVSPropertyOp20
 70
     1
102
RTVSPropertyOp21
 70
     1
102
RTVSPropertyOp22
 70
     1
102
RTVSPropertyOp23
 70
     1
102
RTVSPropertyOp24
 70
     1
102
RTVSPropertyOp25
 70
     1
102
RTVSPropertyOp26
 70
     1
102
RTVSPropertyOp27
 70
     1
102
RTVSPropertyOp28
 70
     1
102
RTVSPropertyOp29
 70
     1
102
RTVSPropertyOp30
 70
     1
102
RTVSPropertyOp31
 70
     1
102
RTVSPropertyOp32
 70
     1
102
RTVSPropertyOp33
 70
     1
102
RTVSPropertyOp34
 70
     1
102
RTVSPropertyOp35
 70
     1
102
RTVSPropertyOp36
 70
     1
102
RTVSPropertyOp37
 70
     1
102
RTVSPropertyOp38
 70
     1
102
RTVSPropertyOp39
 70
     1
102
RTVSPropertyOp40
 70
     1
102
RTVSPropertyOp41
 70
     1
102
RTVSPropertyOp42
 70
     1
102
RTVSPropertyOp43
 70
     1
102
RTVSPropertyOp44
 70
     1
102
RTVSPropertyOp45
 70
     1
102
RTVSPropertyOp46
 70
     1
102
RTVSPropertyOp47
 70
     1
102
RTVSPropertyOp48
 70
     1
102
RTVSPropertyOp49
 70
     1
102
RTVSPropertyOp50
 70
     1
102
RTVSPropertyOp51
 70
     0
102
RTVSPropertyOp52
 70
     0
102
RTVSPropertyOp53
 70
     1
102
RTVSPropertyOp54
 70
     1
102
RTVSPropertyOp55
 70
     1
102
RTVSPropertyOp56
 70
     1
102
RTVSPropertyOp57
 70
     1
102
RTVSPropertyOp58
 70
     1
102
RTVSPropertyOp59
 70
     1
102
RTVSPropertyOp60
 70
     1
102
RTVSPropertyOp61
 70
     1
102
RTVSPropertyOp62
 70
     1
  0
XRECORD
  5
A43F
102
{ACAD_REACTORS
330
A43E
102
}
330
A43E
100
AcDbXrecord
280
     1
102
RTVSPost2010Prop28
280
     0
102
RTVSPost2010PropOp28
 70
     1
102
RTVSPost2010Prop29
280
     1
102
RTVSPost2010PropOp29
 70
     1
102
RTVSPost2010Prop30
280
     1
102
RTVSPost2010PropOp30
 70
     1
102
RTVSPost2010Prop31
280
     0
102
RTVSPost2010PropOp31
 70
     1
102
RTVSPost2010Prop32
280
     0
102
RTVSPost2010PropOp32
 70
     1
102
RTVSPost2010Prop33
280
     0
102
RTVSPost2010PropOp33
 70
     1
102
RTVSPost2010Prop34
280
     0
102
RTVSPost2010PropOp34
 70
     1
102
RTVSPost2010Prop35
280
     0
102
RTVSPost2010PropOp35
 70
     1
102
RTVSPost2010Prop36
280
     0
102
RTVSPost2010PropOp36
 70
     1
102
RTVSPost2010Prop37
 90
       50
102
RTVSPost2010PropOp37
 70
     1
102
RTVSPost2010Prop38
140
0.0
102
RTVSPost2010PropOp38
 70
     1
102
RTVSPost2010Prop39
140
1.0
102
RTVSPost2010PropOp39
 70
     1
102
RTVSPost2010Prop40
 90
        0
102
RTVSPost2010PropOp40
 70
     1
102
RTVSPost2010Prop41ColorIndex
 90
       18
102
RTVSPost2010Prop41ColorRGB
 90
        0
102
RTVSPost2010PropOp41
 70
     1
102
RTVSPost2010Prop42
 90
       50
102
RTVSPost2010PropOp42
 70
     1
102
RTVSPost2010Prop43
 90
        3
102
RTVSPost2010PropOp43
 70
     1
102
RTVSPost2010Prop44ColorIndex
 90
        5
102
RTVSPost2010Prop44ColorRGB
 90
      255
102
RTVSPost2010PropOp44
 70
     1
102
RTVSPost2010Prop45
280
     0
102
RTVSPost2010PropOp45
 70
     1
102
RTVSPost2010Prop46
 90
       50
102
RTVSPost2010PropOp46
 70
     1
102
RTVSPost2010Prop47
 90
       50
102
RTVSPost2010PropOp47
 70
     1
102
RTVSPost2010Prop48
 90
       50
102
RTVSPost2010PropOp48
 70
     1
102
RTVSPost2010Prop49
280
     0
102
RTVSPost2010PropOp49
 70
     1
102
RTVSPost2010Prop50
 90
       50
102
RTVSPost2010PropOp50
 70
     1
102
RTVSPost2010Prop51ColorIndex
 90
      256
102
RTVSPost2010Prop51ColorRGB
 90
-16777216
102
RTVSPost2010PropOp51
 70
     0
102
RTVSPost2010Prop52
140
1.0
102
RTVSPost2010PropOp52
 70
     0
102
RTVSPost2010Prop53
 90
        2
102
RTVSPost2010PropOp53
 70
     1
102
RTVSPost2010Prop54
  1
strokes_ogs.tif
102
RTVSPost2010PropOp54
 70
     1
102
RTVSPost2010Prop55
280
     0
102
RTVSPost2010PropOp55
 70
     1
102
RTVSPost2010Prop56
140
1.0
102
RTVSPost2010PropOp56
 70
     1
102
RTVSPost2010Prop57
140
1.0
102
RTVSPost2010PropOp57
 70
     1
102
RTVSPropertyOp0
 70
     1
102
RTVSPropertyOp1
 70
     1
102
RTVSPropertyOp2
 70
     1
102
RTVSPropertyOp3
 70
     1
102
RTVSPropertyOp4
 70
     1
102
RTVSPropertyOp5
 70
     1
102
RTVSPropertyOp6
 70
     1
102
RTVSPropertyOp7
 70
     1
102
RTVSPropertyOp8
 70
     1
102
RTVSPropertyOp9
 70
     1
102
RTVSPropertyOp10
 70
     1
102
RTVSPropertyOp11
 70
     1
102
RTVSPropertyOp12
 70
     1
102
RTVSPropertyOp13
 70
     1
102
RTVSPropertyOp14
 70
     1
102
RTVSPropertyOp15
 70
     1
102
RTVSPropertyOp16
 70
     1
102
RTVSPropertyOp17
 70
     1
102
RTVSPropertyOp18
 70
     1
102
RTVSPropertyOp19
 70
     1
102
RTVSPropertyOp20
 70
     1
102
RTVSPropertyOp21
 70
     1
102
RTVSPropertyOp22
 70
     1
102
RTVSPropertyOp23
 70
     1
102
RTVSPropertyOp24
 70
     1
102
RTVSPropertyOp25
 70
     1
102
RTVSPropertyOp26
 70
     1
102
RTVSPropertyOp27
 70
     1
102
RTVSPropertyOp28
 70
     1
102
RTVSPropertyOp29
 70
     1
102
RTVSPropertyOp30
 70
     1
102
RTVSPropertyOp31
 70
     1
102
RTVSPropertyOp32
 70
     1
102
RTVSPropertyOp33
 70
     1
102
RTVSPropertyOp34
 70
     1
102
RTVSPropertyOp35
 70
     1
102
RTVSPropertyOp36
 70
     1
102
RTVSPropertyOp37
 70
     1
102
RTVSPropertyOp38
 70
     1
102
RTVSPropertyOp39
 70
     1
102
RTVSPropertyOp40
 70
     1
102
RTVSPropertyOp41
 70
     1
102
RTVSPropertyOp42
 70
     1
102
RTVSPropertyOp43
 70
     1
102
RTVSPropertyOp44
 70
     1
102
RTVSPropertyOp45
 70
     1
102
RTVSPropertyOp46
 70
     1
102
RTVSPropertyOp47
 70
     1
102
RTVSPropertyOp48
 70
     1
102
RTVSPropertyOp49
 70
     1
102
RTVSPropertyOp50
 70
     1
102
RTVSPropertyOp51
 70
     0
102
RTVSPropertyOp52
 70
     0
102
RTVSPropertyOp53
 70
     1
102
RTVSPropertyOp54
 70
     1
102
RTVSPropertyOp55
 70
     1
102
RTVSPropertyOp56
 70
     1
102
RTVSPropertyOp57
 70
     1
102
RTVSPropertyOp58
 70
     1
102
RTVSPropertyOp59
 70
     1
102
RTVSPropertyOp60
 70
     1
102
RTVSPropertyOp61
 70
     1
102
RTVSPropertyOp62
 70
     1
  0
XRECORD
  5
A433
102
{ACAD_REACTORS
330
A432
102
}
330
A432
100
AcDbXrecord
280
     1
102
RTVSPost2010Prop28
280
     0
102
RTVSPost2010PropOp28
 70
     1
102
RTVSPost2010Prop29
280
     1
102
RTVSPost2010PropOp29
 70
     1
102
RTVSPost2010Prop30
280
     1
102
RTVSPost2010PropOp30
 70
     1
102
RTVSPost2010Prop31
280
     0
102
RTVSPost2010PropOp31
 70
     1
102
RTVSPost2010Prop32
280
     0
102
RTVSPost2010PropOp32
 70
     1
102
RTVSPost2010Prop33
280
     0
102
RTVSPost2010PropOp33
 70
     1
102
RTVSPost2010Prop34
280
     0
102
RTVSPost2010PropOp34
 70
     1
102
RTVSPost2010Prop35
280
     0
102
RTVSPost2010PropOp35
 70
     1
102
RTVSPost2010Prop36
280
     0
102
RTVSPost2010PropOp36
 70
     1
102
RTVSPost2010Prop37
 90
       50
102
RTVSPost2010PropOp37
 70
     1
102
RTVSPost2010Prop38
140
0.0
102
RTVSPost2010PropOp38
 70
     1
102
RTVSPost2010Prop39
140
1.0
102
RTVSPost2010PropOp39
 70
     1
102
RTVSPost2010Prop40
 90
        0
102
RTVSPost2010PropOp40
 70
     1
102
RTVSPost2010Prop41ColorIndex
 90
       18
102
RTVSPost2010Prop41ColorRGB
 90
        0
102
RTVSPost2010PropOp41
 70
     1
102
RTVSPost2010Prop42
 90
       50
102
RTVSPost2010PropOp42
 70
     1
102
RTVSPost2010Prop43
 90
        3
102
RTVSPost2010PropOp43
 70
     1
102
RTVSPost2010Prop44ColorIndex
 90
        5
102
RTVSPost2010Prop44ColorRGB
 90
      255
102
RTVSPost2010PropOp44
 70
     1
102
RTVSPost2010Prop45
280
     0
102
RTVSPost2010PropOp45
 70
     1
102
RTVSPost2010Prop46
 90
       50
102
RTVSPost2010PropOp46
 70
     1
102
RTVSPost2010Prop47
 90
       50
102
RTVSPost2010PropOp47
 70
     1
102
RTVSPost2010Prop48
 90
       50
102
RTVSPost2010PropOp48
 70
     1
102
RTVSPost2010Prop49
280
     0
102
RTVSPost2010PropOp49
 70
     1
102
RTVSPost2010Prop50
 90
       50
102
RTVSPost2010PropOp50
 70
     1
102
RTVSPost2010Prop51ColorIndex
 90
      256
102
RTVSPost2010Prop51ColorRGB
 90
-16777216
102
RTVSPost2010PropOp51
 70
     0
102
RTVSPost2010Prop52
140
1.0
102
RTVSPost2010PropOp52
 70
     0
102
RTVSPost2010Prop53
 90
        2
102
RTVSPost2010PropOp53
 70
     1
102
RTVSPost2010Prop54
  1
strokes_ogs.tif
102
RTVSPost2010PropOp54
 70
     1
102
RTVSPost2010Prop55
280
     0
102
RTVSPost2010PropOp55
 70
     1
102
RTVSPost2010Prop56
140
1.0
102
RTVSPost2010PropOp56
 70
     1
102
RTVSPost2010Prop57
140
1.0
102
RTVSPost2010PropOp57
 70
     1
102
RTVSPropertyOp0
 70
     1
102
RTVSPropertyOp1
 70
     1
102
RTVSPropertyOp2
 70
     1
102
RTVSPropertyOp3
 70
     1
102
RTVSPropertyOp4
 70
     1
102
RTVSPropertyOp5
 70
     1
102
RTVSPropertyOp6
 70
     1
102
RTVSPropertyOp7
 70
     1
102
RTVSPropertyOp8
 70
     1
102
RTVSPropertyOp9
 70
     1
102
RTVSPropertyOp10
 70
     1
102
RTVSPropertyOp11
 70
     1
102
RTVSPropertyOp12
 70
     1
102
RTVSPropertyOp13
 70
     1
102
RTVSPropertyOp14
 70
     1
102
RTVSPropertyOp15
 70
     1
102
RTVSPropertyOp16
 70
     1
102
RTVSPropertyOp17
 70
     1
102
RTVSPropertyOp18
 70
     1
102
RTVSPropertyOp19
 70
     1
102
RTVSPropertyOp20
 70
     1
102
RTVSPropertyOp21
 70
     1
102
RTVSPropertyOp22
 70
     1
102
RTVSPropertyOp23
 70
     1
102
RTVSPropertyOp24
 70
     1
102
RTVSPropertyOp25
 70
     1
102
RTVSPropertyOp26
 70
     1
102
RTVSPropertyOp27
 70
     1
102
RTVSPropertyOp28
 70
     1
102
RTVSPropertyOp29
 70
     1
102
RTVSPropertyOp30
 70
     1
102
RTVSPropertyOp31
 70
     1
102
RTVSPropertyOp32
 70
     1
102
RTVSPropertyOp33
 70
     1
102
RTVSPropertyOp34
 70
     1
102
RTVSPropertyOp35
 70
     1
102
RTVSPropertyOp36
 70
     1
102
RTVSPropertyOp37
 70
     1
102
RTVSPropertyOp38
 70
     1
102
RTVSPropertyOp39
 70
     1
102
RTVSPropertyOp40
 70
     1
102
RTVSPropertyOp41
 70
     1
102
RTVSPropertyOp42
 70
     1
102
RTVSPropertyOp43
 70
     1
102
RTVSPropertyOp44
 70
     1
102
RTVSPropertyOp45
 70
     1
102
RTVSPropertyOp46
 70
     1
102
RTVSPropertyOp47
 70
     1
102
RTVSPropertyOp48
 70
     1
102
RTVSPropertyOp49
 70
     1
102
RTVSPropertyOp50
 70
     1
102
RTVSPropertyOp51
 70
     0
102
RTVSPropertyOp52
 70
     0
102
RTVSPropertyOp53
 70
     1
102
RTVSPropertyOp54
 70
     1
102
RTVSPropertyOp55
 70
     1
102
RTVSPropertyOp56
 70
     1
102
RTVSPropertyOp57
 70
     1
102
RTVSPropertyOp58
 70
     1
102
RTVSPropertyOp59
 70
     1
102
RTVSPropertyOp60
 70
     1
102
RTVSPropertyOp61
 70
     1
102
RTVSPropertyOp62
 70
     1
  0
XRECORD
  5
A44B
102
{ACAD_REACTORS
330
A44A
102
}
330
A44A
100
AcDbXrecord
280
     1
102
RTVSPost2010Prop28
280
     0
102
RTVSPost2010PropOp28
 70
     1
102
RTVSPost2010Prop29
280
     1
102
RTVSPost2010PropOp29
 70
     1
102
RTVSPost2010Prop30
280
     1
102
RTVSPost2010PropOp30
 70
     1
102
RTVSPost2010Prop31
280
     0
102
RTVSPost2010PropOp31
 70
     1
102
RTVSPost2010Prop32
280
     0
102
RTVSPost2010PropOp32
 70
     1
102
RTVSPost2010Prop33
280
     0
102
RTVSPost2010PropOp33
 70
     1
102
RTVSPost2010Prop34
280
     0
102
RTVSPost2010PropOp34
 70
     1
102
RTVSPost2010Prop35
280
     0
102
RTVSPost2010PropOp35
 70
     1
102
RTVSPost2010Prop36
280
     0
102
RTVSPost2010PropOp36
 70
     1
102
RTVSPost2010Prop37
 90
       50
102
RTVSPost2010PropOp37
 70
     1
102
RTVSPost2010Prop38
140
0.0
102
RTVSPost2010PropOp38
 70
     1
102
RTVSPost2010Prop39
140
1.0
102
RTVSPost2010PropOp39
 70
     1
102
RTVSPost2010Prop40
 90
        0
102
RTVSPost2010PropOp40
 70
     1
102
RTVSPost2010Prop41ColorIndex
 90
       18
102
RTVSPost2010Prop41ColorRGB
 90
        0
102
RTVSPost2010PropOp41
 70
     1
102
RTVSPost2010Prop42
 90
       50
102
RTVSPost2010PropOp42
 70
     1
102
RTVSPost2010Prop43
 90
        3
102
RTVSPost2010PropOp43
 70
     1
102
RTVSPost2010Prop44ColorIndex
 90
        5
102
RTVSPost2010Prop44ColorRGB
 90
      255
102
RTVSPost2010PropOp44
 70
     1
102
RTVSPost2010Prop45
280
     0
102
RTVSPost2010PropOp45
 70
     1
102
RTVSPost2010Prop46
 90
       50
102
RTVSPost2010PropOp46
 70
     1
102
RTVSPost2010Prop47
 90
       50
102
RTVSPost2010PropOp47
 70
     1
102
RTVSPost2010Prop48
 90
       50
102
RTVSPost2010PropOp48
 70
     1
102
RTVSPost2010Prop49
280
     0
102
RTVSPost2010PropOp49
 70
     1
102
RTVSPost2010Prop50
 90
       50
102
RTVSPost2010PropOp50
 70
     1
102
RTVSPost2010Prop51ColorIndex
 90
      256
102
RTVSPost2010Prop51ColorRGB
 90
-16777216
102
RTVSPost2010PropOp51
 70
     0
102
RTVSPost2010Prop52
140
1.0
102
RTVSPost2010PropOp52
 70
     0
102
RTVSPost2010Prop53
 90
        2
102
RTVSPost2010PropOp53
 70
     1
102
RTVSPost2010Prop54
  1
strokes_ogs.tif
102
RTVSPost2010PropOp54
 70
     1
102
RTVSPost2010Prop55
280
     0
102
RTVSPost2010PropOp55
 70
     1
102
RTVSPost2010Prop56
140
1.0
102
RTVSPost2010PropOp56
 70
     1
102
RTVSPost2010Prop57
140
1.0
102
RTVSPost2010PropOp57
 70
     1
102
RTVSPropertyOp0
 70
     1
102
RTVSPropertyOp1
 70
     1
102
RTVSPropertyOp2
 70
     1
102
RTVSPropertyOp3
 70
     1
102
RTVSPropertyOp4
 70
     1
102
RTVSPropertyOp5
 70
     1
102
RTVSPropertyOp6
 70
     1
102
RTVSPropertyOp7
 70
     1
102
RTVSPropertyOp8
 70
     1
102
RTVSPropertyOp9
 70
     1
102
RTVSPropertyOp10
 70
     1
102
RTVSPropertyOp11
 70
     1
102
RTVSPropertyOp12
 70
     1
102
RTVSPropertyOp13
 70
     1
102
RTVSPropertyOp14
 70
     1
102
RTVSPropertyOp15
 70
     1
102
RTVSPropertyOp16
 70
     1
102
RTVSPropertyOp17
 70
     1
102
RTVSPropertyOp18
 70
     1
102
RTVSPropertyOp19
 70
     1
102
RTVSPropertyOp20
 70
     1
102
RTVSPropertyOp21
 70
     1
102
RTVSPropertyOp22
 70
     1
102
RTVSPropertyOp23
 70
     1
102
RTVSPropertyOp24
 70
     1
102
RTVSPropertyOp25
 70
     1
102
RTVSPropertyOp26
 70
     1
102
RTVSPropertyOp27
 70
     1
102
RTVSPropertyOp28
 70
     1
102
RTVSPropertyOp29
 70
     1
102
RTVSPropertyOp30
 70
     1
102
RTVSPropertyOp31
 70
     1
102
RTVSPropertyOp32
 70
     1
102
RTVSPropertyOp33
 70
     1
102
RTVSPropertyOp34
 70
     1
102
RTVSPropertyOp35
 70
     1
102
RTVSPropertyOp36
 70
     1
102
RTVSPropertyOp37
 70
     1
102
RTVSPropertyOp38
 70
     1
102
RTVSPropertyOp39
 70
     1
102
RTVSPropertyOp40
 70
     1
102
RTVSPropertyOp41
 70
     1
102
RTVSPropertyOp42
 70
     1
102
RTVSPropertyOp43
 70
     1
102
RTVSPropertyOp44
 70
     1
102
RTVSPropertyOp45
 70
     1
102
RTVSPropertyOp46
 70
     1
102
RTVSPropertyOp47
 70
     1
102
RTVSPropertyOp48
 70
     1
102
RTVSPropertyOp49
 70
     1
102
RTVSPropertyOp50
 70
     1
102
RTVSPropertyOp51
 70
     0
102
RTVSPropertyOp52
 70
     0
102
RTVSPropertyOp53
 70
     1
102
RTVSPropertyOp54
 70
     1
102
RTVSPropertyOp55
 70
     1
102
RTVSPropertyOp56
 70
     1
102
RTVSPropertyOp57
 70
     1
102
RTVSPropertyOp58
 70
     1
102
RTVSPropertyOp59
 70
     1
102
RTVSPropertyOp60
 70
     1
102
RTVSPropertyOp61
 70
     1
102
RTVSPropertyOp62
 70
     1
  0
ENDSEC
  0
EOF
