  0
SECTION
  2
HEADER
  9
$ACADVER
  1
AC1015
  9
$ACADMAINTVER
 70
    20
  9
$DWGCODEPAGE
  3
ANSI_932
  9
$INSBASE
 10
0.0
 20
0.0
 30
0.0
  9
$EXTMIN
 10
9.99995
 20
9.999999999999998
 30
0.0
  9
$EXTMAX
 10
461.0286249999998
 20
537.3499759999998
 30
0.0
  9
$LIMMIN
 10
0.0
 20
0.0
  9
$LIMMAX
 10
792.0
 20
546.0
  9
$ORTHOMODE
 70
     1
  9
$REGENMODE
 70
     1
  9
$FILLMODE
 70
     1
  9
$QTEXTMODE
 70
     0
  9
$MIRRTEXT
 70
     1
  9
$LTSCALE
 40
20.0
  9
$ATTMODE
 70
     1
  9
$TEXTSIZE
 40
5.0
  9
$TRACEWID
 40
1.0
  9
$TEXTSTYLE
  7
STANDARD
  9
$CLAYER
  8
0
  9
$CELTYPE
  6
BYLAYER
  9
$CECOLOR
 62
   256
  9
$CELTSCALE
 40
1.0
  9
$DISPSILH
 70
     0
  9
$DIMSCALE
 40
1.0
  9
$DIMASZ
 40
3.0
  9
$DIMEXO
 40
1.0
  9
$DIMDLI
 40
10.0
  9
$DIMRND
 40
0.0
  9
$DIMDLE
 40
0.0
  9
$DIMEXE
 40
1.0
  9
$DIMTP
 40
0.0
  9
$DIMTM
 40
0.0
  9
$DIMTXT
 40
3.2
  9
$DIMCEN
 40
0.0
  9
$DIMTSZ
 40
0.0
  9
$DIMTOL
 70
     0
  9
$DIMLIM
 70
     0
  9
$DIMTIH
 70
     0
  9
$DIMTOH
 70
     0
  9
$DIMSE1
 70
     0
  9
$DIMSE2
 70
     0
  9
$DIMTAD
 70
     3
  9
$DIMZIN
 70
     8
  9
$DIMBLK
  1

  9
$DIMASO
 70
     1
  9
$DIMSHO
 70
     1
  9
$DIMPOST
  1

  9
$DIMAPOST
  1

  9
$DIMALT
 70
     0
  9
$DIMALTD
 70
     2
  9
$DIMALTF
 40
25.4
  9
$DIMLFAC
 40
1.0
  9
$DIMTOFL
 70
     1
  9
$DIMTVP
 40
0.0
  9
$DIMTIX
 70
     0
  9
$DIMSOXD
 70
     0
  9
$DIMSAH
 70
     1
  9
$DIMBLK1
  1

  9
$DIMBLK2
  1

  9
$DIMSTYLE
  2
STANDARD
  9
$DIMCLRD
 70
     0
  9
$DIMCLRE
 70
     0
  9
$DIMCLRT
 70
     0
  9
$DIMTFAC
 40
1.0
  9
$DIMGAP
 40
1.0
  9
$DIMJUST
 70
     0
  9
$DIMSD1
 70
     0
  9
$DIMSD2
 70
     0
  9
$DIMTOLJ
 70
     1
  9
$DIMTZIN
 70
     0
  9
$DIMALTZ
 70
     0
  9
$DIMALTTZ
 70
     0
  9
$DIMUPT
 70
     0
  9
$DIMDEC
 70
     4
  9
$DIMTDEC
 70
     4
  9
$DIMALTU
 70
     2
  9
$DIMALTTD
 70
     2
  9
$DIMTXSTY
  7
STANDARD
  9
$DIMAUNIT
 70
     0
  9
$DIMADEC
 70
     0
  9
$DIMALTRND
 40
0.0
  9
$DIMAZIN
 70
     0
  9
$DIMDSEP
 70
    46
  9
$DIMATFIT
 70
     3
  9
$DIMFRAC
 70
     0
  9
$DIMLDRBLK
  1

  9
$DIMLUNIT
 70
     2
  9
$DIMLWD
 70
    -2
  9
$DIMLWE
 70
    -2
  9
$DIMTMOVE
 70
     0
  9
$LUNITS
 70
     2
  9
$LUPREC
 70
     4
  9
$SKETCHINC
 40
1.0
  9
$FILLETRAD
 40
2.9
  9
$AUNITS
 70
     0
  9
$AUPREC
 70
     2
  9
$MENU
  1
.
  9
$ELEVATION
 40
0.0
  9
$PELEVATION
 40
0.0
  9
$THICKNESS
 40
0.0
  9
$LIMCHECK
 70
     0
  9
$CHAMFERA
 40
10.0
  9
$CHAMFERB
 40
10.0
  9
$CHAMFERC
 40
0.0
  9
$CHAMFERD
 40
0.0
  9
$SKPOLY
 70
     0
  9
$TDCREATE
 40
2451065.510294676
  9
$TDUCREATE
 40
2451065.135294676
  9
$TDUPDATE
 40
2457192.622795695
  9
$TDUUPDATE
 40
2457192.247795695
  9
$TDINDWG
 40
0.0148251157
  9
$TDUSRTIMER
 40
0.0148246181
  9
$USRTIMER
 70
     1
  9
$ANGBASE
 50
0.0
  9
$ANGDIR
 70
     0
  9
$PDMODE
 70
     0
  9
$PDSIZE
 40
0.0
  9
$PLINEWID
 40
0.0
  9
$SPLFRAME
 70
     0
  9
$SPLINETYPE
 70
     6
  9
$SPLINESEGS
 70
     8
  9
$HANDSEED
  5
ABC5
  9
$SURFTAB1
 70
     6
  9
$SURFTAB2
 70
     6
  9
$SURFTYPE
 70
     6
  9
$SURFU
 70
     6
  9
$SURFV
 70
     6
  9
$UCSBASE
  2

  9
$UCSNAME
  2

  9
$UCSORG
 10
0.0
 20
0.0
 30
0.0
  9
$UCSXDIR
 10
1.0
 20
0.0
 30
0.0
  9
$UCSYDIR
 10
0.0
 20
1.0
 30
0.0
  9
$UCSORTHOREF
  2

  9
$UCSORTHOVIEW
 70
     0
  9
$UCSORGTOP
 10
0.0
 20
0.0
 30
0.0
  9
$UCSORGBOTTOM
 10
0.0
 20
0.0
 30
0.0
  9
$UCSORGLEFT
 10
0.0
 20
0.0
 30
0.0
  9
$UCSORGRIGHT
 10
0.0
 20
0.0
 30
0.0
  9
$UCSORGFRONT
 10
0.0
 20
0.0
 30
0.0
  9
$UCSORGBACK
 10
0.0
 20
0.0
 30
0.0
  9
$PUCSBASE
  2

  9
$PUCSNAME
  2

  9
$PUCSORG
 10
0.0
 20
0.0
 30
0.0
  9
$PUCSXDIR
 10
1.0
 20
0.0
 30
0.0
  9
$PUCSYDIR
 10
0.0
 20
1.0
 30
0.0
  9
$PUCSORTHOREF
  2

  9
$PUCSORTHOVIEW
 70
     0
  9
$PUCSORGTOP
 10
0.0
 20
0.0
 30
0.0
  9
$PUCSORGBOTTOM
 10
0.0
 20
0.0
 30
0.0
  9
$PUCSORGLEFT
 10
0.0
 20
0.0
 30
0.0
  9
$PUCSORGRIGHT
 10
0.0
 20
0.0
 30
0.0
  9
$PUCSORGFRONT
 10
0.0
 20
0.0
 30
0.0
  9
$PUCSORGBACK
 10
0.0
 20
0.0
 30
0.0
  9
$USERI1
 70
     0
  9
$USERI2
 70
     0
  9
$USERI3
 70
     0
  9
$USERI4
 70
     0
  9
$USERI5
 70
     0
  9
$USERR1
 40
0.0
  9
$USERR2
 40
0.0
  9
$USERR3
 40
0.0
  9
$USERR4
 40
0.0
  9
$USERR5
 40
0.0
  9
$WORLDVIEW
 70
     1
  9
$SHADEDGE
 70
     3
  9
$SHADEDIF
 70
    70
  9
$TILEMODE
 70
     1
  9
$MAXACTVP
 70
    16
  9
$PINSBASE
 10
0.0
 20
0.0
 30
0.0
  9
$PLIMCHECK
 70
     0
  9
$PEXTMIN
 10
1.000000000000000E+20
 20
1.000000000000000E+20
 30
1.000000000000000E+20
  9
$PEXTMAX
 10
-1.000000000000000E+20
 20
-1.000000000000000E+20
 30
-1.000000000000000E+20
  9
$PLIMMIN
 10
0.0
 20
0.0
  9
$PLIMMAX
 10
420.0
 20
297.0
  9
$UNITMODE
 70
     0
  9
$VISRETAIN
 70
     0
  9
$PLINEGEN
 70
     0
  9
$PSLTSCALE
 70
     0
  9
$TREEDEPTH
 70
  3020
  9
$CMLSTYLE
  2
STANDARD
  9
$CMLJUST
 70
     0
  9
$CMLSCALE
 40
1.0
  9
$PROXYGRAPHICS
 70
     1
  9
$MEASUREMENT
 70
     0
  9
$CELWEIGHT
370
    -1
  9
$ENDCAPS
280
     0
  9
$JOINSTYLE
280
     0
  9
$LWDISPLAY
290
     0
  9
$INSUNITS
 70
     0
  9
$HYPERLINKBASE
  1

  9
$STYLESHEET
  1

  9
$XEDIT
290
     1
  9
$CEPSNTYPE
380
     0
  9
$PSTYLEMODE
290
     1
  9
$FINGERPRINTGUID
  2
{E167665C-C18E-4695-8560-00AB0E20FF1B}
  9
$VERSIONGUID
  2
{21DBB547-1C65-4DC6-B82A-8F4C09856497}
  9
$EXTNAMES
290
     1
  9
$PSVPSCALE
 40
0.0
  9
$OLESTARTUP
290
     0
  0
ENDSEC
  0
SECTION
  2
CLASSES
  0
CLASS
  1
ACDBDICTIONARYWDFLT
  2
AcDbDictionaryWithDefault
  3
ObjectDBX Classes
 90
        0
280
     0
281
     0
  0
CLASS
  1
ACDBPLACEHOLDER
  2
AcDbPlaceHolder
  3
ObjectDBX Classes
 90
        0
280
     0
281
     0
  0
CLASS
  1
LAYOUT
  2
AcDbLayout
  3
ObjectDBX Classes
 90
        0
280
     0
281
     0
  0
CLASS
  1
DICTIONARYVAR
  2
AcDbDictionaryVar
  3
ObjectDBX Classes
 90
        0
280
     0
281
     0
  0
CLASS
  1
MATERIAL
  2
AcDbMaterial
  3
ObjectDBX Classes
 90
     1153
280
     0
281
     0
  0
CLASS
  1
VISUALSTYLE
  2
AcDbVisualStyle
  3
ObjectDBX Classes
 90
     4095
280
     0
281
     0
  0
CLASS
  1
TABLESTYLE
  2
AcDbTableStyle
  3
ObjectDBX Classes
 90
     4095
280
     0
281
     0
  0
CLASS
  1
SCALE
  2
AcDbScale
  3
ObjectDBX Classes
 90
     1153
280
     0
281
     0
  0
CLASS
  1
MLEADERSTYLE
  2
AcDbMLeaderStyle
  3
ACDB_MLEADERSTYLE_CLASS
 90
     4095
280
     0
281
     0
  0
CLASS
  1
ACDBSECTIONVIEWSTYLE
  2
AcDbSectionViewStyle
  3
ObjectDBX Classes
 90
     1025
280
     0
281
     0
  0
CLASS
  1
ACDBDETAILVIEWSTYLE
  2
AcDbDetailViewStyle
  3
ObjectDBX Classes
 90
     1025
280
     0
281
     0
  0
CLASS
  1
CELLSTYLEMAP
  2
AcDbCellStyleMap
  3
ObjectDBX Classes
 90
     1152
280
     0
281
     0
  0
ENDSEC
  0
SECTION
  2
TABLES
  0
TABLE
  2
VPORT
  5
A59C
330
0
100
AcDbSymbolTable
 70
     1
  0
VPORT
  5
AB10
330
A59C
100
AcDbSymbolTableRecord
100
AcDbViewportTableRecord
  2
*ACTIVE
 70
     0
 10
0.0
 20
0.0
 11
1.0
 21
1.0
 12
452.5636393578316
 22
273.666505178281
 13
0.0
 23
0.0
 14
10.0
 24
10.0
 15
10.0
 25
10.0
 16
0.0
 26
0.0
 36
1.0
 17
0.0
 27
0.0
 37
0.0
 40
531.4728729674977
 41
1.899603698811096
 42
50.0
 43
0.0
 44
0.0
 50
0.0
 51
0.0
 71
     0
 72
   100
 73
     1
 74
     0
 75
     0
 76
     0
 77
     0
 78
     0
281
     0
 65
     1
110
0.0
120
0.0
130
0.0
111
1.0
121
0.0
131
0.0
112
0.0
122
1.0
132
0.0
 79
     0
146
0.0
1001
ACAD_NAV_VCDISPLAY
1070
     3
  0
ENDTAB
  0
TABLE
  2
LTYPE
  5
A599
330
0
100
AcDbSymbolTable
 70
     4
  0
LTYPE
  5
A5A7
330
A599
100
AcDbSymbolTableRecord
100
AcDbLinetypeTableRecord
  2
BYBLOCK
 70
     0
  3

 72
    65
 73
     0
 40
0.0
  0
LTYPE
  5
A5A8
330
A599
100
AcDbSymbolTableRecord
100
AcDbLinetypeTableRecord
  2
BYLAYER
 70
     0
  3

 72
    65
 73
     0
 40
0.0
  0
LTYPE
  5
A5A9
330
A599
100
AcDbSymbolTableRecord
100
AcDbLinetypeTableRecord
  2
CONTINUOUS
 70
     0
  3
Solid line
 72
    65
 73
     0
 40
0.0
  0
LTYPE
  5
A5B7
330
A599
100
AcDbSymbolTableRecord
100
AcDbLinetypeTableRecord
  2
DASHED
 70
     0
  3
__ __ __ __ __ __ __ __ __ __ __ __ __ __ __ __
 72
    65
 73
     2
 40
0.75
 49
0.5
 74
     0
 49
-0.25
 74
     0
  0
LTYPE
  5
A5B8
330
A599
100
AcDbSymbolTableRecord
100
AcDbLinetypeTableRecord
  2
CENTER
 70
     0
  3
____ _ ____ _ ____ _ ____ _ ____ _ ____ _ ____ 
 72
    65
 73
     4
 40
2.0
 49
1.25
 74
     0
 49
-0.25
 74
     0
 49
0.25
 74
     0
 49
-0.25
 74
     0
  0
LTYPE
  5
A5B9
330
A599
100
AcDbSymbolTableRecord
100
AcDbLinetypeTableRecord
  2
PHANTOM
 70
     0
  3
______  __  __  ______  __  __  ______  __  __ 
 72
    65
 73
     6
 40
2.5
 49
1.25
 74
     0
 49
-0.25
 74
     0
 49
0.25
 74
     0
 49
-0.25
 74
     0
 49
0.25
 74
     0
 49
-0.25
 74
     0
  0
ENDTAB
  0
TABLE
  2
LAYER
  5
A596
330
0
100
AcDbSymbolTable
 70
     8
  0
LAYER
  5
A5A4
102
{ACAD_XDICTIONARY
360
AB69
102
}
330
A596
100
AcDbSymbolTableRecord
100
AcDbLayerTableRecord
  2
0
 70
     0
 62
     7
  6
CONTINUOUS
370
    -3
390
AB17
  0
LAYER
  5
A5BA
102
{ACAD_XDICTIONARY
360
AB6B
102
}
330
A596
100
AcDbSymbolTableRecord
100
AcDbLayerTableRecord
  2
4
 70
     0
 62
     1
  6
CENTER
370
    -3
390
AB17
  0
LAYER
  5
A5BB
102
{ACAD_XDICTIONARY
360
AB6D
102
}
330
A596
100
AcDbSymbolTableRecord
100
AcDbLayerTableRecord
  2
5
 70
     0
 62
     6
  6
PHANTOM
370
    -3
390
AB17
  0
LAYER
  5
A5BC
102
{ACAD_XDICTIONARY
360
AB6F
102
}
330
A596
100
AcDbSymbolTableRecord
100
AcDbLayerTableRecord
  2
1
 70
     0
 62
     7
  6
CONTINUOUS
370
    -3
390
AB17
  0
LAYER
  5
A5BD
102
{ACAD_XDICTIONARY
360
AB71
102
}
330
A596
100
AcDbSymbolTableRecord
100
AcDbLayerTableRecord
  2
2
 70
     0
 62
     4
  6
CONTINUOUS
370
    -3
390
AB17
  0
LAYER
  5
A5BE
102
{ACAD_XDICTIONARY
360
AB73
102
}
330
A596
100
AcDbSymbolTableRecord
100
AcDbLayerTableRecord
  2
3
 70
     0
 62
     2
  6
DASHED
370
    -3
390
AB17
  0
LAYER
  5
A5BF
102
{ACAD_XDICTIONARY
360
AB75
102
}
330
A596
100
AcDbSymbolTableRecord
100
AcDbLayerTableRecord
  2
6
 70
     0
 62
     5
  6
CONTINUOUS
370
    -3
390
AB17
  0
LAYER
  5
A5C0
102
{ACAD_XDICTIONARY
360
AB77
102
}
330
A596
100
AcDbSymbolTableRecord
100
AcDbLayerTableRecord
  2
7
 70
     0
 62
     3
  6
CONTINUOUS
370
    -3
390
AB17
  0
ENDTAB
  0
TABLE
  2
STYLE
  5
A597
330
0
100
AcDbSymbolTable
 70
     1
  0
STYLE
  5
A5A5
330
A597
100
AcDbSymbolTableRecord
100
AcDbTextStyleTableRecord
  2
STANDARD
 70
     0
 40
0.0
 41
1.0
 50
0.0
 71
     0
 42
5.0
  3
txt
  4

  0
ENDTAB
  0
TABLE
  2
VIEW
  5
A59A
330
0
100
AcDbSymbolTable
 70
     0
  0
ENDTAB
  0
TABLE
  2
UCS
  5
A59B
330
0
100
AcDbSymbolTable
 70
     0
  0
ENDTAB
  0
TABLE
  2
APPID
  5
A59D
330
0
100
AcDbSymbolTable
 70
     3
  0
APPID
  5
A5A6
330
A59D
100
AcDbSymbolTableRecord
100
AcDbRegAppTableRecord
  2
ACAD
 70
     0
  0
APPID
  5
AB83
330
A59D
100
AcDbSymbolTableRecord
100
AcDbRegAppTableRecord
  2
ACAD_NAV_VCDISPLAY
 70
     0
  0
APPID
  5
ABBC
330
A59D
100
AcDbSymbolTableRecord
100
AcDbRegAppTableRecord
  2
ACAD_MLEADERVER
 70
     0
  0
ENDTAB
  0
TABLE
  2
DIMSTYLE
  5
A59E
330
0
100
AcDbSymbolTable
 70
     1
100
AcDbDimStyleTable
 71
     0
  0
DIMSTYLE
105
A5C2
330
A59E
100
AcDbSymbolTableRecord
100
AcDbDimStyleTableRecord
  2
STANDARD
 70
     0
 41
3.0
 42
1.0
 43
10.0
 44
1.0
 73
     0
 74
     0
 77
     3
 78
     8
140
3.2
141
0.0
147
1.0
172
     1
173
     1
284
     8
285
     8
286
     8
340
A5A5
  0
ENDTAB
  0
TABLE
  2
BLOCK_RECORD
  5
A595
330
0
100
AcDbSymbolTable
 70
     0
  0
BLOCK_RECORD
  5
A5B2
102
{ACAD_XDICTIONARY
360
A859
102
}
330
A595
100
AcDbSymbolTableRecord
100
AcDbBlockTableRecord
  2
*MODEL_SPACE
340
AB65
  0
BLOCK_RECORD
  5
A5AE
102
{ACAD_XDICTIONARY
360
A857
102
}
330
A595
100
AcDbSymbolTableRecord
100
AcDbBlockTableRecord
  2
*PAPER_SPACE
340
AB66
  0
ENDTAB
  0
ENDSEC
  0
SECTION
  2
BLOCKS
  0
BLOCK
  5
A5B3
330
A5B2
100
AcDbEntity
  8
0
100
AcDbBlockBegin
  2
*MODEL_SPACE
 70
     0
 10
0.0
 20
0.0
 30
0.0
  3
*MODEL_SPACE
  1

  0
ENDBLK
  5
A5B4
330
A5B2
100
AcDbEntity
  8
0
100
AcDbBlockEnd
  0
BLOCK
  5
A5AF
330
A5AE
100
AcDbEntity
 67
     1
  8
0
100
AcDbBlockBegin
  2
*PAPER_SPACE
 70
     0
 10
0.0
 20
0.0
 30
0.0
  3
*PAPER_SPACE
  1

  0
ENDBLK
  5
A5B0
330
A5AE
100
AcDbEntity
 67
     1
  8
0
100
AcDbBlockEnd
  0
ENDSEC
  0
SECTION
  2
ENTITIES
  0
LINE
  5
A5CA
330
A5B2
100
AcDbEntity
  8
1
  6
Continuous
100
AcDbLine
 10
188.0
 20
173.0
 30
0.0
 11
178.0
 21
173.0
 31
0.0
  0
LINE
  5
A5CB
330
A5B2
100
AcDbEntity
  8
1
  6
Continuous
100
AcDbLine
 10
188.0
 20
323.0
 30
0.0
 11
178.0
 21
323.0
 31
0.0
  0
LINE
  5
A5CC
330
A5B2
100
AcDbEntity
  8
4
  6
CENTER
 48
0.2
100
AcDbLine
 10
198.1038969999999
 20
395.0
 30
0.0
 11
164.971375
 21
395.0
 31
0.0
  0
LINE
  5
A5CD
330
A5B2
100
AcDbEntity
  8
1
  6
Continuous
100
AcDbLine
 10
186.5
 20
405.0
 30
0.0
 11
179.1999969999999
 21
405.0
 31
0.0
  0
LINE
  5
A5CE
330
A5B2
100
AcDbEntity
  8
1
  6
Continuous
100
AcDbLine
 10
170.300003
 20
169.0
 30
0.0
 11
170.300003
 21
199.0
 31
0.0
  0
LINE
  5
A5CF
330
A5B2
100
AcDbEntity
  8
1
  6
Continuous
100
AcDbLine
 10
200.3000029999999
 20
171.0
 30
0.0
 11
200.3000029999999
 21
197.0
 31
0.0
  0
LINE
  5
A5D0
330
A5B2
100
AcDbEntity
  8
1
  6
Continuous
100
AcDbLine
 10
198.300003
 20
169.0
 30
0.0
 11
170.300003
 21
169.0
 31
0.0
  0
LINE
  5
A5D1
330
A5B2
100
AcDbEntity
  8
1
  6
Continuous
100
AcDbLine
 10
198.300003
 20
199.0
 30
0.0
 11
188.0
 21
199.0
 31
0.0
  0
LINE
  5
A5D2
330
A5B2
100
AcDbEntity
  8
4
  6
CENTER
 48
0.2
100
AcDbLine
 10
192.300003
 20
169.699997
 30
0.0
 11
192.300003
 21
180.3000029999997
 31
0.0
  0
LINE
  5
A5D3
330
A5B2
100
AcDbEntity
  8
4
  6
CENTER
 48
0.2
100
AcDbLine
 10
197.600006
 20
175.0
 30
0.0
 11
187.0
 21
175.0
 31
0.0
  0
LINE
  5
A5D4
330
A5B2
100
AcDbEntity
  8
4
  6
CENTER
 48
0.2
100
AcDbLine
 10
192.300003
 20
187.6999969999999
 30
0.0
 11
192.300003
 21
198.300003
 31
0.0
  0
LINE
  5
A5D5
330
A5B2
100
AcDbEntity
  8
4
  6
CENTER
 48
0.2
100
AcDbLine
 10
197.600006
 20
193.0
 30
0.0
 11
187.0
 21
193.0
 31
0.0
  0
LINE
  5
A5D6
330
A5B2
100
AcDbEntity
  8
1
  6
Continuous
100
AcDbLine
 10
178.0
 20
199.0
 30
0.0
 11
170.300003
 21
199.0
 31
0.0
  0
LINE
  5
A5D7
330
A5B2
100
AcDbEntity
  8
1
  6
Continuous
100
AcDbLine
 10
191.0
 20
177.5
 30
0.0
 11
191.0
 21
190.5
 31
0.0
  0
LINE
  5
A5D8
330
A5B2
100
AcDbEntity
  8
1
  6
Continuous
100
AcDbLine
 10
190.0
 20
191.5
 30
0.0
 11
188.0
 21
191.5
 31
0.0
  0
LINE
  5
A5D9
330
A5B2
100
AcDbEntity
  8
1
  6
Continuous
100
AcDbLine
 10
190.0
 20
176.5
 30
0.0
 11
188.0
 21
176.5
 31
0.0
  0
LINE
  5
A5DA
330
A5B2
100
AcDbEntity
  8
1
  6
Continuous
100
AcDbLine
 10
191.0
 20
177.5
 30
0.0
 11
190.0
 21
176.5
 31
0.0
  0
LINE
  5
A5DB
330
A5B2
100
AcDbEntity
  8
1
  6
Continuous
100
AcDbLine
 10
191.0
 20
190.5
 30
0.0
 11
190.0
 21
191.5
 31
0.0
  0
LINE
  5
A5DC
330
A5B2
100
AcDbEntity
  8
1
  6
Continuous
100
AcDbLine
 10
190.0
 20
176.5
 30
0.0
 11
190.0
 21
191.5
 31
0.0
  0
LINE
  5
A5DD
330
A5B2
100
AcDbEntity
  8
1
  6
Continuous
100
AcDbLine
 10
172.0999969999999
 20
181.0
 30
0.0
 11
172.0999969999999
 21
183.4999999999998
 31
0.0
  0
LINE
  5
A5DE
330
A5B2
100
AcDbEntity
  8
1
  6
Continuous
100
AcDbLine
 10
178.0
 20
192.850006
 30
0.0
 11
176.3999939999999
 21
192.850006
 31
0.0
  0
LINE
  5
A5DF
330
A5B2
100
AcDbEntity
  8
1
  6
Continuous
100
AcDbLine
 10
178.0
 20
175.1499939999999
 30
0.0
 11
176.3999939999999
 21
175.1499939999999
 31
0.0
  0
LINE
  5
A5E0
330
A5B2
100
AcDbEntity
  8
1
  6
Continuous
100
AcDbLine
 10
173.3999999999999
 20
169.0
 30
0.0
 11
173.3999999999999
 21
199.0
 31
0.0
  0
LINE
  5
A5E1
330
A5B2
100
AcDbEntity
  8
1
  6
Continuous
100
AcDbLine
 10
188.4999999999998
 20
402.5
 30
0.0
 11
186.5
 21
402.5
 31
0.0
  0
LINE
  5
A5E2
330
A5B2
100
AcDbEntity
  8
1
  6
Continuous
100
AcDbLine
 10
188.4999999999998
 20
387.5
 30
0.0
 11
186.5
 21
387.5
 31
0.0
  0
LINE
  5
A5E3
330
A5B2
100
AcDbEntity
  8
1
  6
Continuous
100
AcDbLine
 10
189.4999999999997
 20
388.5
 30
0.0
 11
189.4999999999997
 21
401.4999999999998
 31
0.0
  0
LINE
  5
A5E4
330
A5B2
100
AcDbEntity
  8
1
  6
Continuous
100
AcDbLine
 10
189.4999999999997
 20
388.5
 30
0.0
 11
188.4999999999998
 21
387.5
 31
0.0
  0
LINE
  5
A5E5
330
A5B2
100
AcDbEntity
  8
1
  6
Continuous
100
AcDbLine
 10
189.4999999999997
 20
401.4999999999998
 30
0.0
 11
188.4999999999998
 21
402.5
 31
0.0
  0
LINE
  5
A5E6
330
A5B2
100
AcDbEntity
  8
1
  6
Continuous
100
AcDbLine
 10
188.4999999999998
 20
387.5
 30
0.0
 11
188.4999999999998
 21
402.5
 31
0.0
  0
LINE
  5
A5E7
330
A5B2
100
AcDbEntity
  8
1
  6
Continuous
100
AcDbLine
 10
177.500006
 20
387.0
 30
0.0
 11
177.500006
 21
405.1000000000001
 31
0.0
  0
LINE
  5
A5E8
330
A5B2
100
AcDbEntity
  8
1
  6
Continuous
100
AcDbLine
 10
179.1999969999999
 20
403.850006
 30
0.0
 11
177.600006
 21
403.850006
 31
0.0
  0
LINE
  5
A5E9
330
A5B2
100
AcDbEntity
  8
1
  6
Continuous
100
AcDbLine
 10
179.1999969999999
 20
386.1499939999998
 30
0.0
 11
177.600006
 21
386.1499939999998
 31
0.0
  0
LINE
  5
A5EA
330
A5B2
100
AcDbEntity
  8
1
  6
Continuous
100
AcDbLine
 10
174.5999969999999
 20
387.0
 30
0.0
 11
174.5999969999999
 21
405.1000059999998
 31
0.0
  0
LINE
  5
A5EB
330
A5B2
100
AcDbEntity
  8
1
  6
Continuous
100
AcDbLine
 10
201.5
 20
423.0
 30
0.0
 11
174.3999939999999
 21
423.0
 31
0.0
  0
LINE
  5
A5EC
330
A5B2
100
AcDbEntity
  8
1
  6
Continuous
100
AcDbLine
 10
174.600006
 20
408.0
 30
0.0
 11
174.3999939999999
 21
408.0
 31
0.0
  0
LINE
  5
A5ED
330
A5B2
100
AcDbEntity
  8
1
  6
Continuous
100
AcDbLine
 10
171.5
 20
408.0000059999997
 30
0.0
 11
171.5
 21
420.1000059999998
 31
0.0
  0
LINE
  5
A5EE
330
A5B2
100
AcDbEntity
  8
1
  6
Continuous
100
AcDbLine
 10
174.5999969999999
 20
405.1000059999998
 30
0.0
 11
174.3999999999999
 21
405.1000059999998
 31
0.0
  0
LINE
  5
A5EF
330
A5B2
100
AcDbEntity
  8
1
  6
Continuous
100
AcDbLine
 10
201.5
 20
420.1000059999998
 30
0.0
 11
174.3999939999999
 21
420.1000059999998
 31
0.0
  0
LINE
  5
A5F0
330
A5B2
100
AcDbEntity
  8
4
  6
CENTER
 48
0.2
100
AcDbLine
 10
179.3999939999999
 20
414.0
 30
0.0
 11
166.350006
 21
414.0
 31
0.0
  0
LINE
  5
A5F1
330
A5B2
100
AcDbEntity
  8
4
  6
CENTER
 48
0.2
100
AcDbLine
 10
193.5
 20
415.100006
 30
0.0
 11
193.5
 21
428.0
 31
0.0
  0
LINE
  5
A5F2
330
A5B2
100
AcDbEntity
  8
1
  6
Continuous
100
AcDbLine
 10
341.0
 20
169.0
 30
0.0
 11
320.0
 21
169.0
 31
0.0
  0
LINE
  5
A5F3
330
A5B2
100
AcDbEntity
  8
1
  6
Continuous
100
AcDbLine
 10
341.0
 20
199.0
 30
0.0
 11
324.0
 21
199.0
 31
0.0
  0
LINE
  5
A5F4
330
A5B2
100
AcDbEntity
  8
4
  6
CENTER
100
AcDbLine
 10
313.0
 20
164.0
 30
0.0
 11
313.0
 21
428.0
 31
0.0
  0
LINE
  5
A5F5
330
A5B2
100
AcDbEntity
  8
1
  6
Continuous
100
AcDbLine
 10
324.0
 20
173.0
 30
0.0
 11
302.0
 21
173.0
 31
0.0
  0
LINE
  5
A5F6
330
A5B2
100
AcDbEntity
  8
1
  6
Continuous
100
AcDbLine
 10
341.0
 20
169.0
 30
0.0
 11
341.0
 21
199.0
 31
0.0
  0
LINE
  5
A5F7
330
A5B2
100
AcDbEntity
  8
4
  6
CENTER
 48
0.2
100
AcDbLine
 10
351.0
 20
184.0
 30
0.0
 11
298.0
 21
184.0
 31
0.0
  0
LINE
  5
A5F8
330
A5B2
100
AcDbEntity
  8
1
  6
Continuous
100
AcDbLine
 10
177.500006
 20
387.0
 30
0.0
 11
174.5999969999999
 21
387.0
 31
0.0
  0
LINE
  5
A5F9
330
A5B2
100
AcDbEntity
  8
1
  6
Continuous
100
AcDbLine
 10
338.100006
 20
169.0
 30
0.0
 11
338.100006
 21
199.0
 31
0.0
  0
LINE
  5
A5FA
330
A5B2
100
AcDbEntity
  8
4
  6
CENTER
 48
0.2
100
AcDbLine
 10
332.0
 20
169.699997
 30
0.0
 11
332.0
 21
180.3000029999997
 31
0.0
  0
LINE
  5
A5FB
330
A5B2
100
AcDbEntity
  8
4
  6
CENTER
 48
0.2
100
AcDbLine
 10
332.0
 20
187.6999969999999
 30
0.0
 11
332.0
 21
198.300003
 31
0.0
  0
LINE
  5
A5FC
330
A5B2
100
AcDbEntity
  8
1
  6
Continuous
100
AcDbLine
 10
328.0
 20
423.0
 30
0.0
 11
298.0
 21
423.0
 31
0.0
  0
LINE
  5
A5FD
330
A5B2
100
AcDbEntity
  8
1
  6
Continuous
100
AcDbLine
 10
328.0
 20
420.1000059999998
 30
0.0
 11
298.0
 21
420.1000059999998
 31
0.0
  0
LINE
  5
A5FE
330
A5B2
100
AcDbEntity
  8
1
  6
Continuous
100
AcDbLine
 10
328.0
 20
408.0
 30
0.0
 11
298.0
 21
408.0
 31
0.0
  0
LINE
  5
A5FF
330
A5B2
100
AcDbEntity
  8
1
  6
Continuous
100
AcDbLine
 10
328.0
 20
402.0
 30
0.0
 11
328.0
 21
423.0
 31
0.0
  0
LINE
  5
A600
330
A5B2
100
AcDbEntity
  8
1
  6
Continuous
100
AcDbLine
 10
298.0
 20
402.0
 30
0.0
 11
298.0
 21
423.0
 31
0.0
  0
LINE
  5
A601
330
A5B2
100
AcDbEntity
  8
1
  6
Continuous
100
AcDbLine
 10
322.5
 20
405.0
 30
0.0
 11
303.5
 21
405.0
 31
0.0
  0
LINE
  5
A602
330
A5B2
100
AcDbEntity
  8
4
  6
CENTER
 48
0.2
100
AcDbLine
 10
304.0
 20
409.350006
 30
0.0
 11
304.0
 21
428.0
 31
0.0
  0
LINE
  5
A603
330
A5B2
100
AcDbEntity
  8
4
  6
CENTER
 48
0.2
100
AcDbLine
 10
308.6499939999999
 20
414.0
 30
0.0
 11
299.350006
 21
414.0
 31
0.0
  0
LINE
  5
A604
330
A5B2
100
AcDbEntity
  8
4
  6
CENTER
 48
0.2
100
AcDbLine
 10
322.0
 20
409.350006
 30
0.0
 11
322.0
 21
428.0
 31
0.0
  0
LINE
  5
A605
330
A5B2
100
AcDbEntity
  8
4
  6
CENTER
 48
0.2
100
AcDbLine
 10
326.649994
 20
414.0
 30
0.0
 11
317.350006
 21
414.0
 31
0.0
  0
LINE
  5
A606
330
A5B2
100
AcDbEntity
  8
4
  6
CENTER
 48
0.2
100
AcDbLine
 10
325.4999999999999
 20
395.0
 30
0.0
 11
300.4999999999999
 21
395.0
 31
0.0
  0
LINE
  5
A607
330
A5B2
100
AcDbEntity
  8
1
  6
Continuous
100
AcDbLine
 10
326.0
 20
169.0
 30
0.0
 11
326.0
 21
199.0
 31
0.0
  0
LINE
  5
A608
330
A5B2
100
AcDbEntity
  8
1
  6
Continuous
100
AcDbLine
 10
25.0
 20
199.0
 30
0.0
 11
46.0
 21
199.0
 31
0.0
  0
LINE
  5
A609
330
A5B2
100
AcDbEntity
  8
1
  6
Continuous
100
AcDbLine
 10
25.0
 20
169.0
 30
0.0
 11
46.0
 21
169.0
 31
0.0
  0
LINE
  5
A60A
330
A5B2
100
AcDbEntity
  8
4
  6
CENTER
100
AcDbLine
 10
53.0
 20
164.0
 30
0.0
 11
53.0
 21
428.0
 31
0.0
  0
LINE
  5
A60B
330
A5B2
100
AcDbEntity
  8
4
  6
CENTER
 48
0.2
100
AcDbLine
 10
34.0
 20
169.699997
 30
0.0
 11
34.0
 21
180.3000029999997
 31
0.0
  0
LINE
  5
A60C
330
A5B2
100
AcDbEntity
  8
1
  6
Continuous
100
AcDbLine
 10
25.0
 20
169.0
 30
0.0
 11
25.0
 21
199.0
 31
0.0
  0
LINE
  5
A60D
330
A5B2
100
AcDbEntity
  8
4
  6
CENTER
 48
0.2
100
AcDbLine
 10
20.0
 20
184.0
 30
0.0
 11
66.0
 21
184.0
 31
0.0
  0
LINE
  5
A60E
330
A5B2
100
AcDbEntity
  8
4
  6
CENTER
 48
0.2
100
AcDbLine
 10
20.0
 20
175.0
 30
0.0
 11
39.299999
 21
175.0
 31
0.0
  0
LINE
  5
A60F
330
A5B2
100
AcDbEntity
  8
4
  6
CENTER
 48
0.2
100
AcDbLine
 10
34.0
 20
187.6999969999999
 30
0.0
 11
34.0
 21
198.300003
 31
0.0
  0
LINE
  5
A610
330
A5B2
100
AcDbEntity
  8
4
  6
CENTER
 48
0.2
100
AcDbLine
 10
20.0
 20
193.0
 30
0.0
 11
39.299999
 21
193.0
 31
0.0
  0
LINE
  5
A611
330
A5B2
100
AcDbEntity
  8
1
  6
Continuous
100
AcDbLine
 10
199.5
 20
490.0
 30
0.0
 11
171.5
 21
490.0
 31
0.0
  0
LINE
  5
A612
330
A5B2
100
AcDbEntity
  8
1
  6
Continuous
100
AcDbLine
 10
199.5
 20
520.0
 30
0.0
 11
171.5
 21
520.0
 31
0.0
  0
LINE
  5
A613
330
A5B2
100
AcDbEntity
  8
1
  6
Continuous
100
AcDbLine
 10
324.0
 20
323.0
 30
0.0
 11
302.0
 21
323.0
 31
0.0
  0
LINE
  5
A614
330
A5B2
100
AcDbEntity
  8
1
  6
Continuous
100
AcDbLine
 10
172.0999969999999
 20
184.4999999999997
 30
0.0
 11
172.8499969999999
 21
184.0
 31
0.0
  0
LINE
  5
A615
330
A5B2
100
AcDbEntity
  8
1
  6
Continuous
100
AcDbLine
 10
172.8500119999999
 20
184.0
 30
0.0
 11
172.0999969999999
 21
183.4999999999998
 31
0.0
  0
LINE
  5
A616
330
A5B2
100
AcDbEntity
  8
1
  6
Continuous
100
AcDbLine
 10
172.0999969999999
 20
184.4999999999997
 30
0.0
 11
172.0999969999999
 21
187.0
 31
0.0
  0
LINE
  5
A617
330
A5B2
100
AcDbEntity
  8
1
  6
Continuous
100
AcDbLine
 10
201.5
 20
420.1000059999998
 30
0.0
 11
201.5
 21
423.0
 31
0.0
  0
LINE
  5
A618
330
A5B2
100
AcDbEntity
  8
1
  6
Continuous
100
AcDbLine
 10
173.0999969999999
 20
395.5
 30
0.0
 11
173.0999969999999
 21
398.0
 31
0.0
  0
LINE
  5
A619
330
A5B2
100
AcDbEntity
  8
1
  6
Continuous
100
AcDbLine
 10
173.0999969999999
 20
392.0
 30
0.0
 11
173.0999969999999
 21
394.5
 31
0.0
  0
LINE
  5
A61A
330
A5B2
100
AcDbEntity
  8
1
  6
Continuous
100
AcDbLine
 10
173.0999969999999
 20
395.5
 30
0.0
 11
173.8499969999999
 21
395.0
 31
0.0
  0
LINE
  5
A61B
330
A5B2
100
AcDbEntity
  8
1
  6
Continuous
100
AcDbLine
 10
173.8500119999999
 20
395.0
 30
0.0
 11
173.1000119999999
 21
394.5
 31
0.0
  0
LINE
  5
A61C
330
A5B2
100
AcDbEntity
  8
1
  6
Continuous
100
AcDbLine
 10
55.958038
 20
183.4999999999998
 30
0.0
 11
53.5
 21
183.4999999999998
 31
0.0
  0
LINE
  5
A61D
330
A5B2
100
AcDbEntity
  8
1
  6
Continuous
100
AcDbLine
 10
55.958038
 20
184.4999999999997
 30
0.0
 11
53.5
 21
184.4999999999997
 31
0.0
  0
LINE
  5
A61E
330
A5B2
100
AcDbEntity
  8
1
  6
Continuous
100
AcDbLine
 10
53.5
 20
181.041962
 30
0.0
 11
53.5
 21
183.4999999999998
 31
0.0
  0
LINE
  5
A61F
330
A5B2
100
AcDbEntity
  8
1
  6
Continuous
100
AcDbLine
 10
52.5
 20
181.041962
 30
0.0
 11
52.5
 21
183.4999999999998
 31
0.0
  0
LINE
  5
A620
330
A5B2
100
AcDbEntity
  8
1
  6
Continuous
100
AcDbLine
 10
53.5
 20
184.4999999999997
 30
0.0
 11
53.5
 21
186.958038
 31
0.0
  0
LINE
  5
A621
330
A5B2
100
AcDbEntity
  8
1
  6
Continuous
100
AcDbLine
 10
52.5
 20
184.4999999999997
 30
0.0
 11
52.5
 21
186.958038
 31
0.0
  0
LINE
  5
A622
330
A5B2
100
AcDbEntity
  8
1
  6
Continuous
100
AcDbLine
 10
52.5
 20
183.4999999999998
 30
0.0
 11
50.04196199999999
 21
183.4999999999998
 31
0.0
  0
LINE
  5
A623
330
A5B2
100
AcDbEntity
  8
1
  6
Continuous
100
AcDbLine
 10
52.5
 20
184.4999999999997
 30
0.0
 11
50.04196199999999
 21
184.4999999999997
 31
0.0
  0
LINE
  5
A624
330
A5B2
100
AcDbEntity
  8
1
  6
Continuous
100
AcDbLine
 10
42.900002
 20
169.0
 30
0.0
 11
42.900002
 21
199.0
 31
0.0
  0
LINE
  5
A625
330
A5B2
100
AcDbEntity
  8
4
  6
CENTER
 48
0.2
100
AcDbLine
 10
343.0
 20
175.0
 30
0.0
 11
326.700012
 21
175.0
 31
0.0
  0
LINE
  5
A626
330
A5B2
100
AcDbEntity
  8
4
  6
CENTER
 48
0.2
100
AcDbLine
 10
343.0
 20
193.0
 30
0.0
 11
326.700012
 21
193.0
 31
0.0
  0
LINE
  5
A627
330
A5B2
100
AcDbEntity
  8
1
  6
Continuous
100
AcDbLine
 10
174.5999969999999
 20
392.0
 30
0.0
 11
173.0999969999999
 21
392.0
 31
0.0
  0
LINE
  5
A628
330
A5B2
100
AcDbEntity
  8
1
  6
Continuous
100
AcDbLine
 10
174.5999969999999
 20
398.0
 30
0.0
 11
173.0999969999999
 21
398.0
 31
0.0
  0
LINE
  5
A629
330
A5B2
100
AcDbEntity
  8
1
  6
Continuous
100
AcDbLine
 10
173.3999999999999
 20
181.0
 30
0.0
 11
172.0999969999999
 21
181.0
 31
0.0
  0
LINE
  5
A62A
330
A5B2
100
AcDbEntity
  8
1
  6
Continuous
100
AcDbLine
 10
173.3999999999999
 20
187.0
 30
0.0
 11
172.0999969999999
 21
187.0
 31
0.0
  0
LINE
  5
A62B
330
A5B2
100
AcDbEntity
  8
1
  6
Continuous
100
AcDbLine
 10
68.0
 20
423.0
 30
0.0
 11
68.0
 21
402.0
 31
0.0
  0
LINE
  5
A62C
330
A5B2
100
AcDbEntity
  8
1
  6
Continuous
100
AcDbLine
 10
38.0
 20
423.0
 30
0.0
 11
38.0
 21
402.0
 31
0.0
  0
LINE
  5
A62D
330
A5B2
100
AcDbEntity
  8
4
  6
CENTER
 48
0.2
100
AcDbLine
 10
39.34999799999999
 20
414.0
 30
0.0
 11
48.650002
 21
414.0
 31
0.0
  0
LINE
  5
A62E
330
A5B2
100
AcDbEntity
  8
1
  6
Continuous
100
AcDbLine
 10
38.0
 20
423.0
 30
0.0
 11
68.0
 21
423.0
 31
0.0
  0
LINE
  5
A62F
330
A5B2
100
AcDbEntity
  8
4
  6
CENTER
 48
0.2
100
AcDbLine
 10
44.0
 20
428.0
 30
0.0
 11
44.0
 21
409.350006
 31
0.0
  0
LINE
  5
A630
330
A5B2
100
AcDbEntity
  8
4
  6
CENTER
 48
0.2
100
AcDbLine
 10
57.349998
 20
414.0
 30
0.0
 11
66.650002
 21
414.0
 31
0.0
  0
LINE
  5
A631
330
A5B2
100
AcDbEntity
  8
4
  6
CENTER
 48
0.2
100
AcDbLine
 10
62.0
 20
428.0
 30
0.0
 11
62.0
 21
409.350006
 31
0.0
  0
LINE
  5
A632
330
A5B2
100
AcDbEntity
  8
1
  6
Continuous
100
AcDbLine
 10
52.5
 20
392.041962
 30
0.0
 11
52.5
 21
394.5
 31
0.0
  0
LINE
  5
A633
330
A5B2
100
AcDbEntity
  8
1
  6
Continuous
100
AcDbLine
 10
53.5
 20
392.041962
 30
0.0
 11
53.5
 21
394.5
 31
0.0
  0
LINE
  5
A634
330
A5B2
100
AcDbEntity
  8
1
  6
Continuous
100
AcDbLine
 10
50.04196199999999
 20
394.5
 30
0.0
 11
52.5
 21
394.5
 31
0.0
  0
LINE
  5
A635
330
A5B2
100
AcDbEntity
  8
1
  6
Continuous
100
AcDbLine
 10
50.04196199999999
 20
395.5
 30
0.0
 11
52.5
 21
395.5
 31
0.0
  0
LINE
  5
A636
330
A5B2
100
AcDbEntity
  8
1
  6
Continuous
100
AcDbLine
 10
53.5
 20
394.5
 30
0.0
 11
55.958038
 21
394.5
 31
0.0
  0
LINE
  5
A637
330
A5B2
100
AcDbEntity
  8
1
  6
Continuous
100
AcDbLine
 10
53.5
 20
395.5
 30
0.0
 11
55.958038
 21
395.5
 31
0.0
  0
LINE
  5
A638
330
A5B2
100
AcDbEntity
  8
1
  6
Continuous
100
AcDbLine
 10
52.5
 20
395.5
 30
0.0
 11
52.5
 21
397.9580379999999
 31
0.0
  0
LINE
  5
A639
330
A5B2
100
AcDbEntity
  8
1
  6
Continuous
100
AcDbLine
 10
53.5
 20
395.5
 30
0.0
 11
53.5
 21
397.9580379999999
 31
0.0
  0
LINE
  5
A63A
330
A5B2
100
AcDbEntity
  8
1
  6
Continuous
100
AcDbLine
 10
38.0
 20
405.1000059999998
 30
0.0
 11
68.0
 21
405.1000059999998
 31
0.0
  0
LINE
  5
A63B
330
A5B2
100
AcDbEntity
  8
4
  6
CENTER
 48
0.2
100
AcDbLine
 10
58.25
 20
395.0
 30
0.0
 11
47.75
 21
395.0
 31
0.0
  0
LINE
  5
A63C
330
A5B2
100
AcDbEntity
  8
1
  6
Continuous
100
AcDbLine
 10
201.5
 20
492.0
 30
0.0
 11
201.5
 21
518.0
 31
0.0
  0
LINE
  5
A63D
330
A5B2
100
AcDbEntity
  8
1
  6
Continuous
100
AcDbLine
 10
171.5
 20
490.0
 30
0.0
 11
171.5
 21
520.0
 31
0.0
  0
LINE
  5
A63E
330
A5B2
100
AcDbEntity
  8
4
  6
CENTER
 48
0.2
100
AcDbLine
 10
206.3500059999999
 20
505.0
 30
0.0
 11
166.5
 21
505.0
 31
0.0
  0
LINE
  5
A63F
330
A5B2
100
AcDbEntity
  8
4
  6
CENTER
 48
0.2
100
AcDbLine
 10
188.199997
 20
496.0
 30
0.0
 11
198.800003
 21
496.0
 31
0.0
  0
LINE
  5
A640
330
A5B2
100
AcDbEntity
  8
4
  6
CENTER
 48
0.2
100
AcDbLine
 10
193.5
 20
490.700012
 30
0.0
 11
193.5
 21
501.2999879999998
 31
0.0
  0
LINE
  5
A641
330
A5B2
100
AcDbEntity
  8
4
  6
CENTER
 48
0.2
100
AcDbLine
 10
188.199997
 20
514.0
 30
0.0
 11
198.800003
 21
514.0
 31
0.0
  0
LINE
  5
A642
330
A5B2
100
AcDbEntity
  8
4
  6
CENTER
 48
0.2
100
AcDbLine
 10
193.5
 20
508.7000119999998
 30
0.0
 11
193.5
 21
519.299988
 31
0.0
  0
LINE
  5
A643
330
A5B2
100
AcDbEntity
  8
1
  6
Continuous
100
AcDbLine
 10
200.3000029999999
 20
530.0999759999998
 30
0.0
 11
200.3000029999999
 21
533.0
 31
0.0
  0
LINE
  5
A644
330
A5B2
100
AcDbEntity
  8
1
  6
Continuous
100
AcDbLine
 10
170.300003
 20
518.0
 30
0.0
 11
170.300003
 21
530.0999759999998
 31
0.0
  0
LINE
  5
A645
330
A5B2
100
AcDbEntity
  8
1
  6
Continuous
100
AcDbLine
 10
200.3000029999999
 20
533.0
 30
0.0
 11
173.1999969999999
 21
533.0
 31
0.0
  0
LINE
  5
A646
330
A5B2
100
AcDbEntity
  8
1
  6
Continuous
100
AcDbLine
 10
200.3000029999999
 20
530.0999759999998
 30
0.0
 11
173.1999969999999
 21
530.0999759999998
 31
0.0
  0
LINE
  5
A647
330
A5B2
100
AcDbEntity
  8
4
  6
CENTER
 48
0.2
100
AcDbLine
 10
177.550003
 20
524.0
 30
0.0
 11
165.9499969999999
 21
524.0
 31
0.0
  0
LINE
  5
A648
330
A5B2
100
AcDbEntity
  8
1
  6
Continuous
100
AcDbLine
 10
171.5
 20
84.0
 30
0.0
 11
171.5
 21
58.640076
 31
0.0
  0
LINE
  5
A649
330
A5B2
100
AcDbEntity
  8
4
  6
CENTER
 48
0.2
100
AcDbLine
 10
192.300003
 20
48.25
 30
0.0
 11
192.300003
 21
36.650002
 31
0.0
  0
LINE
  5
A64A
330
A5B2
100
AcDbEntity
  8
1
  6
Continuous
100
AcDbLine
 10
173.3999999999999
 20
56.0
 30
0.0
 11
173.1999969999999
 21
56.0
 31
0.0
  0
LINE
  5
A64B
330
A5B2
100
AcDbEntity
  8
1
  6
Continuous
100
AcDbLine
 10
176.2999939999999
 20
76.99999999999999
 30
0.0
 11
176.2999939999999
 21
58.900002
 31
0.0
  0
LINE
  5
A64C
330
A5B2
100
AcDbEntity
  8
1
  6
Continuous
100
AcDbLine
 10
178.0
 20
78.800003
 30
0.0
 11
178.0
 21
59.200001
 31
0.0
  0
LINE
  5
A64D
330
A5B2
100
AcDbEntity
  8
1
  6
Continuous
100
AcDbLine
 10
173.3999999999999
 20
58.900002
 30
0.0
 11
173.1999969999999
 21
58.900002
 31
0.0
  0
LINE
  5
A64E
330
A5B2
100
AcDbEntity
  8
1
  6
Continuous
100
AcDbLine
 10
191.0
 20
75.5
 30
0.0
 11
191.0
 21
62.5
 31
0.0
  0
LINE
  5
A64F
330
A5B2
100
AcDbEntity
  8
1
  6
Continuous
100
AcDbLine
 10
170.300003
 20
56.0
 30
0.0
 11
170.300003
 21
43.900002
 31
0.0
  0
LINE
  5
A650
330
A5B2
100
AcDbEntity
  8
4
  6
CENTER
 48
0.2
100
AcDbLine
 10
177.550003
 20
50.0
 30
0.0
 11
165.9499969999999
 21
50.0
 31
0.0
  0
LINE
  5
A651
330
A5B2
100
AcDbEntity
  8
1
  6
Continuous
100
AcDbLine
 10
200.3000029999999
 20
43.900002
 30
0.0
 11
173.1999969999999
 21
43.900002
 31
0.0
  0
LINE
  5
A652
330
A5B2
100
AcDbEntity
  8
1
  6
Continuous
100
AcDbLine
 10
200.3000029999999
 20
41.0
 30
0.0
 11
173.1999969999999
 21
41.0
 31
0.0
  0
LINE
  5
A653
330
A5B2
100
AcDbEntity
  8
1
  6
Continuous
100
AcDbLine
 10
200.3000029999999
 20
43.900002
 30
0.0
 11
200.3000029999999
 21
41.0
 31
0.0
  0
LINE
  5
A654
330
A5B2
100
AcDbEntity
  8
1
  6
Continuous
100
AcDbLine
 10
178.0
 20
60.150002
 30
0.0
 11
176.3999939999999
 21
60.150002
 31
0.0
  0
LINE
  5
A655
330
A5B2
100
AcDbEntity
  8
1
  6
Continuous
100
AcDbLine
 10
172.1000119999999
 20
68.5
 30
0.0
 11
172.8499969999999
 21
69.0
 31
0.0
  0
LINE
  5
A656
330
A5B2
100
AcDbEntity
  8
1
  6
Continuous
100
AcDbLine
 10
176.2999939999999
 20
77.0
 30
0.0
 11
173.3999999999999
 21
77.0
 31
0.0
  0
LINE
  5
A657
330
A5B2
100
AcDbEntity
  8
1
  6
Continuous
100
AcDbLine
 10
173.3999999999999
 20
77.0
 30
0.0
 11
173.3999999999999
 21
58.900002
 31
0.0
  0
LINE
  5
A658
330
A5B2
100
AcDbEntity
  8
1
  6
Continuous
100
AcDbLine
 10
190.0
 20
76.5
 30
0.0
 11
190.0
 21
61.5
 31
0.0
  0
LINE
  5
A659
330
A5B2
100
AcDbEntity
  8
1
  6
Continuous
100
AcDbLine
 10
178.0
 20
77.849998
 30
0.0
 11
176.3999939999999
 21
77.849998
 31
0.0
  0
LINE
  5
A65A
330
A5B2
100
AcDbEntity
  8
1
  6
Continuous
100
AcDbLine
 10
190.0
 20
61.5
 30
0.0
 11
188.0
 21
61.5
 31
0.0
  0
LINE
  5
A65B
330
A5B2
100
AcDbEntity
  8
1
  6
Continuous
100
AcDbLine
 10
190.0
 20
76.5
 30
0.0
 11
188.0
 21
76.5
 31
0.0
  0
LINE
  5
A65C
330
A5B2
100
AcDbEntity
  8
1
  6
Continuous
100
AcDbLine
 10
191.0
 20
62.5
 30
0.0
 11
190.0
 21
61.5
 31
0.0
  0
LINE
  5
A65D
330
A5B2
100
AcDbEntity
  8
1
  6
Continuous
100
AcDbLine
 10
191.0
 20
75.5
 30
0.0
 11
190.0
 21
76.5
 31
0.0
  0
LINE
  5
A65E
330
A5B2
100
AcDbEntity
  8
1
  6
Continuous
100
AcDbLine
 10
173.3999999999999
 20
66.0
 30
0.0
 11
172.0999969999999
 21
66.0
 31
0.0
  0
LINE
  5
A65F
330
A5B2
100
AcDbEntity
  8
1
  6
Continuous
100
AcDbLine
 10
173.3999999999999
 20
72.0
 30
0.0
 11
172.0999969999999
 21
72.0
 31
0.0
  0
LINE
  5
A660
330
A5B2
100
AcDbEntity
  8
1
  6
Continuous
100
AcDbLine
 10
172.8499969999999
 20
69.0
 30
0.0
 11
172.0999969999999
 21
69.5
 31
0.0
  0
LINE
  5
A661
330
A5B2
100
AcDbEntity
  8
1
  6
Continuous
100
AcDbLine
 10
199.5
 20
84.0
 30
0.0
 11
171.5
 21
84.0
 31
0.0
  0
LINE
  5
A662
330
A5B2
100
AcDbEntity
  8
1
  6
Continuous
100
AcDbLine
 10
199.5
 20
54.0
 30
0.0
 11
173.1999969999999
 21
54.0
 31
0.0
  0
LINE
  5
A663
330
A5B2
100
AcDbEntity
  8
4
  6
CENTER
 48
0.2
100
AcDbLine
 10
206.3500059999999
 20
69.0
 30
0.0
 11
166.5
 21
69.0
 31
0.0
  0
LINE
  5
A664
330
A5B2
100
AcDbEntity
  8
1
  6
Continuous
100
AcDbLine
 10
201.5
 20
82.0
 30
0.0
 11
201.5
 21
56.0
 31
0.0
  0
LINE
  5
A665
330
A5B2
100
AcDbEntity
  8
4
  6
CENTER
 48
0.2
100
AcDbLine
 10
192.399994
 20
525.75
 30
0.0
 11
192.399994
 21
537.3499759999998
 31
0.0
  0
LINE
  5
A666
330
A5B2
100
AcDbEntity
  8
4
  6
CENTER
 48
0.2
100
AcDbLine
 10
447.0
 20
307.0
 30
0.0
 11
439.0
 21
307.0
 31
0.0
  0
LINE
  5
A667
330
A5B2
100
AcDbEntity
  8
4
  6
CENTER
 48
0.2
100
AcDbLine
 10
447.0
 20
317.0
 30
0.0
 11
439.0
 21
317.0
 31
0.0
  0
LINE
  5
A668
330
A5B2
100
AcDbEntity
  8
4
  6
CENTER
100
AcDbLine
 10
183.0
 20
164.0
 30
0.0
 11
183.0
 21
428.0
 31
0.0
  0
LINE
  5
A669
330
A5B2
100
AcDbEntity
  8
4
  6
CENTER
 48
0.2
100
AcDbLine
 10
183.0
 20
49.0
 30
0.0
 11
183.0
 21
89.0
 31
0.0
  0
LINE
  5
A66A
330
A5B2
100
AcDbEntity
  8
1
  6
Continuous
100
AcDbLine
 10
173.1999969999999
 20
520.0
 30
0.0
 11
173.1999969999999
 21
530.0999759999998
 31
0.0
  0
LINE
  5
A66B
330
A5B2
100
AcDbEntity
  8
1
  6
Continuous
100
AcDbLine
 10
176.2999939999999
 20
169.0
 30
0.0
 11
176.2999939999999
 21
199.0
 31
0.0
  0
LINE
  5
A66C
330
A5B2
100
AcDbEntity
  8
1
  6
Continuous
100
AcDbLine
 10
174.3999939999999
 20
408.0
 30
0.0
 11
174.3999939999999
 21
420.1000059999998
 31
0.0
  0
LINE
  5
A66D
330
A5B2
100
AcDbEntity
  8
1
  6
Continuous
100
AcDbLine
 10
427.700012
 20
169.0
 30
0.0
 11
455.700012
 21
169.0
 31
0.0
  0
LINE
  5
A66E
330
A5B2
100
AcDbEntity
  8
1
  6
Continuous
100
AcDbLine
 10
455.700012
 20
169.0
 30
0.0
 11
455.700012
 21
199.0
 31
0.0
  0
LINE
  5
A66F
330
A5B2
100
AcDbEntity
  8
1
  6
Continuous
100
AcDbLine
 10
427.700012
 20
199.0
 30
0.0
 11
455.700012
 21
199.0
 31
0.0
  0
LINE
  5
A670
330
A5B2
100
AcDbEntity
  8
4
  6
CENTER
 48
0.2
100
AcDbLine
 10
433.7000119999998
 20
169.699997
 30
0.0
 11
433.7000119999998
 21
180.3000029999997
 31
0.0
  0
LINE
  5
A671
330
A5B2
100
AcDbEntity
  8
4
  6
CENTER
 48
0.2
100
AcDbLine
 10
433.7000119999998
 20
187.6999969999999
 30
0.0
 11
433.7000119999998
 21
198.300003
 31
0.0
  0
LINE
  5
A672
330
A5B2
100
AcDbEntity
  8
1
  6
Continuous
100
AcDbLine
 10
425.7000119999998
 20
171.0
 30
0.0
 11
425.7000119999998
 21
197.0
 31
0.0
  0
LINE
  5
A673
330
A5B2
100
AcDbEntity
  8
4
  6
CENTER
 48
0.2
100
AcDbLine
 10
428.399994
 20
193.0
 30
0.0
 11
439.0
 21
193.0
 31
0.0
  0
LINE
  5
A674
330
A5B2
100
AcDbEntity
  8
4
  6
CENTER
 48
0.2
100
AcDbLine
 10
428.399994
 20
175.0
 30
0.0
 11
439.0
 21
175.0
 31
0.0
  0
LINE
  5
A675
330
A5B2
100
AcDbEntity
  8
1
  6
Continuous
100
AcDbLine
 10
438.0
 20
323.0
 30
0.0
 11
448.0
 21
323.0
 31
0.0
  0
LINE
  5
A676
330
A5B2
100
AcDbEntity
  8
4
  6
CENTER
 48
0.2
100
AcDbLine
 10
420.700012
 20
184.0
 30
0.0
 11
460.700012
 21
184.0
 31
0.0
  0
LINE
  5
A677
330
A5B2
100
AcDbEntity
  8
4
  6
CENTER
 48
0.2
100
AcDbLine
 10
432.0
 20
295.5
 30
0.0
 11
454.0
 21
295.5
 31
0.0
  0
LINE
  5
A678
330
A5B2
100
AcDbEntity
  8
4
  6
CENTER
 48
0.2
100
AcDbLine
 10
460.700012
 20
175.0
 30
0.0
 11
447.7999879999998
 21
175.0
 31
0.0
  0
LINE
  5
A679
330
A5B2
100
AcDbEntity
  8
4
  6
CENTER
 48
0.2
100
AcDbLine
 10
460.700012
 20
193.0
 30
0.0
 11
447.7999879999998
 21
193.0
 31
0.0
  0
LINE
  5
A67A
330
A5B2
100
AcDbEntity
  8
4
  6
CENTER
 48
0.2
100
AcDbLine
 10
180.75
 20
193.0
 30
0.0
 11
169.1499939999999
 21
193.0
 31
0.0
  0
LINE
  5
A67B
330
A5B2
100
AcDbEntity
  8
1
  6
Continuous
100
AcDbLine
 10
173.1999969999999
 20
56.0
 30
0.0
 11
173.1999969999999
 21
43.900002
 31
0.0
  0
LINE
  5
A67C
330
A5B2
100
AcDbEntity
  8
4
  6
CENTER
 48
0.2
100
AcDbLine
 10
188.199997
 20
60.0
 30
0.0
 11
198.800003
 21
60.0
 31
0.0
  0
LINE
  5
A67D
330
A5B2
100
AcDbEntity
  8
4
  6
CENTER
 48
0.2
100
AcDbLine
 10
193.5
 20
54.700001
 30
0.0
 11
193.5
 21
65.30000300000001
 31
0.0
  0
LINE
  5
A67E
330
A5B2
100
AcDbEntity
  8
4
  6
CENTER
 48
0.2
100
AcDbLine
 10
188.199997
 20
78.0
 30
0.0
 11
198.800003
 21
78.0
 31
0.0
  0
LINE
  5
A67F
330
A5B2
100
AcDbEntity
  8
4
  6
CENTER
 48
0.2
100
AcDbLine
 10
193.5
 20
72.69999699999998
 30
0.0
 11
193.5
 21
83.300003
 31
0.0
  0
LINE
  5
A680
330
A5B2
100
AcDbEntity
  8
1
  6
Continuous
100
AcDbLine
 10
42.0
 20
323.0
 30
0.0
 11
64.0
 21
323.0
 31
0.0
  0
LINE
  5
A681
330
A5B2
100
AcDbEntity
  8
1
  6
Continuous
100
AcDbLine
 10
42.0
 20
309.0
 30
0.0
 11
42.0
 21
309.0
 31
0.0
  0
LINE
  5
A682
330
A5B2
100
AcDbEntity
  8
1
  6
Continuous
100
AcDbLine
 10
42.0
 20
305.0
 30
0.0
 11
42.0
 21
305.0
 31
0.0
  0
LINE
  5
A683
330
A5B2
100
AcDbEntity
  8
1
  6
Continuous
100
AcDbLine
 10
42.0
 20
319.0
 30
0.0
 11
42.0
 21
319.0
 31
0.0
  0
LINE
  5
A684
330
A5B2
100
AcDbEntity
  8
1
  6
Continuous
100
AcDbLine
 10
42.0
 20
315.0
 30
0.0
 11
42.0
 21
315.0
 31
0.0
  0
LINE
  5
A685
330
A5B2
100
AcDbEntity
  8
4
  6
CENTER
 48
0.1
100
AcDbLine
 10
39.5
 20
317.0
 30
0.0
 11
43.5
 21
317.0
 31
0.0
  0
LINE
  5
A686
330
A5B2
100
AcDbEntity
  8
4
  6
CENTER
 48
0.1
100
AcDbLine
 10
39.5
 20
307.0
 30
0.0
 11
43.5
 21
307.0
 31
0.0
  0
LINE
  5
A687
330
A5B2
100
AcDbEntity
  8
1
  6
Continuous
100
AcDbLine
 10
324.0
 20
173.0
 30
0.0
 11
324.0
 21
323.0
 31
0.0
  0
LINE
  5
A688
330
A5B2
100
AcDbEntity
  8
1
  6
Continuous
100
AcDbLine
 10
302.0
 20
173.0
 30
0.0
 11
302.0
 21
323.0
 31
0.0
  0
LINE
  5
A689
330
A5B2
100
AcDbEntity
  8
1
  6
Continuous
100
AcDbLine
 10
303.5
 20
323.0
 30
0.0
 11
303.5
 21
405.0
 31
0.0
  0
LINE
  5
A68A
330
A5B2
100
AcDbEntity
  8
1
  6
Continuous
100
AcDbLine
 10
322.5
 20
323.0
 30
0.0
 11
322.5
 21
405.0
 31
0.0
  0
LINE
  5
A68B
330
A5B2
100
AcDbEntity
  8
1
  6
Continuous
100
AcDbLine
 10
188.0
 20
173.0
 30
0.0
 11
188.0
 21
323.0
 31
0.0
  0
LINE
  5
A68C
330
A5B2
100
AcDbEntity
  8
1
  6
Continuous
100
AcDbLine
 10
178.0
 20
173.0
 30
0.0
 11
178.0
 21
323.0
 31
0.0
  0
LINE
  5
A68D
330
A5B2
100
AcDbEntity
  8
1
  6
Continuous
100
AcDbLine
 10
180.6999969999999
 20
280.0
 30
0.0
 11
180.6999969999999
 21
303.0
 31
0.0
  0
LINE
  5
A68E
330
A5B2
100
AcDbEntity
  8
1
  6
Continuous
100
AcDbLine
 10
184.3999939999999
 20
280.0
 30
0.0
 11
184.3999939999999
 21
303.0
 31
0.0
  0
LINE
  5
A68F
330
A5B2
100
AcDbEntity
  8
1
  6
Continuous
100
AcDbLine
 10
183.3999939999999
 20
304.0
 30
0.0
 11
181.6999969999999
 21
304.0
 31
0.0
  0
LINE
  5
A690
330
A5B2
100
AcDbEntity
  8
1
  6
Continuous
100
AcDbLine
 10
183.3999939999999
 20
279.0
 30
0.0
 11
181.6999969999999
 21
279.0
 31
0.0
  0
LINE
  5
A691
330
A5B2
100
AcDbEntity
  8
4
  6
CENTER
 48
0.2
100
AcDbLine
 10
205.300003
 20
184.0
 30
0.0
 11
165.300003
 21
184.0
 31
0.0
  0
LINE
  5
A692
330
A5B2
100
AcDbEntity
  8
4
  6
CENTER
 48
0.2
100
AcDbLine
 10
180.75
 20
175.0
 30
0.0
 11
169.1499939999999
 21
175.0
 31
0.0
  0
LINE
  5
A693
330
A5B2
100
AcDbEntity
  8
1
  6
Continuous
100
AcDbLine
 10
42.0
 20
199.0
 30
0.0
 11
42.0
 21
323.0
 31
0.0
  0
LINE
  5
A694
330
A5B2
100
AcDbEntity
  8
1
  6
Continuous
100
AcDbLine
 10
64.0
 20
173.0
 30
0.0
 11
64.0
 21
323.0
 31
0.0
  0
LINE
  5
A695
330
A5B2
100
AcDbEntity
  8
1
  6
Continuous
100
AcDbLine
 10
448.0
 20
199.0
 30
0.0
 11
448.0
 21
323.0
 31
0.0
  0
LINE
  5
A696
330
A5B2
100
AcDbEntity
  8
1
  6
Continuous
100
AcDbLine
 10
438.0
 20
199.0
 30
0.0
 11
438.0
 21
323.0
 31
0.0
  0
LINE
  5
A697
330
A5B2
100
AcDbEntity
  8
1
  6
Continuous
100
AcDbLine
 10
179.1999969999999
 20
323.0
 30
0.0
 11
179.1999969999999
 21
405.0
 31
0.0
  0
LINE
  5
A698
330
A5B2
100
AcDbEntity
  8
1
  6
Continuous
100
AcDbLine
 10
186.5
 20
323.0
 30
0.0
 11
186.5
 21
405.0
 31
0.0
  0
LINE
  5
A699
330
A5B2
100
AcDbEntity
  8
1
  6
Continuous
100
AcDbLine
 10
43.5
 20
323.0
 30
0.0
 11
43.5
 21
390.3918149999999
 31
0.0
  0
LINE
  5
A69A
330
A5B2
100
AcDbEntity
  8
1
  6
Continuous
100
AcDbLine
 10
62.5
 20
323.0
 30
0.0
 11
62.5
 21
390.3918149999999
 31
0.0
  0
LINE
  5
A69B
330
A5B2
100
AcDbEntity
  8
4
  6
CENTER
 48
0.2
100
AcDbLine
 10
193.1521149999999
 20
295.5
 30
0.0
 11
172.6358799999999
 21
295.5
 31
0.0
  0
LINE
  5
A69C
330
A5B2
100
AcDbEntity
  8
1
  6
Continuous
100
AcDbLine
 10
183.8999939999999
 20
282.0
 30
0.0
 11
183.8999939999999
 21
303.8660279999998
 31
0.0
  0
LINE
  5
A69D
330
A5B2
100
AcDbEntity
  8
1
  6
Continuous
100
AcDbLine
 10
184.3999939999999
 20
293.5
 30
0.0
 11
184.1492
 21
293.5
 31
0.0
  0
LINE
  5
A69E
330
A5B2
100
AcDbEntity
  8
1
  6
Continuous
100
AcDbLine
 10
184.3999939999999
 20
297.5
 30
0.0
 11
184.1492
 21
297.5
 31
0.0
  0
LINE
  5
A69F
330
A5B2
100
AcDbEntity
  8
1
  6
Continuous
100
AcDbLine
 10
184.3999939999999
 20
282.0
 30
0.0
 11
180.6999969999999
 21
282.0
 31
0.0
  0
LINE
  5
A6A0
330
A5B2
100
AcDbEntity
  8
1
  6
Continuous
100
AcDbLine
 10
183.3999939999999
 20
287.7999879999998
 30
0.0
 11
181.199997
 21
287.7999879999998
 31
0.0
  0
LINE
  5
A6A1
330
A5B2
100
AcDbEntity
  8
1
  6
Continuous
100
AcDbLine
 10
183.3999939999999
 20
285.0
 30
0.0
 11
181.199997
 21
285.0
 31
0.0
  0
LINE
  5
A6A2
330
A5B2
100
AcDbEntity
  8
1
  6
Continuous
100
AcDbLine
 10
184.045959
 20
293.5
 30
0.0
 11
183.8999939999999
 21
293.5
 31
0.0
  0
LINE
  5
A6A3
330
A5B2
100
AcDbEntity
  8
1
  6
Continuous
100
AcDbLine
 10
184.045959
 20
297.5
 30
0.0
 11
183.8999939999999
 21
297.5
 31
0.0
  0
LINE
  5
A6A4
330
A5B2
100
AcDbEntity
  8
1
  6
Continuous
100
AcDbLine
 10
183.3999939999999
 20
286.5
 30
0.0
 11
181.199997
 21
286.5
 31
0.0
  0
LINE
  5
A6A5
330
A5B2
100
AcDbEntity
  8
1
  6
Continuous
100
AcDbLine
 10
183.3999939999999
 20
289.2999879999998
 30
0.0
 11
181.199997
 21
289.2999879999998
 31
0.0
  0
LINE
  5
A6A6
330
A5B2
100
AcDbEntity
  8
5
  6
PHANTOM
 48
0.1
100
AcDbLine
 10
183.3999939999999
 20
294.0
 30
0.0
 11
181.6999969999999
 21
294.0
 31
0.0
  0
LINE
  5
A6A7
330
A5B2
100
AcDbEntity
  8
5
  6
PHANTOM
 48
0.1
100
AcDbLine
 10
183.3999939999999
 20
302.4999999999999
 30
0.0
 11
181.6999969999999
 21
302.4999999999999
 31
0.0
  0
LINE
  5
A6A8
330
A5B2
100
AcDbEntity
  8
4
  6
CENTER
 48
0.2
100
AcDbLine
 10
193.1521149999999
 20
299.0
 30
0.0
 11
172.6358799999999
 21
299.0
 31
0.0
  0
LINE
  5
A6A9
330
A5B2
100
AcDbEntity
  8
5
  6
PHANTOM
 48
0.1
100
AcDbLine
 10
183.3999939999999
 20
295.5
 30
0.0
 11
181.6999969999999
 21
295.5
 31
0.0
  0
LINE
  5
A6AA
330
A5B2
100
AcDbEntity
  8
5
  6
PHANTOM
 48
0.1
100
AcDbLine
 10
183.3999939999999
 20
300.0
 30
0.0
 11
181.6999969999999
 21
300.0
 31
0.0
  0
LINE
  5
A6AB
330
A5B2
100
AcDbEntity
  8
5
  6
PHANTOM
 48
0.1
100
AcDbLine
 10
183.3999939999999
 20
298.0
 30
0.0
 11
181.6999969999999
 21
298.0
 31
0.0
  0
LINE
  5
A6AC
330
A5B2
100
AcDbEntity
  8
5
  6
PHANTOM
 48
0.1
100
AcDbLine
 10
184.3999939999999
 20
285.5
 30
0.0
 11
180.6999969999999
 21
285.5
 31
0.0
  0
LINE
  5
A6AD
330
A5B2
100
AcDbEntity
  8
1
  6
Continuous
100
AcDbLine
 10
302.0
 20
287.7999879999998
 30
0.0
 11
301.2999879999998
 21
287.7999879999998
 31
0.0
  0
LINE
  5
A6AE
330
A5B2
100
AcDbEntity
  8
4
  6
CENTER
 48
0.2
100
AcDbLine
 10
329.0
 20
295.5
 30
0.0
 11
297.0
 21
295.5
 31
0.0
  0
LINE
  5
A6AF
330
A5B2
100
AcDbEntity
  8
1
  6
Continuous
100
AcDbLine
 10
302.0
 20
294.7999879999998
 30
0.0
 11
299.9187319999998
 21
289.884888
 31
0.0
  0
LINE
  5
A6B0
330
A5B2
100
AcDbEntity
  8
5
  6
PHANTOM
 48
0.1
100
AcDbLine
 10
302.0
 20
294.0
 30
0.0
 11
297.5
 21
294.0
 31
0.0
  0
LINE
  5
A6B1
330
A5B2
100
AcDbEntity
  8
5
  6
PHANTOM
 48
0.1
100
AcDbLine
 10
302.0
 20
304.0
 30
0.0
 11
297.5
 21
304.0
 31
0.0
  0
LINE
  5
A6B2
330
A5B2
100
AcDbEntity
  8
4
  6
CENTER
 48
0.2
100
AcDbLine
 10
329.0
 20
299.0
 30
0.0
 11
291.0
 21
299.0
 31
0.0
  0
LINE
  5
A6B3
330
A5B2
100
AcDbEntity
  8
5
  6
PHANTOM
 48
0.1
100
AcDbLine
 10
296.8479919999998
 20
296.850861
 30
0.0
 11
299.4346919999998
 21
298.099426
 31
0.0
  0
LINE
  5
A6B4
330
A5B2
100
AcDbEntity
  8
5
  6
PHANTOM
 48
0.1
100
AcDbLine
 10
296.847961
 20
301.149109
 30
0.0
 11
299.4346919999998
 21
299.900574
 31
0.0
  0
LINE
  5
A6B5
330
A5B2
100
AcDbEntity
  8
4
  6
CENTER
 48
0.2
100
AcDbLine
 10
37.0
 20
299.0
 30
0.0
 11
75.0
 21
299.0
 31
0.0
  0
LINE
  5
A6B6
330
A5B2
100
AcDbEntity
  8
5
  6
PHANTOM
 48
0.1
100
AcDbLine
 10
64.0
 20
304.0
 30
0.0
 11
68.5
 21
304.0
 31
0.0
  0
LINE
  5
A6B7
330
A5B2
100
AcDbEntity
  8
1
  6
Continuous
100
AcDbLine
 10
63.99998899999999
 20
294.800018
 30
0.0
 11
66.08126099999998
 21
289.884888
 31
0.0
  0
LINE
  5
A6B8
330
A5B2
100
AcDbEntity
  8
5
  6
PHANTOM
 48
0.1
100
AcDbLine
 10
64.0
 20
294.0
 30
0.0
 11
68.5
 21
294.0
 31
0.0
  0
LINE
  5
A6B9
330
A5B2
100
AcDbEntity
  8
4
  6
CENTER
 48
0.2
100
AcDbLine
 10
37.0
 20
295.5
 30
0.0
 11
69.0
 21
295.5
 31
0.0
  0
LINE
  5
A6BA
330
A5B2
100
AcDbEntity
  8
5
  6
PHANTOM
 48
0.1
100
AcDbLine
 10
69.15203100000001
 20
296.850861
 30
0.0
 11
66.56531499999998
 21
298.099426
 31
0.0
  0
LINE
  5
A6BB
330
A5B2
100
AcDbEntity
  8
5
  6
PHANTOM
 48
0.1
100
AcDbLine
 10
69.15203100000001
 20
301.1491389999998
 30
0.0
 11
66.565308
 21
299.900574
 31
0.0
  0
LINE
  5
A6BC
330
A5B2
100
AcDbEntity
  8
1
  6
Continuous
100
AcDbLine
 10
64.0
 20
287.7999879999998
 30
0.0
 11
64.69999699999999
 21
287.7999879999998
 31
0.0
  0
LINE
  5
A6BD
330
A5B2
100
AcDbEntity
  8
4
  6
CENTER
 48
0.1
100
AcDbLine
 10
326.5
 20
307.0
 30
0.0
 11
322.5
 21
307.0
 31
0.0
  0
LINE
  5
A6BE
330
A5B2
100
AcDbEntity
  8
4
  6
CENTER
 48
0.1
100
AcDbLine
 10
326.5
 20
317.0
 30
0.0
 11
322.5
 21
317.0
 31
0.0
  0
LINE
  5
A6BF
330
A5B2
100
AcDbEntity
  8
1
  6
Continuous
100
AcDbLine
 10
324.0
 20
315.0
 30
0.0
 11
324.0
 21
315.0
 31
0.0
  0
LINE
  5
A6C0
330
A5B2
100
AcDbEntity
  8
1
  6
Continuous
100
AcDbLine
 10
324.0
 20
319.0
 30
0.0
 11
324.0
 21
319.0
 31
0.0
  0
LINE
  5
A6C1
330
A5B2
100
AcDbEntity
  8
1
  6
Continuous
100
AcDbLine
 10
324.0
 20
305.0
 30
0.0
 11
324.0
 21
305.0
 31
0.0
  0
LINE
  5
A6C2
330
A5B2
100
AcDbEntity
  8
1
  6
Continuous
100
AcDbLine
 10
324.0
 20
309.0
 30
0.0
 11
324.0
 21
309.0
 31
0.0
  0
LINE
  5
A6C3
330
A5B2
100
AcDbEntity
  8
4
  6
CENTER
 48
0.2
100
AcDbLine
 10
183.0
 20
485.0
 30
0.0
 11
183.0
 21
525.0
 31
0.0
  0
LINE
  5
A6C4
330
A5B2
100
AcDbEntity
  8
1
  6
Continuous
100
AcDbLine
 10
172.0999969999999
 20
66.0
 30
0.0
 11
172.0999969999999
 21
68.5
 31
0.0
  0
LINE
  5
A6C5
330
A5B2
100
AcDbEntity
  8
1
  6
Continuous
100
AcDbLine
 10
188.0
 20
59.200001
 30
0.0
 11
188.0
 21
78.800003
 31
0.0
  0
LINE
  5
A6C6
330
A5B2
100
AcDbEntity
  8
1
  6
Continuous
100
AcDbLine
 10
186.800003
 20
58.0
 30
0.0
 11
179.1999969999999
 21
58.0
 31
0.0
  0
LINE
  5
A6C7
330
A5B2
100
AcDbEntity
  8
1
  6
Continuous
100
AcDbLine
 10
186.800003
 20
80.0
 30
0.0
 11
179.1999969999999
 21
80.0
 31
0.0
  0
LINE
  5
A6C8
330
A5B2
100
AcDbEntity
  8
1
  6
Continuous
100
AcDbLine
 10
186.800003
 20
59.200001
 30
0.0
 11
186.800003
 21
78.800003
 31
0.0
  0
LINE
  5
A6C9
330
A5B2
100
AcDbEntity
  8
1
  6
Continuous
100
AcDbLine
 10
186.800003
 20
59.200001
 30
0.0
 11
179.1999969999999
 21
59.200001
 31
0.0
  0
LINE
  5
A6CA
330
A5B2
100
AcDbEntity
  8
1
  6
Continuous
100
AcDbLine
 10
179.1999969999999
 20
59.200001
 30
0.0
 11
179.1999969999999
 21
78.800003
 31
0.0
  0
LINE
  5
A6CB
330
A5B2
100
AcDbEntity
  8
1
  6
Continuous
100
AcDbLine
 10
186.800003
 20
78.800003
 30
0.0
 11
179.1999969999999
 21
78.800003
 31
0.0
  0
LINE
  5
A6CC
330
A5B2
100
AcDbEntity
  8
1
  6
Continuous
100
AcDbLine
 10
172.0999969999999
 20
69.5
 30
0.0
 11
172.0999969999999
 21
72.0
 31
0.0
  0
LINE
  5
A6CD
330
A5B2
100
AcDbEntity
  8
1
  6
Continuous
100
AcDbLine
 10
186.800003
 20
65.0
 30
0.0
 11
179.1999969999999
 21
65.0
 31
0.0
  0
LINE
  5
A6CE
330
A5B2
100
AcDbEntity
  8
1
  6
Continuous
100
AcDbLine
 10
186.800003
 20
73.0
 30
0.0
 11
179.1999969999999
 21
73.0
 31
0.0
  0
LINE
  5
A6CF
330
A5B2
100
AcDbEntity
  8
1
  6
Continuous
100
AcDbLine
 10
186.5
 20
59.5
 30
0.0
 11
186.5
 21
65.0
 31
0.0
  0
LINE
  5
A6D0
330
A5B2
100
AcDbEntity
  8
1
  6
Continuous
100
AcDbLine
 10
183.8999939999999
 20
59.200001
 30
0.0
 11
183.8999939999999
 21
65.0
 31
0.0
  0
LINE
  5
A6D1
330
A5B2
100
AcDbEntity
  8
1
  6
Continuous
100
AcDbLine
 10
184.8999939999999
 20
78.5
 30
0.0
 11
180.800003
 21
78.5
 31
0.0
  0
LINE
  5
A6D2
330
A5B2
100
AcDbEntity
  8
1
  6
Continuous
100
AcDbLine
 10
186.5
 20
59.5
 30
0.0
 11
184.8999939999999
 21
59.5
 31
0.0
  0
LINE
  5
A6D3
330
A5B2
100
AcDbEntity
  8
1
  6
Continuous
100
AcDbLine
 10
184.8999939999999
 20
59.5
 30
0.0
 11
184.8999939999999
 21
65.0
 31
0.0
  0
LINE
  5
A6D4
330
A5B2
100
AcDbEntity
  8
1
  6
Continuous
100
AcDbLine
 10
180.800003
 20
59.200001
 30
0.0
 11
180.800003
 21
65.0
 31
0.0
  0
LINE
  5
A6D5
330
A5B2
100
AcDbEntity
  8
1
  6
Continuous
100
AcDbLine
 10
180.800003
 20
59.5
 30
0.0
 11
179.1999969999999
 21
59.5
 31
0.0
  0
LINE
  5
A6D6
330
A5B2
100
AcDbEntity
  8
1
  6
Continuous
100
AcDbLine
 10
184.8999939999999
 20
76.900002
 30
0.0
 11
180.800003
 21
76.900002
 31
0.0
  0
LINE
  5
A6D7
330
A5B2
100
AcDbEntity
  8
1
  6
Continuous
100
AcDbLine
 10
184.8999939999999
 20
73.0
 30
0.0
 11
184.8999939999999
 21
76.900002
 31
0.0
  0
LINE
  5
A6D8
330
A5B2
100
AcDbEntity
  8
1
  6
Continuous
100
AcDbLine
 10
186.5
 20
73.0
 30
0.0
 11
186.5
 21
76.900002
 31
0.0
  0
LINE
  5
A6D9
330
A5B2
100
AcDbEntity
  8
1
  6
Continuous
100
AcDbLine
 10
180.800003
 20
73.0
 30
0.0
 11
180.800003
 21
76.900002
 31
0.0
  0
LINE
  5
A6DA
330
A5B2
100
AcDbEntity
  8
1
  6
Continuous
100
AcDbLine
 10
183.8999939999999
 20
73.0
 30
0.0
 11
183.8999939999999
 21
76.900002
 31
0.0
  0
LINE
  5
A6DB
330
A5B2
100
AcDbEntity
  8
1
  6
Continuous
100
AcDbLine
 10
184.3000029999998
 20
59.200001
 30
0.0
 11
184.3000029999998
 21
65.0
 31
0.0
  0
LINE
  5
A6DC
330
A5B2
100
AcDbEntity
  8
1
  6
Continuous
100
AcDbLine
 10
183.8999939999999
 20
82.19999699999998
 30
0.0
 11
180.800003
 21
82.19999699999998
 31
0.0
  0
LINE
  5
A6DD
330
A5B2
100
AcDbEntity
  8
1
  6
Continuous
100
AcDbLine
 10
180.800003
 20
80.0
 30
0.0
 11
180.800003
 21
82.19999699999998
 31
0.0
  0
LINE
  5
A6DE
330
A5B2
100
AcDbEntity
  8
1
  6
Continuous
100
AcDbLine
 10
183.8999939999999
 20
80.0
 30
0.0
 11
183.8999939999999
 21
82.19999699999998
 31
0.0
  0
LINE
  5
A6DF
330
A5B2
100
AcDbEntity
  8
1
  6
Continuous
100
AcDbLine
 10
183.3999939999999
 20
80.69999699999998
 30
0.0
 11
181.3000029999997
 21
80.69999699999998
 31
0.0
  0
LINE
  5
A6E0
330
A5B2
100
AcDbEntity
  8
1
  6
Continuous
100
AcDbLine
 10
177.500006
 20
54.0
 30
0.0
 11
177.500006
 21
60.150002
 31
0.0
  0
LINE
  5
A6E1
330
A5B2
100
AcDbEntity
  8
1
  6
Continuous
100
AcDbLine
 10
174.699997
 20
54.0
 30
0.0
 11
174.699997
 21
56.259926
 31
0.0
  0
LINE
  5
A6E2
330
A5B2
100
AcDbEntity
  8
1
  6
Continuous
100
AcDbLine
 10
174.699997
 20
77.0
 30
0.0
 11
174.699997
 21
84.0
 31
0.0
  0
LINE
  5
A6E3
330
A5B2
100
AcDbEntity
  8
1
  6
Continuous
100
AcDbLine
 10
177.500006
 20
77.849998
 30
0.0
 11
177.500006
 21
84.0
 31
0.0
  0
LINE
  5
A6E4
330
A5B2
100
AcDbEntity
  8
1
  6
Continuous
100
AcDbLine
 10
452.8999879999998
 20
392.0
 30
0.0
 11
452.8999879999998
 21
394.5
 31
0.0
  0
LINE
  5
A6E5
330
A5B2
100
AcDbEntity
  8
4
  6
CENTER
 48
0.2
100
AcDbLine
 10
432.5
 20
415.100006
 30
0.0
 11
432.5
 21
428.0
 31
0.0
  0
LINE
  5
A6E6
330
A5B2
100
AcDbEntity
  8
1
  6
Continuous
100
AcDbLine
 10
451.399994
 20
407.9999999999998
 30
0.0
 11
451.6000059999998
 21
408.0
 31
0.0
  0
LINE
  5
A6E7
330
A5B2
100
AcDbEntity
  8
4
  6
CENTER
100
AcDbLine
 10
443.0
 20
164.0
 30
0.0
 11
443.0
 21
428.0
 31
0.0
  0
LINE
  5
A6E8
330
A5B2
100
AcDbEntity
  8
1
  6
Continuous
100
AcDbLine
 10
448.499994
 20
387.0
 30
0.0
 11
448.499994
 21
405.1
 31
0.0
  0
LINE
  5
A6E9
330
A5B2
100
AcDbEntity
  8
4
  6
CENTER
 48
0.2
100
AcDbLine
 10
427.8961179999998
 20
395.0
 30
0.0
 11
461.0286249999998
 21
395.0
 31
0.0
  0
LINE
  5
A6EA
330
A5B2
100
AcDbEntity
  8
1
  6
Continuous
100
AcDbLine
 10
451.3999879999998
 20
405.1000059999998
 30
0.0
 11
451.5999999999998
 21
405.1000059999998
 31
0.0
  0
LINE
  5
A6EB
330
A5B2
100
AcDbEntity
  8
1
  6
Continuous
100
AcDbLine
 10
436.5
 20
388.5
 30
0.0
 11
436.5
 21
401.4999999999998
 31
0.0
  0
LINE
  5
A6EC
330
A5B2
100
AcDbEntity
  8
1
  6
Continuous
100
AcDbLine
 10
454.4999999999998
 20
408.0000059999997
 30
0.0
 11
454.4999999999998
 21
420.1000059999998
 31
0.0
  0
LINE
  5
A6ED
330
A5B2
100
AcDbEntity
  8
4
  6
CENTER
 48
0.2
100
AcDbLine
 10
446.6000059999998
 20
414.0
 30
0.0
 11
459.649994
 21
414.0
 31
0.0
  0
LINE
  5
A6EE
330
A5B2
100
AcDbEntity
  8
1
  6
Continuous
100
AcDbLine
 10
424.5
 20
420.1000059999998
 30
0.0
 11
451.6000059999998
 21
420.1000059999998
 31
0.0
  0
LINE
  5
A6EF
330
A5B2
100
AcDbEntity
  8
1
  6
Continuous
100
AcDbLine
 10
424.5
 20
423.0
 30
0.0
 11
451.6000059999998
 21
423.0
 31
0.0
  0
LINE
  5
A6F0
330
A5B2
100
AcDbEntity
  8
1
  6
Continuous
100
AcDbLine
 10
424.5
 20
420.1000059999998
 30
0.0
 11
424.5
 21
423.0
 31
0.0
  0
LINE
  5
A6F1
330
A5B2
100
AcDbEntity
  8
1
  6
Continuous
100
AcDbLine
 10
446.7999879999998
 20
403.850006
 30
0.0
 11
448.399994
 21
403.850006
 31
0.0
  0
LINE
  5
A6F2
330
A5B2
100
AcDbEntity
  8
1
  6
Continuous
100
AcDbLine
 10
452.8999879999998
 20
395.5
 30
0.0
 11
452.1500179999998
 21
395.0
 31
0.0
  0
LINE
  5
A6F3
330
A5B2
100
AcDbEntity
  8
1
  6
Continuous
100
AcDbLine
 10
448.499994
 20
387.0
 30
0.0
 11
451.3999879999998
 21
387.0
 31
0.0
  0
LINE
  5
A6F4
330
A5B2
100
AcDbEntity
  8
1
  6
Continuous
100
AcDbLine
 10
452.8999879999998
 20
395.5
 30
0.0
 11
452.8999879999998
 21
398.0
 31
0.0
  0
LINE
  5
A6F5
330
A5B2
100
AcDbEntity
  8
1
  6
Continuous
100
AcDbLine
 10
451.3999879999998
 20
387.0
 30
0.0
 11
451.3999879999998
 21
405.1000059999998
 31
0.0
  0
LINE
  5
A6F6
330
A5B2
100
AcDbEntity
  8
1
  6
Continuous
100
AcDbLine
 10
437.5
 20
387.5
 30
0.0
 11
437.5
 21
402.5
 31
0.0
  0
LINE
  5
A6F7
330
A5B2
100
AcDbEntity
  8
1
  6
Continuous
100
AcDbLine
 10
446.7999879999998
 20
386.1499939999998
 30
0.0
 11
448.399994
 21
386.1499939999998
 31
0.0
  0
LINE
  5
A6F8
330
A5B2
100
AcDbEntity
  8
1
  6
Continuous
100
AcDbLine
 10
437.5
 20
402.5
 30
0.0
 11
439.5
 21
402.5
 31
0.0
  0
LINE
  5
A6F9
330
A5B2
100
AcDbEntity
  8
1
  6
Continuous
100
AcDbLine
 10
437.5
 20
387.5
 30
0.0
 11
439.5
 21
387.5
 31
0.0
  0
LINE
  5
A6FA
330
A5B2
100
AcDbEntity
  8
1
  6
Continuous
100
AcDbLine
 10
436.5
 20
401.4999999999998
 30
0.0
 11
437.5000309999999
 21
402.500031
 31
0.0
  0
LINE
  5
A6FB
330
A5B2
100
AcDbEntity
  8
1
  6
Continuous
100
AcDbLine
 10
439.5
 20
405.0
 30
0.0
 11
446.7999879999998
 21
405.0
 31
0.0
  0
LINE
  5
A6FC
330
A5B2
100
AcDbEntity
  8
1
  6
Continuous
100
AcDbLine
 10
436.5
 20
388.5
 30
0.0
 11
437.5
 21
387.5
 31
0.0
  0
LINE
  5
A6FD
330
A5B2
100
AcDbEntity
  8
1
  6
Continuous
100
AcDbLine
 10
451.3999879999998
 20
398.0
 30
0.0
 11
452.8999879999998
 21
398.0
 31
0.0
  0
LINE
  5
A6FE
330
A5B2
100
AcDbEntity
  8
1
  6
Continuous
100
AcDbLine
 10
451.3999879999998
 20
392.0
 30
0.0
 11
452.8999879999998
 21
392.0
 31
0.0
  0
LINE
  5
A6FF
330
A5B2
100
AcDbEntity
  8
1
  6
Continuous
100
AcDbLine
 10
452.1500179999998
 20
395.000031
 30
0.0
 11
452.8999879999998
 21
394.5000309999999
 31
0.0
  0
LINE
  5
A700
330
A5B2
100
AcDbEntity
  8
1
  6
Continuous
100
AcDbLine
 10
451.6000059999998
 20
408.0
 30
0.0
 11
451.6000059999998
 21
420.1000059999998
 31
0.0
  0
LINE
  5
A701
330
A5B2
100
AcDbEntity
  8
1
  6
Continuous
100
AcDbLine
 10
446.7999879999998
 20
323.0
 30
0.0
 11
446.7999879999998
 21
405.0
 31
0.0
  0
LINE
  5
A702
330
A5B2
100
AcDbEntity
  8
1
  6
Continuous
100
AcDbLine
 10
439.5
 20
323.0
 30
0.0
 11
439.5
 21
405.0
 31
0.0
  0
LINE
  5
A703
330
A5B2
100
AcDbEntity
  8
1
  6
Continuous
100
AcDbLine
 10
185.325684
 20
313.8335879999999
 30
0.0
 11
180.674316
 21
313.8335879999999
 31
0.0
  0
LINE
  5
A704
330
A5B2
100
AcDbEntity
  8
1
  6
Continuous
100
AcDbLine
 10
185.270203
 20
314.4994199999998
 30
0.0
 11
180.729797
 21
314.4994199999998
 31
0.0
  0
LINE
  5
A705
330
A5B2
100
AcDbEntity
  8
1
  6
Continuous
100
AcDbLine
 10
180.927383
 20
315.1666259999998
 30
0.0
 11
182.2008669999999
 21
315.1666259999998
 31
0.0
  0
LINE
  5
A706
330
A5B2
100
AcDbEntity
  8
1
  6
Continuous
100
AcDbLine
 10
184.731583
 20
315.833801
 30
0.0
 11
181.2684169999999
 21
315.833801
 31
0.0
  0
LINE
  5
A707
330
A5B2
100
AcDbEntity
  8
1
  6
Continuous
100
AcDbLine
 10
183.0006709999999
 20
313.8335879999999
 30
0.0
 11
183.0006709999999
 21
314.4994199999998
 31
0.0
  0
LINE
  5
A708
330
A5B2
100
AcDbEntity
  8
1
  6
Continuous
100
AcDbLine
 10
183.800491
 20
315.1666259999998
 30
0.0
 11
185.0726169999999
 21
315.1666259999998
 31
0.0
  0
LINE
  5
A709
330
A5B2
100
AcDbEntity
  8
1
  6
Continuous
100
AcDbLine
 10
184.6449739999999
 20
316.4996339999999
 30
0.0
 11
181.356384
 21
316.4996339999999
 31
0.0
  0
LINE
  5
A70A
330
A5B2
100
AcDbEntity
  8
1
  6
Continuous
100
AcDbLine
 10
181.7705079999998
 20
317.1668399999998
 30
0.0
 11
184.229492
 21
317.1668399999998
 31
0.0
  0
LINE
  5
A70B
330
A5B2
100
AcDbEntity
  8
1
  6
Continuous
100
AcDbLine
 10
184.8290249999998
 20
317.832672
 30
0.0
 11
181.9545589999999
 21
317.832672
 31
0.0
  0
LINE
  5
A70C
330
A5B2
100
AcDbEntity
  8
1
  6
Continuous
100
AcDbLine
 10
185.191711
 20
311.1675419999999
 30
0.0
 11
181.018051
 21
311.1675419999999
 31
0.0
  0
LINE
  5
A70D
330
A5B2
100
AcDbEntity
  8
1
  6
Continuous
100
AcDbLine
 10
181.1181949999999
 20
311.8333740000001
 30
0.0
 11
183.0006709999999
 21
311.8333740000001
 31
0.0
  0
LINE
  5
A70E
330
A5B2
100
AcDbEntity
  8
1
  6
Continuous
100
AcDbLine
 10
185.1944119999997
 20
312.5005799999998
 30
0.0
 11
180.8055879999997
 21
312.5005799999998
 31
0.0
  0
LINE
  5
A70F
330
A5B2
100
AcDbEntity
  8
1
  6
Continuous
100
AcDbLine
 10
185.325684
 20
313.1664119999998
 30
0.0
 11
180.674316
 21
313.1664119999998
 31
0.0
  0
LINE
  5
A710
330
A5B2
100
AcDbEntity
  8
1
  6
Continuous
100
AcDbLine
 10
183.0006709999999
 20
307.782867
 30
0.0
 11
183.0006709999999
 21
309.1605529999998
 31
0.0
  0
LINE
  5
A711
330
A5B2
100
AcDbEntity
  8
1
  6
Continuous
100
AcDbLine
 10
181.7529139999997
 20
309.494843
 30
0.0
 11
184.562424
 21
308.7410279999998
 31
0.0
  0
LINE
  5
A712
330
A5B2
100
AcDbEntity
  8
1
  6
Continuous
100
AcDbLine
 10
183.0006709999999
 20
310.1674499999998
 30
0.0
 11
181.401047
 21
310.1674499999998
 31
0.0
  0
LINE
  5
A713
330
A5B2
100
AcDbEntity
  8
1
  6
Continuous
100
AcDbLine
 10
183.333603
 20
309.83316
 30
0.0
 11
184.757294
 21
309.83316
 31
0.0
  0
LINE
  5
A714
330
A5B2
100
AcDbEntity
  8
1
  6
Continuous
100
AcDbLine
 10
184.8777469999999
 20
310.5003659999998
 30
0.0
 11
183.333603
 21
310.5003659999998
 31
0.0
  0
LINE
  5
A715
330
A5B2
100
AcDbEntity
  8
1
  6
Continuous
100
AcDbLine
 10
183.0006709999999
 20
311.8333740000001
 30
0.0
 11
183.0006709999999
 21
312.16629
 31
0.0
  0
LINE
  5
A716
330
A5B2
100
AcDbEntity
  8
1
  6
Continuous
100
AcDbLine
 10
183.800491
 20
311.8333740000001
 30
0.0
 11
184.881805
 21
311.8333740000001
 31
0.0
  0
LINE
  5
A717
330
A5B2
100
AcDbEntity
  8
1
  6
Continuous
100
AcDbLine
 10
441.1000059999998
 20
323.0
 30
0.0
 11
441.1000059999998
 21
405.0
 31
0.0
  0
LINE
  5
A718
330
A5B2
100
AcDbEntity
  8
1
  6
Continuous
100
AcDbLine
 10
445.200012
 20
323.0
 30
0.0
 11
445.200012
 21
405.0
 31
0.0
  0
LINE
  5
A719
330
A5B2
100
AcDbEntity
  8
1
  6
Continuous
100
AcDbLine
 10
56.19804
 20
173.0
 30
0.0
 11
64.0
 21
173.0
 31
0.0
  0
LINE
  5
A71A
330
A5B2
100
AcDbEntity
  8
4
  6
CENTER
 48
0.2
100
AcDbLine
 10
432.0
 20
299.0
 30
0.0
 11
454.0
 21
299.0
 31
0.0
  0
CIRCLE
  5
A71B
330
A5B2
100
AcDbEntity
  8
1
  6
Continuous
100
AcDbCircle
 10
192.300003
 20
175.0
 30
0.0
 40
2.649999999999999
  0
CIRCLE
  5
A71C
330
A5B2
100
AcDbEntity
  8
1
  6
Continuous
100
AcDbCircle
 10
192.300003
 20
193.0
 30
0.0
 40
2.649999999999999
  0
CIRCLE
  5
A71E
330
A5B2
100
AcDbEntity
  8
1
  6
Continuous
100
AcDbCircle
 10
313.0
 20
184.0
 30
0.0
 40
7.5
  0
CIRCLE
  5
A71F
330
A5B2
100
AcDbEntity
  8
1
  6
Continuous
100
AcDbCircle
 10
313.0
 20
184.0
 30
0.0
 40
6.5
  0
ARC
  5
A720
330
A5B2
100
AcDbEntity
  8
1
  6
Continuous
100
AcDbCircle
 10
320.0
 20
184.0
 30
0.0
 40
15.0
100
AcDbArc
 50
227.1665769999999
 51
269.9999969999999
  0
CIRCLE
  5
A721
330
A5B2
100
AcDbEntity
  8
1
  6
Continuous
100
AcDbCircle
 10
332.0
 20
175.0
 30
0.0
 40
2.649999999999999
  0
CIRCLE
  5
A722
330
A5B2
100
AcDbEntity
  8
1
  6
Continuous
100
AcDbCircle
 10
332.0
 20
193.0
 30
0.0
 40
2.649999999999999
  0
ARC
  5
A723
330
A5B2
100
AcDbEntity
  8
1
  6
Continuous
100
AcDbCircle
 10
313.0
 20
402.0
 30
0.0
 40
15.0
100
AcDbArc
 50
179.9999909999999
 51
230.703518
  0
ARC
  5
A724
330
A5B2
100
AcDbEntity
  8
1
  6
Continuous
100
AcDbCircle
 10
313.0
 20
402.0
 30
0.0
 40
15.0
100
AcDbArc
 50
309.2964799999998
 51
0.0
  0
CIRCLE
  5
A725
330
A5B2
100
AcDbEntity
  8
1
  6
Continuous
100
AcDbCircle
 10
313.0
 20
395.0
 30
0.0
 40
6.5
  0
CIRCLE
  5
A726
330
A5B2
100
AcDbEntity
  8
1
  6
Continuous
100
AcDbCircle
 10
313.0
 20
395.0
 30
0.0
 40
7.5
  0
CIRCLE
  5
A727
330
A5B2
100
AcDbEntity
  8
1
  6
Continuous
100
AcDbCircle
 10
322.0
 20
414.0
 30
0.0
 40
2.649999999999999
  0
CIRCLE
  5
A728
330
A5B2
100
AcDbEntity
  8
1
  6
Continuous
100
AcDbCircle
 10
304.0
 20
414.0
 30
0.0
 40
2.649999999999999
  0
ARC
  5
A729
330
A5B2
100
AcDbEntity
  8
1
  6
Continuous
100
AcDbCircle
 10
46.0
 20
184.0
 30
0.0
 40
15.0
100
AcDbArc
 50
269.9999969999999
 51
90.00000300000001
  0
CIRCLE
  5
A72A
330
A5B2
100
AcDbEntity
  8
1
  6
Continuous
100
AcDbCircle
 10
34.0
 20
193.0
 30
0.0
 40
2.649999999999999
  0
CIRCLE
  5
A72B
330
A5B2
100
AcDbEntity
  8
1
  6
Continuous
100
AcDbCircle
 10
34.0
 20
175.0
 30
0.0
 40
2.649999999999999
  0
ARC
  5
A72D
330
A5B2
100
AcDbEntity
  8
1
  6
Continuous
100
AcDbCircle
 10
174.3999939999999
 20
420.1000059999998
 30
0.0
 40
2.9
100
AcDbArc
 50
90.00000300000001
 51
180.000005
  0
CIRCLE
  5
A72E
330
A5B2
100
AcDbEntity
  8
1
  6
Continuous
100
AcDbCircle
 10
53.0
 20
184.0
 30
0.0
 40
3.0
  0
CIRCLE
  5
A72F
330
A5B2
100
AcDbEntity
  8
1
  6
Continuous
100
AcDbCircle
 10
53.0
 20
184.0
 30
0.0
 40
3.25
  0
CIRCLE
  5
A730
330
A5B2
100
AcDbEntity
  8
1
  6
Continuous
100
AcDbCircle
 10
53.0
 20
395.0
 30
0.0
 40
3.0
  0
CIRCLE
  5
A731
330
A5B2
100
AcDbEntity
  8
1
  6
Continuous
100
AcDbCircle
 10
53.0
 20
395.0
 30
0.0
 40
3.25
  0
ARC
  5
A732
330
A5B2
100
AcDbEntity
  8
1
  6
Continuous
100
AcDbCircle
 10
53.0
 20
402.0
 30
0.0
 40
15.0
100
AcDbArc
 50
179.9999909999999
 51
0.00001
  0
CIRCLE
  5
A733
330
A5B2
100
AcDbEntity
  8
1
  6
Continuous
100
AcDbCircle
 10
62.0
 20
414.0
 30
0.0
 40
2.649999999999999
  0
CIRCLE
  5
A734
330
A5B2
100
AcDbEntity
  8
1
  6
Continuous
100
AcDbCircle
 10
44.0
 20
414.0
 30
0.0
 40
2.649999999999999
  0
CIRCLE
  5
A735
330
A5B2
100
AcDbEntity
  8
1
  6
Continuous
100
AcDbCircle
 10
193.5
 20
496.0
 30
0.0
 40
2.649999999999999
  0
CIRCLE
  5
A736
330
A5B2
100
AcDbEntity
  8
1
  6
Continuous
100
AcDbCircle
 10
193.5
 20
514.0
 30
0.0
 40
2.649999999999999
  0
ARC
  5
A737
330
A5B2
100
AcDbEntity
  8
1
  6
Continuous
100
AcDbCircle
 10
173.1999969999999
 20
518.0
 30
0.0
 40
2.9
100
AcDbArc
 50
179.9999909999999
 51
234.111701
  0
ARC
  5
A738
330
A5B2
100
AcDbEntity
  8
1
  6
Continuous
100
AcDbCircle
 10
173.1999969999999
 20
530.0999759999998
 30
0.0
 40
2.9
100
AcDbArc
 50
90.00000300000001
 51
180.000005
  0
ARC
  5
A739
330
A5B2
100
AcDbEntity
  8
1
  6
Continuous
100
AcDbCircle
 10
173.3999999999999
 20
58.9
 30
0.0
 40
2.9
100
AcDbArc
 50
269.9999969999999
 51
0.0
  0
ARC
  5
A73A
330
A5B2
100
AcDbEntity
  8
1
  6
Continuous
100
AcDbCircle
 10
173.1999969999999
 20
56.0
 30
0.0
 40
2.9
100
AcDbArc
 50
90.00000300000001
 51
180.000005
  0
ARC
  5
A73B
330
A5B2
100
AcDbEntity
  8
1
  6
Continuous
100
AcDbCircle
 10
173.1999969999999
 20
43.900002
 30
0.0
 40
2.9
100
AcDbArc
 50
179.9999909999999
 51
270.000001
  0
CIRCLE
  5
A73C
330
A5B2
100
AcDbEntity
  8
1
  6
Continuous
100
AcDbCircle
 10
193.5
 20
60.0
 30
0.0
 40
2.649999999999999
  0
CIRCLE
  5
A73D
330
A5B2
100
AcDbEntity
  8
1
  6
Continuous
100
AcDbCircle
 10
193.5
 20
78.0
 30
0.0
 40
2.649999999999999
  0
CIRCLE
  5
A73E
330
A5B2
100
AcDbEntity
  8
1
  6
Continuous
100
AcDbCircle
 10
433.7000119999998
 20
193.0
 30
0.0
 40
2.649999999999999
  0
CIRCLE
  5
A73F
330
A5B2
100
AcDbEntity
  8
1
  6
Continuous
100
AcDbCircle
 10
433.7000119999998
 20
175.0
 30
0.0
 40
2.649999999999999
  0
ARC
  5
A740
330
A5B2
100
AcDbEntity
  8
1
  6
Continuous
100
AcDbCircle
 10
183.3999939999999
 20
280.0
 30
0.0
 40
1.0
100
AcDbArc
 50
269.9999969999999
 51
0.0
  0
ARC
  5
A741
330
A5B2
100
AcDbEntity
  8
1
  6
Continuous
100
AcDbCircle
 10
181.6999969999999
 20
280.0
 30
0.0
 40
1.0
100
AcDbArc
 50
179.9999909999999
 51
270.000001
  0
ARC
  5
A742
330
A5B2
100
AcDbEntity
  8
1
  6
Continuous
100
AcDbCircle
 10
181.6999969999999
 20
303.0
 30
0.0
 40
1.0
100
AcDbArc
 50
90.00000300000001
 51
180.000005
  0
ARC
  5
A743
330
A5B2
100
AcDbEntity
  8
1
  6
Continuous
100
AcDbCircle
 10
183.3999939999999
 20
303.0
 30
0.0
 40
1.0
100
AcDbArc
 50
0.0
 51
90.00000300000001
  0
ARC
  5
A744
330
A5B2
100
AcDbEntity
  8
1
  6
Continuous
100
AcDbCircle
 10
176.300003
 20
295.5
 30
0.0
 40
8.0
100
AcDbArc
 50
341.805127
 51
18.194873
  0
ARC
  5
A745
330
A5B2
100
AcDbEntity
  8
1
  6
Continuous
100
AcDbCircle
 10
183.3999939999999
 20
285.5
 30
0.0
 40
0.5
100
AcDbArc
 50
269.9999969999999
 51
0.0
  0
ARC
  5
A746
330
A5B2
100
AcDbEntity
  8
1
  6
Continuous
100
AcDbCircle
 10
181.199997
 20
285.5
 30
0.0
 40
0.5
100
AcDbArc
 50
179.9999909999999
 51
270.000001
  0
ARC
  5
A747
330
A5B2
100
AcDbEntity
  8
1
  6
Continuous
100
AcDbCircle
 10
183.3999939999999
 20
288.2999879999998
 30
0.0
 40
0.5
100
AcDbArc
 50
269.9999969999999
 51
0.0
  0
ARC
  5
A748
330
A5B2
100
AcDbEntity
  8
1
  6
Continuous
100
AcDbCircle
 10
181.199997
 20
288.2999879999998
 30
0.0
 40
0.5
100
AcDbArc
 50
179.9999909999999
 51
270.000001
  0
ARC
  5
A749
330
A5B2
100
AcDbEntity
  8
5
  6
PHANTOM
 48
0.1
100
AcDbCircle
 10
181.6999969999999
 20
295.0
 30
0.0
 40
1.0
100
AcDbArc
 50
179.9999909999999
 51
270.000001
  0
ARC
  5
A74A
330
A5B2
100
AcDbEntity
  8
5
  6
PHANTOM
 48
0.1
100
AcDbCircle
 10
183.3999939999999
 20
294.4999999999998
 30
0.0
 40
0.5
100
AcDbArc
 50
269.9999969999999
 51
0.0
  0
ARC
  5
A74B
330
A5B2
100
AcDbEntity
  8
1
  6
Continuous
100
AcDbCircle
 10
301.2999879999998
 20
289.2999879999998
 30
0.0
 40
1.5
100
AcDbArc
 50
157.0501189999999
 51
270.000001
  0
ARC
  5
A74C
330
A5B2
100
AcDbEntity
  8
5
  6
PHANTOM
 48
0.1
100
AcDbCircle
 10
297.5
 20
295.5
 30
0.0
 40
1.5
100
AcDbArc
 50
115.765464
 51
270.000001
  0
ARC
  5
A74D
330
A5B2
100
AcDbEntity
  8
5
  6
PHANTOM
 48
0.1
100
AcDbCircle
 10
297.5
 20
302.4999999999999
 30
0.0
 40
1.5
100
AcDbArc
 50
90.00000300000001
 51
244.234533
  0
ARC
  5
A74E
330
A5B2
100
AcDbEntity
  8
5
  6
PHANTOM
 48
0.1
100
AcDbCircle
 10
299.0
 20
299.0
 30
0.0
 40
1.0
100
AcDbArc
 50
295.765465
 51
64.23453499999999
  0
ARC
  5
A74F
330
A5B2
100
AcDbEntity
  8
1
  6
Continuous
100
AcDbCircle
 10
64.69999699999999
 20
289.2999879999998
 30
0.0
 40
1.5
100
AcDbArc
 50
269.9999969999999
 51
22.949888
  0
ARC
  5
A750
330
A5B2
100
AcDbEntity
  8
5
  6
PHANTOM
 48
0.1
100
AcDbCircle
 10
67.0
 20
299.0
 30
0.0
 40
1.0
100
AcDbArc
 50
115.765464
 51
244.234533
  0
ARC
  5
A751
330
A5B2
100
AcDbEntity
  8
5
  6
PHANTOM
 48
0.1
100
AcDbCircle
 10
68.5
 20
302.4999999999999
 30
0.0
 40
1.5
100
AcDbArc
 50
295.765479
 51
90.00000300000001
  0
ARC
  5
A752
330
A5B2
100
AcDbEntity
  8
5
  6
PHANTOM
 48
0.1
100
AcDbCircle
 10
68.5
 20
295.5
 30
0.0
 40
1.5
100
AcDbArc
 50
269.9999969999999
 51
64.23452799999999
  0
ARC
  5
A753
330
A5B2
100
AcDbEntity
  8
1
  6
Continuous
100
AcDbCircle
 10
186.800003
 20
59.200001
 30
0.0
 40
1.199999999999999
100
AcDbArc
 50
269.9999969999999
 51
0.0
  0
ARC
  5
A754
330
A5B2
100
AcDbEntity
  8
1
  6
Continuous
100
AcDbCircle
 10
186.800003
 20
78.800003
 30
0.0
 40
1.199999999999999
100
AcDbArc
 50
0.0
 51
90.00000300000001
  0
ARC
  5
A755
330
A5B2
100
AcDbEntity
  8
1
  6
Continuous
100
AcDbCircle
 10
179.1999969999999
 20
78.800003
 30
0.0
 40
1.199999999999999
100
AcDbArc
 50
90.00000300000001
 51
180.000005
  0
ARC
  5
A756
330
A5B2
100
AcDbEntity
  8
1
  6
Continuous
100
AcDbCircle
 10
179.1999969999999
 20
59.200001
 30
0.0
 40
1.199999999999999
100
AcDbArc
 50
179.9999909999999
 51
270.000001
  0
ARC
  5
A757
330
A5B2
100
AcDbEntity
  8
1
  6
Continuous
100
AcDbCircle
 10
184.8999939999999
 20
76.900002
 30
0.0
 40
1.6
100
AcDbArc
 50
0.0
 51
90.00000300000001
  0
ARC
  5
A758
330
A5B2
100
AcDbEntity
  8
1
  6
Continuous
100
AcDbCircle
 10
180.800003
 20
76.900002
 30
0.0
 40
1.6
100
AcDbArc
 50
90.00000300000001
 51
180.000005
  0
ARC
  5
A759
330
A5B2
100
AcDbEntity
  8
1
  6
Continuous
100
AcDbCircle
 10
176.300003
 20
295.5
 30
0.0
 40
8.099999999999997
100
AcDbArc
 50
339.7632919999998
 51
20.236708
  0
ARC
  5
A75C
330
A5B2
100
AcDbEntity
  8
1
  6
Continuous
100
AcDbCircle
 10
451.6000059999998
 20
420.1000059999998
 30
0.0
 40
2.9
100
AcDbArc
 50
0.0
 51
90.00000300000001
  0
ARC
  5
A75D
330
A5B2
100
AcDbEntity
  8
1
  6
Continuous
100
AcDbCircle
 10
188.5993799999999
 20
313.500671
 30
0.0
 40
7.932788
100
AcDbArc
 50
153.986
 51
157.0559929999998
  0
ARC
  5
A75E
330
A5B2
100
AcDbEntity
  8
1
  6
Continuous
100
AcDbCircle
 10
181.356384
 20
316.5659479999998
 30
0.0
 40
0.066678
100
AcDbArc
 50
157.0559929999998
 51
270.000001
  0
ARC
  5
A75F
330
A5B2
100
AcDbEntity
  8
1
  6
Continuous
100
AcDbCircle
 10
180.927383
 20
315.232941
 30
0.0
 40
0.066678
100
AcDbArc
 50
167.2709909999998
 51
270.000001
  0
ARC
  5
A760
330
A5B2
100
AcDbEntity
  8
1
  6
Continuous
100
AcDbCircle
 10
188.5993799999999
 20
313.500671
 30
0.0
 40
7.932788
100
AcDbArc
 50
164.7939959999999
 51
167.2709909999998
  0
ARC
  5
A761
330
A5B2
100
AcDbEntity
  8
1
  6
Continuous
100
AcDbCircle
 10
188.5993799999999
 20
313.500671
 30
0.0
 40
7.932788
100
AcDbArc
 50
164.7419909999999
 51
164.7939959999999
  0
ARC
  5
A762
330
A5B2
100
AcDbEntity
  8
1
  6
Continuous
100
AcDbCircle
 10
181.2684169999999
 20
315.499542
 30
0.0
 40
0.333392
100
AcDbArc
 50
90.00000300000001
 51
164.7419909999999
  0
ARC
  5
A763
330
A5B2
100
AcDbEntity
  8
1
  6
Continuous
100
AcDbCircle
 10
184.731583
 20
315.499542
 30
0.0
 40
0.333392
100
AcDbArc
 50
15.25749699999999
 51
90.00000300000001
  0
ARC
  5
A764
330
A5B2
100
AcDbEntity
  8
1
  6
Continuous
100
AcDbCircle
 10
177.40062
 20
313.500671
 30
0.0
 40
7.932788
100
AcDbArc
 50
13.26810299999998
 51
15.25749699999999
  0
ARC
  5
A765
330
A5B2
100
AcDbEntity
  8
1
  6
Continuous
100
AcDbCircle
 10
177.40062
 20
313.500671
 30
0.0
 40
7.932788
100
AcDbArc
 50
12.7289
 51
13.26810299999998
  0
ARC
  5
A766
330
A5B2
100
AcDbEntity
  8
1
  6
Continuous
100
AcDbCircle
 10
185.0726169999999
 20
315.232941
 30
0.0
 40
0.066678
100
AcDbArc
 50
269.9999969999999
 51
12.7289
  0
ARC
  5
A767
330
A5B2
100
AcDbEntity
  8
1
  6
Continuous
100
AcDbCircle
 10
181.7705079999998
 20
316.83255
 30
0.0
 40
0.333392
100
AcDbArc
 50
90.00000300000001
 51
153.986
  0
ARC
  5
A768
330
A5B2
100
AcDbEntity
  8
1
  6
Continuous
100
AcDbCircle
 10
184.6449739999999
 20
316.5659479999998
 30
0.0
 40
0.066678
100
AcDbArc
 50
269.9999969999999
 51
22.94399999999999
  0
ARC
  5
A769
330
A5B2
100
AcDbEntity
  8
1
  6
Continuous
100
AcDbCircle
 10
177.40062
 20
313.500671
 30
0.0
 40
7.932788
100
AcDbArc
 50
22.94399999999999
 51
26.01439599999999
  0
ARC
  5
A76A
330
A5B2
100
AcDbEntity
  8
1
  6
Continuous
100
AcDbCircle
 10
184.229492
 20
316.83255
 30
0.0
 40
0.333392
100
AcDbArc
 50
26.01439599999999
 51
90.00000300000001
  0
ARC
  5
A76B
330
A5B2
100
AcDbEntity
  8
1
  6
Continuous
100
AcDbCircle
 10
183.0006709999999
 20
317.4997559999998
 30
0.0
 40
1.717978999999997
100
AcDbArc
 50
90.00000300000001
 51
144.4620119999999
  0
ARC
  5
A76C
330
A5B2
100
AcDbEntity
  8
1
  6
Continuous
100
AcDbCircle
 10
183.0006709999999
 20
317.4997559999998
 30
0.0
 40
1.717978999999997
100
AcDbArc
 50
35.537703
 51
76.53739899999997
  0
ARC
  5
A76D
330
A5B2
100
AcDbEntity
  8
1
  6
Continuous
100
AcDbCircle
 10
188.5993799999999
 20
313.500671
 30
0.0
 40
7.932788
100
AcDbArc
 50
187.792995
 51
190.104003
  0
ARC
  5
A76E
330
A5B2
100
AcDbEntity
  8
1
  6
Continuous
100
AcDbCircle
 10
180.8055879999997
 20
312.4328919999998
 30
0.0
 40
0.066678
100
AcDbArc
 50
90.00000300000001
 51
187.7930049999999
  0
ARC
  5
A76F
330
A5B2
100
AcDbEntity
  8
1
  6
Continuous
100
AcDbCircle
 10
181.1181949999999
 20
312.16629
 30
0.0
 40
0.333392
100
AcDbArc
 50
190.104003
 51
269.9999969999999
  0
ARC
  5
A770
330
A5B2
100
AcDbEntity
  8
1
  6
Continuous
100
AcDbCircle
 10
185.1944119999997
 20
312.4328919999998
 30
0.0
 40
0.066678
100
AcDbArc
 50
352.207003
 51
90.00000300000001
  0
ARC
  5
A771
330
A5B2
100
AcDbEntity
  8
1
  6
Continuous
100
AcDbCircle
 10
177.40062
 20
313.500671
 30
0.0
 40
7.932788
100
AcDbArc
 50
349.8960009999998
 51
352.207003
  0
ARC
  5
A772
330
A5B2
100
AcDbEntity
  8
1
  6
Continuous
100
AcDbCircle
 10
184.881805
 20
312.16629
 30
0.0
 40
0.333392
100
AcDbArc
 50
269.9999969999999
 51
349.8960009999998
  0
ARC
  5
A773
330
A5B2
100
AcDbEntity
  8
1
  6
Continuous
100
AcDbCircle
 10
183.0006709999999
 20
309.500244
 30
0.0
 40
1.717978999999997
100
AcDbArc
 50
215.5380019999999
 51
225.6990009999999
  0
ARC
  5
A774
330
A5B2
100
AcDbEntity
  8
1
  6
Continuous
100
AcDbCircle
 10
183.0006709999999
 20
309.500244
 30
0.0
 40
1.717978999999997
100
AcDbArc
 50
242.2499979999999
 51
324.4619999999998
  0
ARC
  5
A775
330
A5B2
100
AcDbEntity
  8
1
  6
Continuous
100
AcDbCircle
 10
183.333603
 20
310.1674499999998
 30
0.0
 40
0.333392
100
AcDbArc
 50
90.00000300000001
 51
270.000001
  0
ARC
  5
A776
330
A5B2
100
AcDbEntity
  8
1
  6
Continuous
100
AcDbCircle
 10
177.40062
 20
313.500671
 30
0.0
 40
8.599396
100
AcDbArc
 50
324.4619999999998
 51
35.537703
  0
ARC
  5
A777
330
A5B2
100
AcDbEntity
  8
1
  6
Continuous
100
AcDbCircle
 10
188.5993799999999
 20
313.500671
 30
0.0
 40
8.599396
100
AcDbArc
 50
144.461998
 51
215.5379979999999
  0
ARC
  5
A778
330
A5B2
100
AcDbEntity
  8
1
  6
Continuous
100
AcDbCircle
 10
45.75
 20
317.0
 30
0.0
 40
4.25
100
AcDbArc
 50
151.9275179999999
 51
208.0724919999999
  0
ARC
  5
A779
330
A5B2
100
AcDbEntity
  8
1
  6
Continuous
100
AcDbCircle
 10
45.75
 20
307.0
 30
0.0
 40
4.25
100
AcDbArc
 50
151.9275179999999
 51
208.0724919999999
  0
ARC
  5
A77A
330
A5B2
100
AcDbEntity
  8
1
  6
Continuous
100
AcDbCircle
 10
320.25
 20
317.0
 30
0.0
 40
4.25
100
AcDbArc
 50
331.9275129999998
 51
28.072487
  0
ARC
  5
A77B
330
A5B2
100
AcDbEntity
  8
1
  6
Continuous
100
AcDbCircle
 10
320.25
 20
307.0
 30
0.0
 40
4.25
100
AcDbArc
 50
331.9275129999998
 51
28.072487
  0
CIRCLE
  5
A77C
330
A5B2
100
AcDbEntity
  8
1
  6
Continuous
100
AcDbCircle
 10
443.0
 20
317.0
 30
0.0
 40
2.0
  0
CIRCLE
  5
A77D
330
A5B2
100
AcDbEntity
  8
1
  6
Continuous
100
AcDbCircle
 10
443.0
 20
307.0
 30
0.0
 40
2.0
  0
ARC
  5
A77E
330
A5B2
100
AcDbEntity
  8
1
  6
Continuous
100
AcDbCircle
 10
53.0
 20
395.0
 30
0.0
 40
8.849999999999997
100
AcDbArc
 50
232.032294
 51
307.9677109999999
  0
TEXT
  5
A77F
330
A5B2
100
AcDbEntity
  8
6
  6
Continuous
100
AcDbText
 10
27.97945
 20
10.0487
 30
0.0
 40
1.399999999999999
  1
6
 41
1.069393
100
AcDbText
  0
TEXT
  5
A780
330
A5B2
100
AcDbEntity
  8
1
  6
Continuous
100
AcDbText
 10
17.97945
 20
10.0487
 30
0.0
 40
1.399999999999999
  1
1
 41
1.069393
100
AcDbText
  0
TEXT
  5
A781
330
A5B2
100
AcDbEntity
  8
1
  6
Continuous
100
AcDbText
 10
9.99995
 20
10.0
 30
0.0
 40
1.399999999999999
  1
LAYER
 41
1.009912999999996
100
AcDbText
  0
TEXT
  5
A782
330
A5B2
100
AcDbEntity
  8
2
  6
Continuous
100
AcDbText
 10
19.97944999999998
 20
10.0487
 30
0.0
 40
1.399999999999999
  1
2
 41
1.069393
100
AcDbText
  0
TEXT
  5
A783
330
A5B2
100
AcDbEntity
  8
3
  6
DASHED
100
AcDbText
 10
21.97945
 20
10.0487
 30
0.0
 40
1.399999999999999
  1
3
 41
1.069393
100
AcDbText
  0
TEXT
  5
A784
330
A5B2
100
AcDbEntity
  8
4
  6
CENTER
100
AcDbText
 10
23.97944999999999
 20
10.0487
 30
0.0
 40
1.399999999999999
  1
4
 41
1.069393
100
AcDbText
  0
TEXT
  5
A785
330
A5B2
100
AcDbEntity
  8
5
  6
PHANTOM
100
AcDbText
 10
25.97945
 20
10.0487
 30
0.0
 40
1.399999999999999
  1
5
 41
1.069393
100
AcDbText
  0
TEXT
  5
A786
330
A5B2
100
AcDbEntity
  8
7
  6
Continuous
100
AcDbText
 10
10.00005
 20
26.0
 30
0.0
 40
3.0
  1
CODE No.5077
 41
1.003962999999999
100
AcDbText
  0
TEXT
  5
A787
330
A5B2
100
AcDbEntity
  8
7
  6
Continuous
100
AcDbText
 10
10.00005
 20
18.0
 30
0.0
 40
3.0
  1
TYPE No.TM-70B-2R
 41
1.002774
100
AcDbText
  0
TEXT
  5
A788
330
A5B2
100
AcDbEntity
  8
7
  6
Continuous
100
AcDbText
 10
29.97944999999999
 20
10.0487
 30
0.0
 40
1.399999999999999
  1
7
 41
1.069393
100
AcDbText
  0
LINE
  5
A789
330
A5B2
100
AcDbEntity
  8
1
  6
Continuous
100
AcDbLine
 10
338.100006
 20
187.0
 30
0.0
 11
332.999994
 21
187.0
 31
0.0
  0
LINE
  5
A78A
330
A5B2
100
AcDbEntity
  8
1
  6
Continuous
100
AcDbLine
 10
338.100006
 20
181.0
 30
0.0
 11
332.999994
 21
181.0
 31
0.0
  0
LINE
  5
A78B
330
A5B2
100
AcDbEntity
  8
1
  6
Continuous
100
AcDbLine
 10
337.0000059999998
 20
182.0
 30
0.0
 11
337.0000059999998
 21
186.0
 31
0.0
  0
LINE
  5
A78C
330
A5B2
100
AcDbEntity
  8
1
  6
Continuous
100
AcDbLine
 10
316.0
 20
415.0000239999998
 30
0.0
 11
316.0
 21
420.099976
 31
0.0
  0
LINE
  5
A78D
330
A5B2
100
AcDbEntity
  8
1
  6
Continuous
100
AcDbLine
 10
310.0
 20
415.0000239999998
 30
0.0
 11
310.0
 21
420.099976
 31
0.0
  0
LINE
  5
A78E
330
A5B2
100
AcDbEntity
  8
1
  6
Continuous
100
AcDbLine
 10
315.0
 20
418.999976
 30
0.0
 11
311.0
 21
418.999976
 31
0.0
  0
LINE
  5
A78F
330
A5B2
100
AcDbEntity
  8
1
  6
Continuous
100
AcDbLine
 10
26.1
 20
182.0
 30
0.0
 11
26.1
 21
186.0
 31
0.0
  0
LINE
  5
A790
330
A5B2
100
AcDbEntity
  8
1
  6
Continuous
100
AcDbLine
 10
51.0
 20
421.8999999999998
 30
0.0
 11
55.0
 21
421.8999999999998
 31
0.0
  0
LINE
  5
A791
330
A5B2
100
AcDbEntity
  8
1
  6
Continuous
100
AcDbLine
 10
172.5999999999999
 20
503.0
 30
0.0
 11
172.5999999999999
 21
507.0
 31
0.0
  0
LINE
  5
A792
330
A5B2
100
AcDbEntity
  8
1
  6
Continuous
100
AcDbLine
 10
180.299994
 20
45.000002
 30
0.0
 11
174.2999969999999
 21
45.000002
 31
0.0
  0
LINE
  5
A793
330
A5B2
100
AcDbEntity
  8
1
  6
Continuous
100
AcDbLine
 10
174.2999969999999
 20
50.99999799999999
 30
0.0
 11
174.2999969999999
 21
45.000002
 31
0.0
  0
LINE
  5
A794
330
A5B2
100
AcDbEntity
  8
1
  6
Continuous
100
AcDbLine
 10
454.600012
 20
182.0
 30
0.0
 11
454.600012
 21
186.0
 31
0.0
  0
LINE
  5
A795
330
A5B2
100
AcDbEntity
  8
1
  6
Continuous
100
AcDbLine
 10
444.499994
 20
418.999976
 30
0.0
 11
450.5000059999998
 21
418.999976
 31
0.0
  0
LINE
  5
A796
330
A5B2
100
AcDbEntity
  8
1
  6
Continuous
100
AcDbLine
 10
450.5000059999998
 20
412.999994
 30
0.0
 11
450.5000059999998
 21
418.999976
 31
0.0
  0
LINE
  5
A797
330
A5B2
100
AcDbEntity
  8
1
  6
Continuous
100
AcDbLine
 10
51.0
 20
422.4999999999998
 30
0.0
 11
51.0
 21
414.0000239999998
 31
0.0
  0
LINE
  5
A798
330
A5B2
100
AcDbEntity
  8
1
  6
Continuous
100
AcDbLine
 10
55.0
 20
422.4999999999998
 30
0.0
 11
55.0
 21
414.0000239999998
 31
0.0
  0
LINE
  5
A799
330
A5B2
100
AcDbEntity
  8
1
  6
Continuous
100
AcDbLine
 10
180.500006
 20
503.0
 30
0.0
 11
172.0
 21
503.0
 31
0.0
  0
LINE
  5
A79A
330
A5B2
100
AcDbEntity
  8
1
  6
Continuous
100
AcDbLine
 10
180.500006
 20
507.0
 30
0.0
 11
172.0
 21
507.0
 31
0.0
  0
LINE
  5
A79B
330
A5B2
100
AcDbEntity
  8
1
  6
Continuous
100
AcDbLine
 10
25.5
 20
182.0
 30
0.0
 11
33.99999799999999
 21
182.0
 31
0.0
  0
LINE
  5
A79C
330
A5B2
100
AcDbEntity
  8
1
  6
Continuous
100
AcDbLine
 10
25.5
 20
186.0
 30
0.0
 11
33.99999799999999
 21
186.0
 31
0.0
  0
LINE
  5
A79D
330
A5B2
100
AcDbEntity
  8
1
  6
Continuous
100
AcDbLine
 10
446.700006
 20
182.0
 30
0.0
 11
455.200012
 21
182.0
 31
0.0
  0
LINE
  5
A79E
330
A5B2
100
AcDbEntity
  8
1
  6
Continuous
100
AcDbLine
 10
446.700006
 20
186.0
 30
0.0
 11
455.200012
 21
186.0
 31
0.0
  0
ARC
  5
A79F
330
A5B2
100
AcDbEntity
  8
1
  6
Continuous
100
AcDbCircle
 10
332.999994
 20
184.0
 30
0.0
 40
3.0
100
AcDbArc
 50
90.00000300000001
 51
270.000001
  0
ARC
  5
A7A0
330
A5B2
100
AcDbEntity
  8
1
  6
Continuous
100
AcDbCircle
 10
338.0000059999998
 20
182.0
 30
0.0
 40
1.0
100
AcDbArc
 50
179.9999909999999
 51
270.000001
  0
ARC
  5
A7A1
330
A5B2
100
AcDbEntity
  8
1
  6
Continuous
100
AcDbCircle
 10
338.0000059999998
 20
186.0
 30
0.0
 40
1.0
100
AcDbArc
 50
90.00000300000001
 51
180.000005
  0
ARC
  5
A7A2
330
A5B2
100
AcDbEntity
  8
1
  6
Continuous
100
AcDbCircle
 10
313.0
 20
415.0000239999998
 30
0.0
 40
3.0
100
AcDbArc
 50
179.9999909999999
 51
0.00001
  0
ARC
  5
A7A3
330
A5B2
100
AcDbEntity
  8
1
  6
Continuous
100
AcDbCircle
 10
315.0
 20
419.9999759999998
 30
0.0
 40
1.0
100
AcDbArc
 50
269.9999969999999
 51
0.0
  0
ARC
  5
A7A4
330
A5B2
100
AcDbEntity
  8
1
  6
Continuous
100
AcDbCircle
 10
311.0
 20
419.9999759999998
 30
0.0
 40
1.0
100
AcDbArc
 50
179.9999909999999
 51
270.000001
  0
ARC
  5
A7A5
330
A5B2
100
AcDbEntity
  8
1
  6
Continuous
100
AcDbCircle
 10
25.5
 20
181.4999999999997
 30
0.0
 40
0.5
100
AcDbArc
 50
90.00000300000001
 51
180.000005
  0
ARC
  5
A7A6
330
A5B2
100
AcDbEntity
  8
1
  6
Continuous
100
AcDbCircle
 10
25.5
 20
186.5
 30
0.0
 40
0.5
100
AcDbArc
 50
179.9999909999999
 51
270.000001
  0
ARC
  5
A7A7
330
A5B2
100
AcDbEntity
  8
1
  6
Continuous
100
AcDbCircle
 10
55.5
 20
422.4999999999998
 30
0.0
 40
0.5
100
AcDbArc
 50
90.00000300000001
 51
180.000005
  0
ARC
  5
A7A8
330
A5B2
100
AcDbEntity
  8
1
  6
Continuous
100
AcDbCircle
 10
50.5
 20
422.4999999999998
 30
0.0
 40
0.5
100
AcDbArc
 50
0.0
 51
90.00000300000001
  0
ARC
  5
A7A9
330
A5B2
100
AcDbEntity
  8
1
  6
Continuous
100
AcDbCircle
 10
172.0
 20
507.5
 30
0.0
 40
0.5
100
AcDbArc
 50
179.9999909999999
 51
270.000001
  0
ARC
  5
A7AA
330
A5B2
100
AcDbEntity
  8
1
  6
Continuous
100
AcDbCircle
 10
172.0
 20
502.5
 30
0.0
 40
0.5
100
AcDbArc
 50
90.00000300000001
 51
180.000005
  0
ARC
  5
A7AB
330
A5B2
100
AcDbEntity
  8
1
  6
Continuous
100
AcDbCircle
 10
180.299994
 20
44.000002
 30
0.0
 40
1.0
100
AcDbArc
 50
0.0
 51
90.00000300000001
  0
ARC
  5
A7AC
330
A5B2
100
AcDbEntity
  8
1
  6
Continuous
100
AcDbCircle
 10
173.2999969999999
 20
50.99999799999999
 30
0.0
 40
1.0
100
AcDbArc
 50
0.0
 51
90.00000300000001
  0
ARC
  5
A7AD
330
A5B2
100
AcDbEntity
  8
1
  6
Continuous
100
AcDbCircle
 10
455.200012
 20
186.5
 30
0.0
 40
0.5
100
AcDbArc
 50
269.9999969999999
 51
0.0
  0
ARC
  5
A7AE
330
A5B2
100
AcDbEntity
  8
1
  6
Continuous
100
AcDbCircle
 10
455.200012
 20
181.4999999999997
 30
0.0
 40
0.5
100
AcDbArc
 50
0.0
 51
90.00000300000001
  0
ARC
  5
A7AF
330
A5B2
100
AcDbEntity
  8
1
  6
Continuous
100
AcDbCircle
 10
444.499994
 20
419.9999759999998
 30
0.0
 40
1.0
100
AcDbArc
 50
180.000005
 51
270.000001
  0
ARC
  5
A7B0
330
A5B2
100
AcDbEntity
  8
1
  6
Continuous
100
AcDbCircle
 10
451.500006
 20
412.999994
 30
0.0
 40
1.0
100
AcDbArc
 50
180.000005
 51
270.000001
  0
ARC
  5
A7B1
330
A5B2
100
AcDbEntity
  8
1
  6
Continuous
100
AcDbCircle
 10
53.0
 20
414.0000239999998
 30
0.0
 40
2.0
100
AcDbArc
 50
179.9999909999999
 51
0.00001
  0
ARC
  5
A7B2
330
A5B2
100
AcDbEntity
  8
1
  6
Continuous
100
AcDbCircle
 10
180.500006
 20
505.0
 30
0.0
 40
2.0
100
AcDbArc
 50
269.9999969999999
 51
89.99998900000001
  0
ARC
  5
A7B3
330
A5B2
100
AcDbEntity
  8
1
  6
Continuous
100
AcDbCircle
 10
33.99999799999999
 20
184.0
 30
0.0
 40
2.0
100
AcDbArc
 50
269.9999969999999
 51
89.99998900000001
  0
ARC
  5
A7B4
330
A5B2
100
AcDbEntity
  8
1
  6
Continuous
100
AcDbCircle
 10
446.700006
 20
184.0
 30
0.0
 40
2.0
100
AcDbArc
 50
90.00000300000001
 51
270.000001
  0
LINE
  5
A7B5
330
A5B2
100
AcDbEntity
  8
1
  6
Continuous
100
AcDbLine
 10
181.299994
 20
44.000002
 30
0.0
 11
181.299994
 21
43.900002
 31
0.0
  0
LINE
  5
A7B6
330
A5B2
100
AcDbEntity
  8
1
  6
Continuous
100
AcDbLine
 10
173.2999969999999
 20
51.999998
 30
0.0
 11
173.1999969999999
 21
51.999998
 31
0.0
  0
LINE
  5
A7B7
330
A5B2
100
AcDbEntity
  8
1
  6
Continuous
100
AcDbLine
 10
451.500006
 20
411.999994
 30
0.0
 11
451.6000059999998
 21
411.999994
 31
0.0
  0
LINE
  5
A7B8
330
A5B2
100
AcDbEntity
  8
1
  6
Continuous
100
AcDbLine
 10
443.4999939999998
 20
419.9999749999998
 30
0.0
 11
443.4999939999998
 21
420.099976
 31
0.0
  0
ARC
  5
A7B9
330
A5B2
100
AcDbEntity
  8
1
  6
Continuous
100
AcDbCircle
 10
181.500006
 20
419.9999759999998
 30
0.0
 40
1.0
100
AcDbArc
 50
269.999999
 51
359.999995
  0
LINE
  5
A7BA
330
A5B2
100
AcDbEntity
  8
1
  6
Continuous
100
AcDbLine
 10
182.500006
 20
419.9999749999998
 30
0.0
 11
182.500006
 21
420.099976
 31
0.0
  0
LINE
  5
A7BB
330
A5B2
100
AcDbEntity
  8
1
  6
Continuous
100
AcDbLine
 10
181.500006
 20
418.999976
 30
0.0
 11
175.4999939999999
 21
418.999976
 31
0.0
  0
LINE
  5
A7BC
330
A5B2
100
AcDbEntity
  8
1
  6
Continuous
100
AcDbLine
 10
175.4999939999999
 20
412.999994
 30
0.0
 11
175.4999939999999
 21
418.999976
 31
0.0
  0
ARC
  5
A7BD
330
A5B2
100
AcDbEntity
  8
1
  6
Continuous
100
AcDbCircle
 10
174.4999939999999
 20
412.999994
 30
0.0
 40
1.0
100
AcDbArc
 50
269.999999
 51
359.999995
  0
LINE
  5
A7BE
330
A5B2
100
AcDbEntity
  8
1
  6
Continuous
100
AcDbLine
 10
174.4999939999999
 20
411.999994
 30
0.0
 11
174.3999939999999
 21
411.999994
 31
0.0
  0
LINE
  5
A7BF
330
A5B2
100
AcDbEntity
  8
1
  6
Continuous
100
AcDbLine
 10
181.3000089999999
 20
529.9999749999998
 30
0.0
 11
181.3000089999999
 21
530.0999759999998
 31
0.0
  0
ARC
  5
A7C0
330
A5B2
100
AcDbEntity
  8
1
  6
Continuous
100
AcDbCircle
 10
180.3000089999999
 20
529.9999759999998
 30
0.0
 40
1.0
100
AcDbArc
 50
269.999999
 51
359.999995
  0
LINE
  5
A7C1
330
A5B2
100
AcDbEntity
  8
1
  6
Continuous
100
AcDbLine
 10
180.3000089999999
 20
528.9999759999998
 30
0.0
 11
174.2999969999999
 21
528.9999759999998
 31
0.0
  0
LINE
  5
A7C2
330
A5B2
100
AcDbEntity
  8
1
  6
Continuous
100
AcDbLine
 10
174.2999969999999
 20
522.9999939999999
 30
0.0
 11
174.2999969999999
 21
528.9999759999998
 31
0.0
  0
LINE
  5
A7C3
330
A5B2
100
AcDbEntity
  8
1
  6
Continuous
100
AcDbLine
 10
173.2999969999999
 20
521.999994
 30
0.0
 11
173.1999969999999
 21
521.999994
 31
0.0
  0
ARC
  5
A7C4
330
A5B2
100
AcDbEntity
  8
1
  6
Continuous
100
AcDbCircle
 10
173.2999969999999
 20
522.9999939999999
 30
0.0
 40
1.0
100
AcDbArc
 50
269.999999
 51
359.999995
  0
ARC
  5
A7C5
330
A5B2
100
AcDbEntity
  8
1
  6
Continuous
100
AcDbCircle
 10
199.5
 20
518.0
 30
0.0
 40
2.0
100
AcDbArc
 50
0.0
 51
90.0
  0
ARC
  5
A7C6
330
A5B2
100
AcDbEntity
  8
1
  6
Continuous
100
AcDbCircle
 10
199.5
 20
492.0
 30
0.0
 40
2.0
100
AcDbArc
 50
270.0
 51
0.0
  0
ARC
  5
A7C7
330
A5B2
100
AcDbEntity
  8
1
  6
Continuous
100
AcDbCircle
 10
427.700012
 20
197.0
 30
0.0
 40
2.0
100
AcDbArc
 50
90.0
 51
180.0
  0
ARC
  5
A7C8
330
A5B2
100
AcDbEntity
  8
1
  6
Continuous
100
AcDbCircle
 10
427.700012
 20
171.0
 30
0.0
 40
2.0
100
AcDbArc
 50
180.0
 51
270.0
  0
ARC
  5
A7C9
330
A5B2
100
AcDbEntity
  8
1
  6
Continuous
100
AcDbCircle
 10
198.300003
 20
171.0
 30
0.0
 40
2.0
100
AcDbArc
 50
270.0
 51
0.0
  0
ARC
  5
A7CA
330
A5B2
100
AcDbEntity
  8
1
  6
Continuous
100
AcDbCircle
 10
198.300003
 20
197.0
 30
0.0
 40
2.0
100
AcDbArc
 50
0.0
 51
90.0
  0
ARC
  5
A7CB
330
A5B2
100
AcDbEntity
  8
1
  6
Continuous
100
AcDbCircle
 10
199.5
 20
56.0
 30
0.0
 40
2.0
100
AcDbArc
 50
270.0
 51
0.0
  0
ARC
  5
A7CC
330
A5B2
100
AcDbEntity
  8
1
  6
Continuous
100
AcDbCircle
 10
199.5
 20
82.0
 30
0.0
 40
2.0
100
AcDbArc
 50
0.0
 51
90.0
  0
CIRCLE
  5
A7CD
330
A5B2
100
AcDbEntity
  8
5
  6
PHANTOM
 48
0.2
100
AcDbCircle
 10
313.0
 20
332.0
 30
0.0
 40
7.5
  0
CIRCLE
  5
A7CE
330
A5B2
100
AcDbEntity
  8
5
  6
PHANTOM
 48
0.2
100
AcDbCircle
 10
313.0
 20
332.0
 30
0.0
 40
6.5
  0
LINE
  5
A7CF
330
A5B2
100
AcDbEntity
  8
4
  6
CENTER
 48
0.2
100
AcDbLine
 10
325.4999999999999
 20
332.0
 30
0.0
 11
300.4999999999999
 21
332.0
 31
0.0
  0
LINE
  5
A7D0
330
A5B2
100
AcDbEntity
  8
4
  6
CENTER
 48
0.2
100
AcDbLine
 10
326.649994
 20
351.0
 30
0.0
 11
317.350006
 21
351.0
 31
0.0
  0
LINE
  5
A7D1
330
A5B2
100
AcDbEntity
  8
5
  6
PHANTOM
 48
0.2
100
AcDbLine
 10
322.5
 20
342.0
 30
0.0
 11
303.5
 21
342.0
 31
0.0
  0
LINE
  5
A7D2
330
A5B2
100
AcDbEntity
  8
5
  6
PHANTOM
 48
0.2
100
AcDbLine
 10
328.0
 20
345.0
 30
0.0
 11
298.0
 21
345.0
 31
0.0
  0
LINE
  5
A7D3
330
A5B2
100
AcDbEntity
  8
5
  6
PHANTOM
 48
0.2
100
AcDbLine
 10
328.0
 20
357.100006
 30
0.0
 11
298.0
 21
357.100006
 31
0.0
  0
LINE
  5
A7D4
330
A5B2
100
AcDbEntity
  8
5
  6
PHANTOM
 48
0.2
100
AcDbLine
 10
328.0
 20
360.0
 30
0.0
 11
298.0
 21
360.0
 31
0.0
  0
ARC
  5
A7D5
330
A5B2
100
AcDbEntity
  8
5
  6
PHANTOM
 48
0.2
100
AcDbCircle
 10
313.0
 20
339.0
 30
0.0
 40
15.0
100
AcDbArc
 50
179.9999909999999
 51
230.703518
  0
LINE
  5
A7D6
330
A5B2
100
AcDbEntity
  8
5
  6
PHANTOM
 48
0.1
100
AcDbLine
 10
316.0
 20
352.0000239999998
 30
0.0
 11
316.0
 21
357.0999759999998
 31
0.0
  0
LINE
  5
A7D7
330
A5B2
100
AcDbEntity
  8
5
  6
PHANTOM
 48
0.1
100
AcDbLine
 10
310.0
 20
352.0000239999998
 30
0.0
 11
310.0
 21
357.0999759999998
 31
0.0
  0
LINE
  5
A7D8
330
A5B2
100
AcDbEntity
  8
4
  6
CENTER
 48
0.2
100
AcDbLine
 10
304.0
 20
346.350006
 30
0.0
 11
304.0
 21
365.0
 31
0.0
  0
LINE
  5
A7D9
330
A5B2
100
AcDbEntity
  8
5
  6
PHANTOM
 48
0.2
100
AcDbLine
 10
298.0
 20
339.0
 30
0.0
 11
298.0
 21
360.0
 31
0.0
  0
CIRCLE
  5
A7DA
330
A5B2
100
AcDbEntity
  8
5
  6
PHANTOM
 48
0.2
100
AcDbCircle
 10
304.0
 20
351.0
 30
0.0
 40
2.649999999999999
  0
LINE
  5
A7DB
330
A5B2
100
AcDbEntity
  8
4
  6
CENTER
 48
0.2
100
AcDbLine
 10
308.6499939999999
 20
351.0
 30
0.0
 11
299.350006
 21
351.0
 31
0.0
  0
ARC
  5
A7DC
330
A5B2
100
AcDbEntity
  8
5
  6
PHANTOM
 48
0.1
100
AcDbCircle
 10
313.0
 20
352.0000239999998
 30
0.0
 40
3.0
100
AcDbArc
 50
179.9999909999999
 51
0.00001
  0
LINE
  5
A7DD
330
A5B2
100
AcDbEntity
  8
5
  6
PHANTOM
 48
0.1
100
AcDbLine
 10
315.0
 20
355.999976
 30
0.0
 11
311.0
 21
355.999976
 31
0.0
  0
ARC
  5
A7DE
330
A5B2
100
AcDbEntity
  8
5
  6
PHANTOM
 48
0.1
100
AcDbCircle
 10
315.0
 20
356.9999759999998
 30
0.0
 40
1.0
100
AcDbArc
 50
269.9999969999999
 51
0.0
  0
ARC
  5
A7DF
330
A5B2
100
AcDbEntity
  8
5
  6
PHANTOM
 48
0.1
100
AcDbCircle
 10
311.0
 20
356.9999759999998
 30
0.0
 40
1.0
100
AcDbArc
 50
179.9999909999999
 51
270.000001
  0
ARC
  5
A7E0
330
A5B2
100
AcDbEntity
  8
5
  6
PHANTOM
 48
0.2
100
AcDbCircle
 10
313.0
 20
339.0
 30
0.0
 40
15.0
100
AcDbArc
 50
309.2964799999998
 51
0.0
  0
LINE
  5
A7E1
330
A5B2
100
AcDbEntity
  8
4
  6
CENTER
 48
0.2
100
AcDbLine
 10
322.0
 20
346.350006
 30
0.0
 11
322.0
 21
365.0
 31
0.0
  0
LINE
  5
A7E2
330
A5B2
100
AcDbEntity
  8
5
  6
PHANTOM
 48
0.2
100
AcDbLine
 10
328.0
 20
339.0
 30
0.0
 11
328.0
 21
360.0
 31
0.0
  0
CIRCLE
  5
A7E3
330
A5B2
100
AcDbEntity
  8
5
  6
PHANTOM
 48
0.2
100
AcDbCircle
 10
322.0
 20
351.0
 30
0.0
 40
2.649999999999999
  0
LINE
  5
A7E4
330
A5B2
100
AcDbEntity
  8
5
  6
PHANTOM
 48
0.1
100
AcDbLine
 10
444.499994
 20
355.999976
 30
0.0
 11
450.5000059999998
 21
355.999976
 31
0.0
  0
LINE
  5
A7E5
330
A5B2
100
AcDbEntity
  8
5
  6
PHANTOM
 48
0.1
100
AcDbLine
 10
439.5
 20
342.0
 30
0.0
 11
446.7999879999998
 21
342.0
 31
0.0
  0
LINE
  5
A7E6
330
A5B2
100
AcDbEntity
  8
5
  6
PHANTOM
 48
0.2
100
AcDbLine
 10
424.5
 20
360.0
 30
0.0
 11
451.6000059999998
 21
360.0
 31
0.0
  0
LINE
  5
A7E7
330
A5B2
100
AcDbEntity
  8
5
  6
PHANTOM
 48
0.2
100
AcDbLine
 10
424.5
 20
357.100006
 30
0.0
 11
451.6000059999998
 21
357.100006
 31
0.0
  0
LINE
  5
A7E8
330
A5B2
100
AcDbEntity
  8
4
  6
CENTER
 48
0.2
100
AcDbLine
 10
446.6000059999998
 20
351.0
 30
0.0
 11
459.649994
 21
351.0
 31
0.0
  0
LINE
  5
A7E9
330
A5B2
100
AcDbEntity
  8
4
  6
CENTER
 48
0.2
100
AcDbLine
 10
427.8961179999998
 20
332.0
 30
0.0
 11
461.0286249999998
 21
332.0
 31
0.0
  0
LINE
  5
A7EA
330
A5B2
100
AcDbEntity
  8
5
  6
PHANTOM
 48
0.2
100
AcDbLine
 10
437.5
 20
324.5
 30
0.0
 11
437.5
 21
339.5
 31
0.0
  0
LINE
  5
A7EB
330
A5B2
100
AcDbEntity
  8
5
  6
PHANTOM
 48
0.2
100
AcDbLine
 10
436.5
 20
325.4999999999999
 30
0.0
 11
436.5
 21
338.5
 31
0.0
  0
LINE
  5
A7EC
330
A5B2
100
AcDbEntity
  8
5
  6
PHANTOM
 48
0.2
100
AcDbLine
 10
436.5
 20
325.4999999999999
 30
0.0
 11
437.5
 21
324.5
 31
0.0
  0
LINE
  5
A7ED
330
A5B2
100
AcDbEntity
  8
5
  6
PHANTOM
 48
0.2
100
AcDbLine
 10
437.5
 20
324.5
 30
0.0
 11
439.5
 21
324.5
 31
0.0
  0
LINE
  5
A7EE
330
A5B2
100
AcDbEntity
  8
4
  6
CENTER
 48
0.2
100
AcDbLine
 10
432.5
 20
352.1000059999999
 30
0.0
 11
432.5
 21
365.0
 31
0.0
  0
LINE
  5
A7EF
330
A5B2
100
AcDbEntity
  8
5
  6
PHANTOM
 48
0.2
100
AcDbLine
 10
436.5
 20
338.5
 30
0.0
 11
437.5000309999999
 21
339.5000309999998
 31
0.0
  0
LINE
  5
A7F0
330
A5B2
100
AcDbEntity
  8
5
  6
PHANTOM
 48
0.2
100
AcDbLine
 10
437.5
 20
339.5
 30
0.0
 11
439.5
 21
339.5
 31
0.0
  0
LINE
  5
A7F1
330
A5B2
100
AcDbEntity
  8
5
  6
PHANTOM
 48
0.2
100
AcDbLine
 10
424.5
 20
357.100006
 30
0.0
 11
424.5
 21
360.0
 31
0.0
  0
ARC
  5
A7F2
330
A5B2
100
AcDbEntity
  8
5
  6
PHANTOM
 48
0.1
100
AcDbCircle
 10
444.499994
 20
356.9999759999998
 30
0.0
 40
1.0
100
AcDbArc
 50
180.000005
 51
270.000001
  0
LINE
  5
A7F4
330
A5B2
100
AcDbEntity
  8
5
  6
PHANTOM
 48
0.2
100
AcDbLine
 10
451.3999879999998
 20
324.0
 30
0.0
 11
451.3999879999998
 21
342.100006
 31
0.0
  0
LINE
  5
A7F5
330
A5B2
100
AcDbEntity
  8
5
  6
PHANTOM
 48
0.1
100
AcDbLine
 10
452.8999879999998
 20
332.5
 30
0.0
 11
452.8999879999998
 21
335.0
 31
0.0
  0
LINE
  5
A7F6
330
A5B2
100
AcDbEntity
  8
5
  6
PHANTOM
 48
0.2
100
AcDbLine
 10
448.499994
 20
324.0
 30
0.0
 11
448.4999940000001
 21
342.1
 31
0.0
  0
LINE
  5
A7F7
330
A5B2
100
AcDbEntity
  8
5
  6
PHANTOM
 48
0.1
100
AcDbLine
 10
452.1500179999998
 20
332.0000309999998
 30
0.0
 11
452.8999879999998
 21
331.5000309999998
 31
0.0
  0
LINE
  5
A7F8
330
A5B2
100
AcDbEntity
  8
5
  6
PHANTOM
 48
0.1
100
AcDbLine
 10
451.3999879999998
 20
329.0
 30
0.0
 11
452.8999879999998
 21
329.0
 31
0.0
  0
LINE
  5
A7F9
330
A5B2
100
AcDbEntity
  8
5
  6
PHANTOM
 48
0.2
100
AcDbLine
 10
446.7999879999998
 20
323.1499939999999
 30
0.0
 11
448.399994
 21
323.1499939999999
 31
0.0
  0
LINE
  5
A7FA
330
A5B2
100
AcDbEntity
  8
5
  6
PHANTOM
 48
0.2
100
AcDbLine
 10
448.499994
 20
324.0
 30
0.0
 11
451.3999879999998
 21
324.0
 31
0.0
  0
LINE
  5
A7FB
330
A5B2
100
AcDbEntity
  8
5
  6
PHANTOM
 48
0.1
100
AcDbLine
 10
452.8999879999998
 20
332.5
 30
0.0
 11
452.1500179999998
 21
332.0
 31
0.0
  0
LINE
  5
A7FC
330
A5B2
100
AcDbEntity
  8
5
  6
PHANTOM
 48
0.1
100
AcDbLine
 10
452.8999879999998
 20
329.0
 30
0.0
 11
452.8999879999998
 21
331.4999999999999
 31
0.0
  0
LINE
  5
A7FD
330
A5B2
100
AcDbEntity
  8
5
  6
PHANTOM
 48
0.1
100
AcDbLine
 10
450.5000059999998
 20
349.999994
 30
0.0
 11
450.5000059999998
 21
355.999976
 31
0.0
  0
LINE
  5
A7FE
330
A5B2
100
AcDbEntity
  8
5
  6
PHANTOM
 48
0.2
100
AcDbLine
 10
451.6000059999998
 20
345.0
 30
0.0
 11
451.6000059999998
 21
357.100006
 31
0.0
  0
LINE
  5
A7FF
330
A5B2
100
AcDbEntity
  8
5
  6
PHANTOM
 48
0.2
100
AcDbLine
 10
454.4999999999998
 20
345.0000059999999
 30
0.0
 11
454.4999999999998
 21
357.100006
 31
0.0
  0
ARC
  5
A800
330
A5B2
100
AcDbEntity
  8
5
  6
PHANTOM
 48
0.1
100
AcDbCircle
 10
451.500006
 20
349.999994
 30
0.0
 40
1.0
100
AcDbArc
 50
180.000005
 51
270.000001
  0
LINE
  5
A801
330
A5B2
100
AcDbEntity
  8
5
  6
PHANTOM
 48
0.1
100
AcDbLine
 10
451.500006
 20
348.999994
 30
0.0
 11
451.6000059999998
 21
348.999994
 31
0.0
  0
LINE
  5
A804
330
A5B2
100
AcDbEntity
  8
5
  6
PHANTOM
 48
0.1
100
AcDbLine
 10
451.3999879999998
 20
335.0
 30
0.0
 11
452.8999879999998
 21
335.0
 31
0.0
  0
LINE
  5
A805
330
A5B2
100
AcDbEntity
  8
5
  6
PHANTOM
 48
0.2
100
AcDbLine
 10
446.7999879999998
 20
340.850006
 30
0.0
 11
448.399994
 21
340.850006
 31
0.0
  0
LINE
  5
A806
330
A5B2
100
AcDbEntity
  8
5
  6
PHANTOM
 48
0.2
100
AcDbLine
 10
451.3999879999998
 20
342.100006
 30
0.0
 11
451.5999999999998
 21
342.100006
 31
0.0
  0
LINE
  5
A807
330
A5B2
100
AcDbEntity
  8
5
  6
PHANTOM
 48
0.2
100
AcDbLine
 10
451.3999940000001
 20
345.0
 30
0.0
 11
451.6000059999998
 21
345.0
 31
0.0
  0
ARC
  5
A808
330
A5B2
100
AcDbEntity
  8
5
  6
PHANTOM
 48
0.2
100
AcDbCircle
 10
451.6000059999998
 20
357.100006
 30
0.0
 40
2.9
100
AcDbArc
 50
0.0
 51
90.00000300000001
  0
CIRCLE
  5
A809
330
A5B2
100
AcDbEntity
  8
5
  6
PHANTOM
 48
0.2
100
AcDbCircle
 10
62.0
 20
351.0
 30
0.0
 40
2.649999999999999
  0
ARC
  5
A80A
330
A5B2
100
AcDbEntity
  8
5
  6
PHANTOM
 48
0.2
100
AcDbCircle
 10
53.0
 20
339.0
 30
0.0
 40
15.0
100
AcDbArc
 50
179.9999909999999
 51
0.00001
  0
LINE
  5
A80B
330
A5B2
100
AcDbEntity
  8
5
  6
PHANTOM
 48
0.2
100
AcDbLine
 10
38.0
 20
342.100006
 30
0.0
 11
68.0
 21
342.100006
 31
0.0
  0
LINE
  5
A80C
330
A5B2
100
AcDbEntity
  8
4
  6
CENTER
 48
0.2
100
AcDbLine
 10
57.349998
 20
351.0
 30
0.0
 11
66.650002
 21
351.0
 31
0.0
  0
LINE
  5
A80D
330
A5B2
100
AcDbEntity
  8
5
  6
PHANTOM
 48
0.2
100
AcDbLine
 10
38.0
 20
360.0
 30
0.0
 11
68.0
 21
360.0
 31
0.0
  0
CIRCLE
  5
A80E
330
A5B2
100
AcDbEntity
  8
5
  6
PHANTOM
 48
0.2
100
AcDbCircle
 10
53.0
 20
332.0
 30
0.0
 40
3.25
  0
CIRCLE
  5
A80F
330
A5B2
100
AcDbEntity
  8
5
  6
PHANTOM
 48
0.2
100
AcDbCircle
 10
53.0
 20
332.0
 30
0.0
 40
3.0
  0
LINE
  5
A810
330
A5B2
100
AcDbEntity
  8
5
  6
PHANTOM
 48
0.1
100
AcDbLine
 10
53.5
 20
332.5
 30
0.0
 11
53.5
 21
334.9580379999999
 31
0.0
  0
LINE
  5
A811
330
A5B2
100
AcDbEntity
  8
5
  6
PHANTOM
 48
0.1
100
AcDbLine
 10
52.5
 20
332.5
 30
0.0
 11
52.5
 21
334.9580379999999
 31
0.0
  0
ARC
  5
A812
330
A5B2
100
AcDbEntity
  8
5
  6
PHANTOM
 48
0.2
100
AcDbCircle
 10
53.0
 20
332.0
 30
0.0
 40
8.849999999999997
100
AcDbArc
 50
232.032294
 51
307.9677109999999
  0
LINE
  5
A813
330
A5B2
100
AcDbEntity
  8
4
  6
CENTER
 48
0.2
100
AcDbLine
 10
58.25
 20
332.0
 30
0.0
 11
47.75
 21
332.0
 31
0.0
  0
LINE
  5
A814
330
A5B2
100
AcDbEntity
  8
5
  6
PHANTOM
 48
0.1
100
AcDbLine
 10
53.5
 20
332.5
 30
0.0
 11
55.958038
 21
332.5
 31
0.0
  0
LINE
  5
A815
330
A5B2
100
AcDbEntity
  8
5
  6
PHANTOM
 48
0.1
100
AcDbLine
 10
53.5
 20
331.4999999999999
 30
0.0
 11
55.958038
 21
331.4999999999999
 31
0.0
  0
LINE
  5
A816
330
A5B2
100
AcDbEntity
  8
5
  6
PHANTOM
 48
0.1
100
AcDbLine
 10
50.04196199999999
 20
332.5
 30
0.0
 11
52.5
 21
332.5
 31
0.0
  0
LINE
  5
A817
330
A5B2
100
AcDbEntity
  8
5
  6
PHANTOM
 48
0.1
100
AcDbLine
 10
50.04196199999999
 20
331.4999999999999
 30
0.0
 11
52.5
 21
331.4999999999999
 31
0.0
  0
LINE
  5
A818
330
A5B2
100
AcDbEntity
  8
5
  6
PHANTOM
 48
0.1
100
AcDbLine
 10
53.5
 20
329.041962
 30
0.0
 11
53.5
 21
331.4999999999999
 31
0.0
  0
LINE
  5
A819
330
A5B2
100
AcDbEntity
  8
5
  6
PHANTOM
 48
0.1
100
AcDbLine
 10
52.5
 20
329.041962
 30
0.0
 11
52.5
 21
331.4999999999999
 31
0.0
  0
LINE
  5
A81A
330
A5B2
100
AcDbEntity
  8
5
  6
PHANTOM
 48
0.1
100
AcDbLine
 10
51.0
 20
359.5
 30
0.0
 11
51.0
 21
351.000024
 31
0.0
  0
LINE
  5
A81B
330
A5B2
100
AcDbEntity
  8
5
  6
PHANTOM
 48
0.1
100
AcDbLine
 10
55.0
 20
359.5
 30
0.0
 11
55.0
 21
351.000024
 31
0.0
  0
LINE
  5
A81C
330
A5B2
100
AcDbEntity
  8
4
  6
CENTER
 48
0.2
100
AcDbLine
 10
62.0
 20
365.0
 30
0.0
 11
62.0
 21
346.350006
 31
0.0
  0
LINE
  5
A81D
330
A5B2
100
AcDbEntity
  8
4
  6
CENTER
 48
0.2
100
AcDbLine
 10
44.0
 20
365.0
 30
0.0
 11
44.0
 21
346.350006
 31
0.0
  0
LINE
  5
A81E
330
A5B2
100
AcDbEntity
  8
5
  6
PHANTOM
 48
0.2
100
AcDbLine
 10
38.0
 20
360.0
 30
0.0
 11
38.0
 21
339.0
 31
0.0
  0
LINE
  5
A81F
330
A5B2
100
AcDbEntity
  8
4
  6
CENTER
 48
0.2
100
AcDbLine
 10
39.34999799999999
 20
351.0
 30
0.0
 11
48.650002
 21
351.0
 31
0.0
  0
CIRCLE
  5
A820
330
A5B2
100
AcDbEntity
  8
5
  6
PHANTOM
 48
0.2
100
AcDbCircle
 10
44.0
 20
351.0
 30
0.0
 40
2.649999999999999
  0
ARC
  5
A821
330
A5B2
100
AcDbEntity
  8
5
  6
PHANTOM
 48
0.1
100
AcDbCircle
 10
53.0
 20
351.000024
 30
0.0
 40
2.0
100
AcDbArc
 50
179.9999909999999
 51
0.00001
  0
LINE
  5
A822
330
A5B2
100
AcDbEntity
  8
5
  6
PHANTOM
 48
0.1
100
AcDbLine
 10
51.0
 20
358.8999999999999
 30
0.0
 11
55.0
 21
358.8999999999999
 31
0.0
  0
ARC
  5
A823
330
A5B2
100
AcDbEntity
  8
5
  6
PHANTOM
 48
0.2
100
AcDbCircle
 10
50.5
 20
359.5
 30
0.0
 40
0.5
100
AcDbArc
 50
0.0
 51
90.00000300000001
  0
ARC
  5
A824
330
A5B2
100
AcDbEntity
  8
5
  6
PHANTOM
 48
0.2
100
AcDbCircle
 10
55.5
 20
359.5
 30
0.0
 40
0.5
100
AcDbArc
 50
90.00000300000001
 51
180.000005
  0
LINE
  5
A825
330
A5B2
100
AcDbEntity
  8
5
  6
PHANTOM
 48
0.2
100
AcDbLine
 10
68.0
 20
360.0
 30
0.0
 11
68.0
 21
339.0
 31
0.0
  0
LINE
  5
A826
330
A5B2
100
AcDbEntity
  8
5
  6
PHANTOM
 48
0.2
100
AcDbLine
 10
201.5
 20
357.100006
 30
0.0
 11
174.3999939999999
 21
357.100006
 31
0.0
  0
LINE
  5
A827
330
A5B2
100
AcDbEntity
  8
5
  6
PHANTOM
 48
0.2
100
AcDbLine
 10
201.5
 20
360.0
 30
0.0
 11
174.3999939999999
 21
360.0
 31
0.0
  0
LINE
  5
A828
330
A5B2
100
AcDbEntity
  8
4
  6
CENTER
 48
0.2
100
AcDbLine
 10
198.1038969999999
 20
332.0
 30
0.0
 11
164.971375
 21
332.0
 31
0.0
  0
LINE
  5
A829
330
A5B2
100
AcDbEntity
  8
5
  6
PHANTOM
 48
0.2
100
AcDbLine
 10
173.0999969999999
 20
332.5
 30
0.0
 11
173.0999969999999
 21
335.0
 31
0.0
  0
LINE
  5
A82A
330
A5B2
100
AcDbEntity
  8
5
  6
PHANTOM
 48
0.2
100
AcDbLine
 10
174.5999969999999
 20
324.0
 30
0.0
 11
174.5999969999999
 21
342.100006
 31
0.0
  0
LINE
  5
A82B
330
A5B2
100
AcDbEntity
  8
5
  6
PHANTOM
 48
0.2
100
AcDbLine
 10
177.600006
 20
323.1499939999999
 30
0.0
 11
177.600006
 21
340.850006
 31
0.0
  0
LINE
  5
A82C
330
A5B2
100
AcDbEntity
  8
5
  6
PHANTOM
 48
0.2
100
AcDbLine
 10
188.4999999999998
 20
324.5
 30
0.0
 11
188.4999999999998
 21
339.5
 31
0.0
  0
LINE
  5
A82D
330
A5B2
100
AcDbEntity
  8
5
  6
PHANTOM
 48
0.2
100
AcDbLine
 10
189.4999999999997
 20
325.4999999999999
 30
0.0
 11
189.4999999999997
 21
338.5
 31
0.0
  0
LINE
  5
A82E
330
A5B2
100
AcDbEntity
  8
5
  6
PHANTOM
 48
0.2
100
AcDbLine
 10
177.500006
 20
324.0
 30
0.0
 11
174.5999969999999
 21
324.0
 31
0.0
  0
LINE
  5
A82F
330
A5B2
100
AcDbEntity
  8
5
  6
PHANTOM
 48
0.2
100
AcDbLine
 10
174.5999969999999
 20
329.0
 30
0.0
 11
173.0999969999999
 21
329.0
 31
0.0
  0
LINE
  5
A830
330
A5B2
100
AcDbEntity
  8
5
  6
PHANTOM
 48
0.2
100
AcDbLine
 10
173.8500119999999
 20
332.0
 30
0.0
 11
173.1000119999999
 21
331.4999999999999
 31
0.0
  0
LINE
  5
A831
330
A5B2
100
AcDbEntity
  8
5
  6
PHANTOM
 48
0.2
100
AcDbLine
 10
173.0999969999999
 20
332.5
 30
0.0
 11
173.8499969999999
 21
332.0
 31
0.0
  0
LINE
  5
A832
330
A5B2
100
AcDbEntity
  8
5
  6
PHANTOM
 48
0.2
100
AcDbLine
 10
173.0999969999999
 20
329.0
 30
0.0
 11
173.0999969999999
 21
331.4999999999999
 31
0.0
  0
LINE
  5
A833
330
A5B2
100
AcDbEntity
  8
5
  6
PHANTOM
 48
0.2
100
AcDbLine
 10
179.1999969999999
 20
323.1499939999999
 30
0.0
 11
177.600006
 21
323.1499939999999
 31
0.0
  0
LINE
  5
A834
330
A5B2
100
AcDbEntity
  8
5
  6
PHANTOM
 48
0.2
100
AcDbLine
 10
189.4999999999997
 20
325.4999999999999
 30
0.0
 11
188.4999999999998
 21
324.5
 31
0.0
  0
LINE
  5
A835
330
A5B2
100
AcDbEntity
  8
5
  6
PHANTOM
 48
0.2
100
AcDbLine
 10
188.4999999999998
 20
324.5
 30
0.0
 11
186.5
 21
324.5
 31
0.0
  0
LINE
  5
A836
330
A5B2
100
AcDbEntity
  8
5
  6
PHANTOM
 48
0.1
100
AcDbLine
 10
175.4999939999999
 20
349.999994
 30
0.0
 11
175.4999939999999
 21
355.999976
 31
0.0
  0
LINE
  5
A837
330
A5B2
100
AcDbEntity
  8
5
  6
PHANTOM
 48
0.2
100
AcDbLine
 10
174.3999939999999
 20
345.0
 30
0.0
 11
174.3999939999999
 21
357.100006
 31
0.0
  0
LINE
  5
A838
330
A5B2
100
AcDbEntity
  8
5
  6
PHANTOM
 48
0.2
100
AcDbLine
 10
171.5
 20
345.0000059999999
 30
0.0
 11
171.5
 21
357.100006
 31
0.0
  0
ARC
  5
A839
330
A5B2
100
AcDbEntity
  8
5
  6
PHANTOM
 48
0.1
100
AcDbCircle
 10
174.4999939999999
 20
349.999994
 30
0.0
 40
1.0
100
AcDbArc
 50
269.999999
 51
359.999995
  0
LINE
  5
A83B
330
A5B2
100
AcDbEntity
  8
4
  6
CENTER
 48
0.2
100
AcDbLine
 10
179.3999939999999
 20
351.0
 30
0.0
 11
166.350006
 21
351.0
 31
0.0
  0
LINE
  5
A83C
330
A5B2
100
AcDbEntity
  8
5
  6
PHANTOM
 48
0.1
100
AcDbLine
 10
174.4999939999999
 20
348.999994
 30
0.0
 11
174.3999939999999
 21
348.999994
 31
0.0
  0
LINE
  5
A83E
330
A5B2
100
AcDbEntity
  8
5
  6
PHANTOM
 48
0.2
100
AcDbLine
 10
174.5999969999999
 20
335.0
 30
0.0
 11
173.0999969999999
 21
335.0
 31
0.0
  0
LINE
  5
A83F
330
A5B2
100
AcDbEntity
  8
5
  6
PHANTOM
 48
0.2
100
AcDbLine
 10
174.5999969999999
 20
342.100006
 30
0.0
 11
174.4
 21
342.100006
 31
0.0
  0
LINE
  5
A840
330
A5B2
100
AcDbEntity
  8
5
  6
PHANTOM
 48
0.2
100
AcDbLine
 10
174.600006
 20
344.9999999999998
 30
0.0
 11
174.3999939999999
 21
345.0
 31
0.0
  0
LINE
  5
A841
330
A5B2
100
AcDbEntity
  8
5
  6
PHANTOM
 48
0.2
100
AcDbLine
 10
179.1999969999999
 20
340.850006
 30
0.0
 11
177.600006
 21
340.850006
 31
0.0
  0
LINE
  5
A842
330
A5B2
100
AcDbEntity
  8
5
  6
PHANTOM
 48
0.2
100
AcDbLine
 10
189.4999999999997
 20
338.5
 30
0.0
 11
188.4999999999998
 21
339.5
 31
0.0
  0
LINE
  5
A843
330
A5B2
100
AcDbEntity
  8
5
  6
PHANTOM
 48
0.2
100
AcDbLine
 10
188.4999999999998
 20
339.5
 30
0.0
 11
186.5
 21
339.5
 31
0.0
  0
LINE
  5
A844
330
A5B2
100
AcDbEntity
  8
5
  6
PHANTOM
 48
0.1
100
AcDbLine
 10
186.5
 20
342.0
 30
0.0
 11
179.1999969999999
 21
342.0
 31
0.0
  0
LINE
  5
A845
330
A5B2
100
AcDbEntity
  8
5
  6
PHANTOM
 48
0.1
100
AcDbLine
 10
181.500006
 20
355.999976
 30
0.0
 11
175.4999939999999
 21
355.999976
 31
0.0
  0
ARC
  5
A846
330
A5B2
100
AcDbEntity
  8
5
  6
PHANTOM
 48
0.2
100
AcDbCircle
 10
174.3999939999999
 20
357.100006
 30
0.0
 40
2.9
100
AcDbArc
 50
90.00000300000001
 51
180.000005
  0
ARC
  5
A847
330
A5B2
100
AcDbEntity
  8
5
  6
PHANTOM
 48
0.1
100
AcDbCircle
 10
181.500006
 20
356.9999759999998
 30
0.0
 40
1.0
100
AcDbArc
 50
269.999999
 51
359.999995
  0
LINE
  5
A848
330
A5B2
100
AcDbEntity
  8
5
  6
PHANTOM
 48
0.1
100
AcDbLine
 10
182.500006
 20
356.999975
 30
0.0
 11
182.500006
 21
357.0999759999998
 31
0.0
  0
LINE
  5
A849
330
A5B2
100
AcDbEntity
  8
4
  6
CENTER
 48
0.2
100
AcDbLine
 10
193.5
 20
352.1000059999999
 30
0.0
 11
193.5
 21
365.0
 31
0.0
  0
LINE
  5
A84A
330
A5B2
100
AcDbEntity
  8
5
  6
PHANTOM
 48
0.2
100
AcDbLine
 10
201.5
 20
357.100006
 30
0.0
 11
201.5
 21
360.0
 31
0.0
  0
LINE
  5
A866
330
A5B2
100
AcDbEntity
  8
1
  6
Continuous
100
AcDbLine
 10
176.3999939999999
 20
192.850006
 30
0.0
 11
176.3999939999999
 21
175.1499939999999
 31
0.0
  0
LINE
  5
A867
330
A5B2
100
AcDbEntity
  8
1
  6
Continuous
100
AcDbLine
 10
176.3999939999999
 20
77.849998
 30
0.0
 11
176.3999939999999
 21
60.150002
 31
0.0
  0
LINE
  5
A8AB
330
A5B2
100
AcDbEntity
  8
1
  6
Continuous
100
AcDbLine
 10
177.600006
 20
386.1499939999998
 30
0.0
 11
177.600006
 21
403.850006
 31
0.0
  0
ARC
  5
A8AC
330
A5B2
100
AcDbEntity
  8
1
  6
Continuous
100
AcDbCircle
 10
174.3999999999999
 20
408.0000059999997
 30
0.0
 40
2.9
100
AcDbArc
 50
180.0
 51
270.0
  0
ARC
  5
A8AD
330
A5B2
100
AcDbEntity
  8
1
  6
Continuous
100
AcDbCircle
 10
174.600006
 20
405.1000000000001
 30
0.0
 40
2.9
100
AcDbArc
 50
0.0
 51
90.0
  0
LINE
  5
A8AE
330
A5B2
100
AcDbEntity
  8
5
  6
PHANTOM
 48
0.2
100
AcDbLine
 10
177.500006
 20
324.0
 30
0.0
 11
177.500006
 21
342.0999999999999
 31
0.0
  0
ARC
  5
A8AF
330
A5B2
100
AcDbEntity
  8
5
  6
PHANTOM
 48
0.2
100
AcDbCircle
 10
174.4
 20
345.0000059999999
 30
0.0
 40
2.9
100
AcDbArc
 50
180.0
 51
270.0
  0
ARC
  5
A8B0
330
A5B2
100
AcDbEntity
  8
5
  6
PHANTOM
 48
0.2
100
AcDbCircle
 10
174.600006
 20
342.0999999999999
 30
0.0
 40
2.9
100
AcDbArc
 50
0.0
 51
90.0
  0
LINE
  5
A8B1
330
A5B2
100
AcDbEntity
  8
1
  6
Continuous
100
AcDbLine
 10
448.399994
 20
386.1499939999998
 30
0.0
 11
448.399994
 21
403.850006
 31
0.0
  0
ARC
  5
A8B2
330
A5B2
100
AcDbEntity
  8
1
  6
Continuous
100
AcDbCircle
 10
451.399994
 20
405.1
 30
0.0
 40
2.9
100
AcDbArc
 50
90.0
 51
180.0
  0
ARC
  5
A8B3
330
A5B2
100
AcDbEntity
  8
1
  6
Continuous
100
AcDbCircle
 10
451.5999999999998
 20
408.0000059999997
 30
0.0
 40
2.9
100
AcDbArc
 50
270.0
 51
0.0
  0
LINE
  5
A8B4
330
A5B2
100
AcDbEntity
  8
5
  6
PHANTOM
 48
0.2
100
AcDbLine
 10
448.399994
 20
323.1499939999999
 30
0.0
 11
448.399994
 21
340.8500059999999
 31
0.0
  0
ARC
  5
A8B5
330
A5B2
100
AcDbEntity
  8
5
  6
PHANTOM
 48
0.2
100
AcDbCircle
 10
451.3999940000001
 20
342.1
 30
0.0
 40
2.9
100
AcDbArc
 50
90.0
 51
180.0
  0
ARC
  5
A8B6
330
A5B2
100
AcDbEntity
  8
5
  6
PHANTOM
 48
0.2
100
AcDbCircle
 10
451.5999999999998
 20
345.0000059999999
 30
0.0
 40
2.9
100
AcDbArc
 50
270.0
 51
0.0
  0
ENDSEC
  0
SECTION
  2
OBJECTS
  0
DICTIONARY
  5
A5A0
330
0
100
AcDbDictionary
281
     1
  3
ACAD_CIP_PREVIOUS_PRODUCT_INFO
350
AB68
  3
ACAD_COLOR
350
AB4A
  3
ACAD_DETAILVIEWSTYLE
350
AB63
  3
ACAD_GROUP
350
A5A1
  3
ACAD_LAYOUT
350
A5AD
  3
ACAD_MATERIAL
350
AB18
  3
ACAD_MLEADERSTYLE
350
AB5F
  3
ACAD_MLINESTYLE
350
A5AA
  3
ACAD_PLOTSETTINGS
350
A5AC
  3
ACAD_PLOTSTYLENAME
350
AB16
  3
ACAD_SCALELIST
350
AB4D
  3
ACAD_SECTIONVIEWSTYLE
350
AB61
  3
ACAD_TABLESTYLE
350
AB4B
  3
ACAD_VISUALSTYLE
350
AB31
  3
ACDB_RECOMPOSE_DATA
350
AB86
  3
AcDbVariableDictionary
350
AB79
  3
DWGPROPS
350
AB87
  0
DICTIONARY
  5
AB69
330
A5A4
100
AcDbDictionary
280
     1
281
     1
  3
ADSK_XREC_LAYER_RECONCILED
360
AB6A
  0
DICTIONARY
  5
AB6B
330
A5BA
100
AcDbDictionary
280
     1
281
     1
  3
ADSK_XREC_LAYER_RECONCILED
360
AB6C
  0
DICTIONARY
  5
AB6D
330
A5BB
100
AcDbDictionary
280
     1
281
     1
  3
ADSK_XREC_LAYER_RECONCILED
360
AB6E
  0
DICTIONARY
  5
AB6F
330
A5BC
100
AcDbDictionary
280
     1
281
     1
  3
ADSK_XREC_LAYER_RECONCILED
360
AB70
  0
DICTIONARY
  5
AB71
330
A5BD
100
AcDbDictionary
280
     1
281
     1
  3
ADSK_XREC_LAYER_RECONCILED
360
AB72
  0
DICTIONARY
  5
AB73
330
A5BE
100
AcDbDictionary
280
     1
281
     1
  3
ADSK_XREC_LAYER_RECONCILED
360
AB74
  0
DICTIONARY
  5
AB75
330
A5BF
100
AcDbDictionary
280
     1
281
     1
  3
ADSK_XREC_LAYER_RECONCILED
360
AB76
  0
DICTIONARY
  5
AB77
330
A5C0
100
AcDbDictionary
280
     1
281
     1
  3
ADSK_XREC_LAYER_RECONCILED
360
AB78
  0
DICTIONARY
  5
A859
330
A5B2
100
AcDbDictionary
281
     1
  3
ACAD_LAYOUTSELFREF
350
AB12
  0
DICTIONARY
  5
A857
330
A5AE
100
AcDbDictionary
281
     1
  3
ACAD_LAYOUTSELFREF
350
AB11
  0
XRECORD
  5
AB68
102
{ACAD_REACTORS
330
A5A0
102
}
330
A5A0
100
AcDbXrecord
280
     1
300
ACDLT
300
2014
300
ACDLT_F_S
  0
DICTIONARY
  5
AB4A
102
{ACAD_REACTORS
330
A5A0
102
}
330
A5A0
100
AcDbDictionary
281
     1
  0
DICTIONARY
  5
AB63
102
{ACAD_REACTORS
330
A5A0
102
}
330
A5A0
100
AcDbDictionary
281
     1
  3
Imperial24
350
AB64
  0
DICTIONARY
  5
A5A1
102
{ACAD_REACTORS
330
A5A0
102
}
330
A5A0
100
AcDbDictionary
281
     1
  0
DICTIONARY
  5
A5AD
102
{ACAD_REACTORS
330
A5A0
102
}
330
A5A0
100
AcDbDictionary
281
     1
  3
Model
350
AB65
  3
レイアウト1
350
AB66
  0
DICTIONARY
  5
AB18
102
{ACAD_REACTORS
330
A5A0
102
}
330
A5A0
100
AcDbDictionary
281
     1
  3
ByBlock
350
AB21
  3
ByLayer
350
AB19
  3
Global
350
AB29
  0
DICTIONARY
  5
AB5F
102
{ACAD_REACTORS
330
A5A0
102
}
330
A5A0
100
AcDbDictionary
281
     1
  3
Standard
350
AB60
  0
DICTIONARY
  5
A5AA
102
{ACAD_REACTORS
330
A5A0
102
}
330
A5A0
100
AcDbDictionary
281
     1
  3
STANDARD
350
A5AB
  0
DICTIONARY
  5
A5AC
102
{ACAD_REACTORS
330
A5A0
102
}
330
A5A0
100
AcDbDictionary
281
     1
  0
ACDBDICTIONARYWDFLT
  5
AB16
102
{ACAD_REACTORS
330
A5A0
102
}
330
A5A0
100
AcDbDictionary
281
     1
  3
Normal
350
AB17
100
AcDbDictionaryWithDefault
340
AB17
  0
DICTIONARY
  5
AB4D
102
{ACAD_REACTORS
330
A5A0
102
}
330
A5A0
100
AcDbDictionary
281
     1
  3
A0
350
AB4E
  3
A1
350
AB4F
  3
A2
350
AB50
  3
A3
350
AB51
  3
A4
350
AB52
  3
A5
350
AB53
  3
A6
350
AB54
  3
A7
350
AB55
  3
A8
350
AB56
  3
A9
350
AB57
  3
B0
350
AB58
  3
B1
350
AB59
  3
B2
350
AB5A
  3
B3
350
AB5B
  3
B4
350
AB5C
  3
B5
350
AB5D
  3
B6
350
AB5E
  0
DICTIONARY
  5
AB61
102
{ACAD_REACTORS
330
A5A0
102
}
330
A5A0
100
AcDbDictionary
281
     1
  3
Imperial24
350
AB62
  0
DICTIONARY
  5
AB4B
102
{ACAD_REACTORS
330
A5A0
102
}
330
A5A0
100
AcDbDictionary
281
     1
  3
Standard
350
AB4C
  0
DICTIONARY
  5
AB31
102
{ACAD_REACTORS
330
A5A0
102
}
330
A5A0
100
AcDbDictionary
281
     1
  3
2dWireframe
350
AB37
  3
Basic
350
AB36
  3
Brighten
350
AB3D
  3
ColorChange
350
AB41
  3
Conceptual
350
AB3A
  3
Dim
350
AB3C
  3
EdgeColorOff
350
AB49
  3
Facepattern
350
AB40
  3
Flat
350
AB32
  3
FlatWithEdges
350
AB33
  3
Gouraud
350
AB34
  3
GouraudWithEdges
350
AB35
  3
Hidden
350
AB39
  3
JitterOff
350
AB47
  3
Linepattern
350
AB3F
  3
OverhangOff
350
AB48
  3
Realistic
350
AB3B
  3
Shaded
350
AB46
  3
Shaded with edges
350
AB45
  3
Shades of Gray
350
AB42
  3
Sketchy
350
AB43
  3
Thicken
350
AB3E
  3
Wireframe
350
AB38
  3
X-Ray
350
AB44
  0
XRECORD
  5
AB86
102
{ACAD_REACTORS
330
A5A0
102
}
330
A5A0
100
AcDbXrecord
280
     1
 90
        1
330
AB4C
  0
DICTIONARY
  5
AB79
102
{ACAD_REACTORS
330
A5A0
102
}
330
A5A0
100
AcDbDictionary
281
     1
  3
CANNOSCALE
350
AB7E
  3
CMLEADERSTYLE
350
AB7B
  3
CTABLESTYLE
350
AB7A
  3
CVIEWDETAILSTYLE
350
AB7C
  3
CVIEWSECTIONSTYLE
350
AB7D
  3
DIMASSOC
350
AB81
  3
INDEXCTL
350
AB80
  3
SORTENTS
350
AB7F
  3
XCLIPFRAME
350
AB82
  0
XRECORD
  5
AB87
102
{ACAD_REACTORS
330
A5A0
102
}
330
A5A0
100
AcDbXrecord
280
     1
  1
DWGPROPS COOKIE
  2

  3

  4

  6

  7

  8
Yoshitsune
  9

300
=
301
=
302
=
303
=
304
=
305
=
306
=
307
=
308
=
309
=
 40
0.0148244328703704
 41
2451065.510294676
 42
2457192.622795695
  1

 90
        0
  0
XRECORD
  5
AB6A
102
{ACAD_REACTORS
330
AB69
102
}
330
AB69
100
AcDbXrecord
280
     1
290
     1
  0
XRECORD
  5
AB6C
102
{ACAD_REACTORS
330
AB6B
102
}
330
AB6B
100
AcDbXrecord
280
     1
290
     1
  0
XRECORD
  5
AB6E
102
{ACAD_REACTORS
330
AB6D
102
}
330
AB6D
100
AcDbXrecord
280
     1
290
     1
  0
XRECORD
  5
AB70
102
{ACAD_REACTORS
330
AB6F
102
}
330
AB6F
100
AcDbXrecord
280
     1
290
     1
  0
XRECORD
  5
AB72
102
{ACAD_REACTORS
330
AB71
102
}
330
AB71
100
AcDbXrecord
280
     1
290
     1
  0
XRECORD
  5
AB74
102
{ACAD_REACTORS
330
AB73
102
}
330
AB73
100
AcDbXrecord
280
     1
290
     1
  0
XRECORD
  5
AB76
102
{ACAD_REACTORS
330
AB75
102
}
330
AB75
100
AcDbXrecord
280
     1
290
     1
  0
XRECORD
  5
AB78
102
{ACAD_REACTORS
330
AB77
102
}
330
AB77
100
AcDbXrecord
280
     1
290
     1
  0
XRECORD
  5
AB12
102
{ACAD_REACTORS
330
A859
102
}
330
A859
100
AcDbXrecord
280
     1
340
A5B2
  0
XRECORD
  5
AB11
102
{ACAD_REACTORS
330
A857
102
}
330
A857
100
AcDbXrecord
280
     1
340
A5AE
  0
ACDBDETAILVIEWSTYLE
  5
AB64
102
{ACAD_XDICTIONARY
360
ABBF
102
}
102
{ACAD_REACTORS
330
AB63
102
}
330
AB63
100
AcDbModelDocViewStyle
 70
     0
  3
Imperial24
290
     0
100
AcDbDetailViewStyle
 70
     0
 71
     0
 90
        3
 71
     1
340
A5A5
 40
0.24
340
0
 40
0.24
300

 40
0.36
280
     3
 71
     2
340
A5A9
 90
       25
 71
     3
340
A5A5
 40
0.24
 90
        1
 40
0.75
 90
        1
300
%<\AcVar ViewType \f "%tc1">% %<\AcVar ViewDetailId>%\PSCALE %<\AcVar ViewScale \f "%sn">%
 71
     4
340
A5A9
 90
       25
340
A5A9
 90
       25
280
     0
  0
LAYOUT
  5
AB65
102
{ACAD_XDICTIONARY
360
ABC1
102
}
102
{ACAD_REACTORS
330
A5AD
102
}
330
A5AD
100
AcDbPlotSettings
  1

  2
Canon LBP9100C
  4

  6

 40
0.0
 41
0.0
 42
0.0
 43
0.0
 44
0.0
 45
0.0
 46
0.0
 47
0.0
 48
0.0
 49
0.0
140
0.0
141
0.0
142
1.0
143
1.0
 70
  1712
 72
     0
 73
     0
 74
     0
  7

 75
     0
147
1.0
148
0.0
149
0.0
100
AcDbLayout
  1
Model
 70
     1
 71
     0
 10
0.0
 20
0.0
 11
12.0
 21
9.0
 12
0.0
 22
0.0
 32
0.0
 14
0.0
 24
0.0
 34
0.0
 15
0.0
 25
0.0
 35
0.0
146
0.0
 13
0.0
 23
0.0
 33
0.0
 16
1.0
 26
0.0
 36
0.0
 17
0.0
 27
1.0
 37
0.0
 76
     0
330
A5B2
331
AB10
  0
LAYOUT
  5
AB66
102
{ACAD_XDICTIONARY
360
ABC3
102
}
102
{ACAD_REACTORS
330
A5AD
102
}
330
A5AD
100
AcDbPlotSettings
  1

  2
Canon LBP9100C
  4

  6

 40
0.0
 41
0.0
 42
0.0
 43
0.0
 44
0.0
 45
0.0
 46
0.0
 47
0.0
 48
0.0
 49
0.0
140
0.0
141
0.0
142
1.0
143
1.0
 70
   688
 72
     0
 73
     0
 74
     5
  7

 75
    16
147
1.0
148
0.0
149
0.0
100
AcDbLayout
  1
レイアウト1
 70
     0
 71
     1
 10
0.0
 20
0.0
 11
420.0
 21
297.0
 12
0.0
 22
0.0
 32
0.0
 14
1.000000000000000E+20
 24
1.000000000000000E+20
 34
1.000000000000000E+20
 15
-1.000000000000000E+20
 25
-1.000000000000000E+20
 35
-1.000000000000000E+20
146
0.0
 13
0.0
 23
0.0
 33
0.0
 16
1.0
 26
0.0
 36
0.0
 17
0.0
 27
1.0
 37
0.0
 76
     0
330
A5AE
  0
MATERIAL
  5
AB21
102
{ACAD_XDICTIONARY
360
AB22
102
}
102
{ACAD_REACTORS
330
AB18
102
}
330
AB18
100
AcDbMaterial
  1
ByBlock
 72
     0
 43
0.0208333333333333
 43
0.0
 43
0.0
 43
0.0
 43
0.0
 43
0.0208333333333333
 43
0.0
 43
0.0
 43
0.0
 43
0.0
 43
1.0
 43
0.0
 43
0.0
 43
0.0
 43
0.0
 43
1.0
 77
     0
 47
0.0208333333333333
 47
0.0
 47
0.0
 47
0.0
 47
0.0
 47
0.0208333333333333
 47
0.0
 47
0.0
 47
0.0
 47
0.0
 47
1.0
 47
0.0
 47
0.0
 47
0.0
 47
0.0
 47
1.0
171
     0
 49
0.0208333333333333
 49
0.0
 49
0.0
 49
0.0
 49
0.0
 49
0.0208333333333333
 49
0.0
 49
0.0
 49
0.0
 49
0.0
 49
1.0
 49
0.0
 49
0.0
 49
0.0
 49
0.0
 49
1.0
175
     0
142
0.0208333333333333
142
0.0
142
0.0
142
0.0
142
0.0
142
0.0208333333333333
142
0.0
142
0.0
142
0.0
142
0.0
142
1.0
142
0.0
142
0.0
142
0.0
142
0.0
142
1.0
179
     0
144
0.0208333333333333
144
0.0
144
0.0
144
0.0
144
0.0
144
0.0208333333333333
144
0.0
144
0.0
144
0.0
144
0.0
144
1.0
144
0.0
144
0.0
144
0.0
144
0.0
144
1.0
147
0.0208333333333333
147
0.0
147
0.0
147
0.0
147
0.0
147
0.0208333333333333
147
0.0
147
0.0
147
0.0
147
0.0
147
1.0
147
0.0
147
0.0
147
0.0
147
0.0
147
1.0
  0
MATERIAL
  5
AB19
102
{ACAD_XDICTIONARY
360
AB1A
102
}
102
{ACAD_REACTORS
330
AB18
102
}
330
AB18
100
AcDbMaterial
  1
ByLayer
 72
     0
 43
0.0208333333333333
 43
0.0
 43
0.0
 43
0.0
 43
0.0
 43
0.0208333333333333
 43
0.0
 43
0.0
 43
0.0
 43
0.0
 43
1.0
 43
0.0
 43
0.0
 43
0.0
 43
0.0
 43
1.0
 77
     0
 47
0.0208333333333333
 47
0.0
 47
0.0
 47
0.0
 47
0.0
 47
0.0208333333333333
 47
0.0
 47
0.0
 47
0.0
 47
0.0
 47
1.0
 47
0.0
 47
0.0
 47
0.0
 47
0.0
 47
1.0
171
     0
 49
0.0208333333333333
 49
0.0
 49
0.0
 49
0.0
 49
0.0
 49
0.0208333333333333
 49
0.0
 49
0.0
 49
0.0
 49
0.0
 49
1.0
 49
0.0
 49
0.0
 49
0.0
 49
0.0
 49
1.0
175
     0
142
0.0208333333333333
142
0.0
142
0.0
142
0.0
142
0.0
142
0.0208333333333333
142
0.0
142
0.0
142
0.0
142
0.0
142
1.0
142
0.0
142
0.0
142
0.0
142
0.0
142
1.0
179
     0
144
0.0208333333333333
144
0.0
144
0.0
144
0.0
144
0.0
144
0.0208333333333333
144
0.0
144
0.0
144
0.0
144
0.0
144
1.0
144
0.0
144
0.0
144
0.0
144
0.0
144
1.0
147
0.0208333333333333
147
0.0
147
0.0
147
0.0
147
0.0
147
0.0208333333333333
147
0.0
147
0.0
147
0.0
147
0.0
147
1.0
147
0.0
147
0.0
147
0.0
147
0.0
147
1.0
  0
MATERIAL
  5
AB29
102
{ACAD_XDICTIONARY
360
AB2A
102
}
102
{ACAD_REACTORS
330
AB18
102
}
330
AB18
100
AcDbMaterial
  1
Global
 72
     0
 43
0.0208333333333333
 43
0.0
 43
0.0
 43
0.0
 43
0.0
 43
0.0208333333333333
 43
0.0
 43
0.0
 43
0.0
 43
0.0
 43
1.0
 43
0.0
 43
0.0
 43
0.0
 43
0.0
 43
1.0
 77
     0
 47
0.0208333333333333
 47
0.0
 47
0.0
 47
0.0
 47
0.0
 47
0.0208333333333333
 47
0.0
 47
0.0
 47
0.0
 47
0.0
 47
1.0
 47
0.0
 47
0.0
 47
0.0
 47
0.0
 47
1.0
171
     0
 49
0.0208333333333333
 49
0.0
 49
0.0
 49
0.0
 49
0.0
 49
0.0208333333333333
 49
0.0
 49
0.0
 49
0.0
 49
0.0
 49
1.0
 49
0.0
 49
0.0
 49
0.0
 49
0.0
 49
1.0
175
     0
142
0.0208333333333333
142
0.0
142
0.0
142
0.0
142
0.0
142
0.0208333333333333
142
0.0
142
0.0
142
0.0
142
0.0
142
1.0
142
0.0
142
0.0
142
0.0
142
0.0
142
1.0
179
     0
144
0.0208333333333333
144
0.0
144
0.0
144
0.0
144
0.0
144
0.0208333333333333
144
0.0
144
0.0
144
0.0
144
0.0
144
1.0
144
0.0
144
0.0
144
0.0
144
0.0
144
1.0
147
0.0208333333333333
147
0.0
147
0.0
147
0.0
147
0.0
147
0.0208333333333333
147
0.0
147
0.0
147
0.0
147
0.0
147
1.0
147
0.0
147
0.0
147
0.0
147
0.0
147
1.0
  0
MLEADERSTYLE
  5
AB60
102
{ACAD_REACTORS
330
AB5F
102
}
330
AB5F
100
AcDbMLeaderStyle
170
     2
171
     1
172
     0
 90
        2
 40
0.0
 41
0.0
173
     1
 91
-1056964608
340
A5A7
 92
       -2
290
     1
 42
0.09
291
     1
 43
0.36
  3
Standard
 44
0.18
300

342
A5A5
174
     1
178
     6
175
     1
176
     0
 93
-1056964608
 45
0.18
292
     0
297
     0
 46
0.18
 94
-1056964608
 47
1.0
 49
1.0
140
1.0
293
     1
141
0.0
294
     1
177
     0
142
1.0
295
     0
296
     0
143
0.125
1001
ACAD_MLEADERVER
1070
     2
  0
MLINESTYLE
  5
A5AB
102
{ACAD_REACTORS
330
A5AA
102
}
330
A5AA
100
AcDbMlineStyle
  2
STANDARD
 70
     0
  3

 62
   256
 51
90.0
 52
90.0
 71
     2
 49
0.5
 62
   256
  6
BYLAYER
 49
-0.5
 62
   256
  6
BYLAYER
  0
ACDBPLACEHOLDER
  5
AB17
102
{ACAD_REACTORS
330
AB16
102
}
330
AB16
  0
SCALE
  5
AB4E
102
{ACAD_REACTORS
330
AB4D
102
}
330
AB4D
100
AcDbScale
 70
     0
300
1:1
140
1.0
141
1.0
290
     1
  0
SCALE
  5
AB4F
102
{ACAD_REACTORS
330
AB4D
102
}
330
AB4D
100
AcDbScale
 70
     0
300
1/128" = 1'-0"
140
0.0078125
141
12.0
290
     0
  0
SCALE
  5
AB50
102
{ACAD_REACTORS
330
AB4D
102
}
330
AB4D
100
AcDbScale
 70
     0
300
1/64" = 1'-0"
140
0.015625
141
12.0
290
     0
  0
SCALE
  5
AB51
102
{ACAD_REACTORS
330
AB4D
102
}
330
AB4D
100
AcDbScale
 70
     0
300
1/32" = 1'-0"
140
0.03125
141
12.0
290
     0
  0
SCALE
  5
AB52
102
{ACAD_REACTORS
330
AB4D
102
}
330
AB4D
100
AcDbScale
 70
     0
300
1/16" = 1'-0"
140
0.0625
141
12.0
290
     0
  0
SCALE
  5
AB53
102
{ACAD_REACTORS
330
AB4D
102
}
330
AB4D
100
AcDbScale
 70
     0
300
3/32" = 1'-0"
140
0.09375
141
12.0
290
     0
  0
SCALE
  5
AB54
102
{ACAD_REACTORS
330
AB4D
102
}
330
AB4D
100
AcDbScale
 70
     0
300
1/8" = 1'-0"
140
0.125
141
12.0
290
     0
  0
SCALE
  5
AB55
102
{ACAD_REACTORS
330
AB4D
102
}
330
AB4D
100
AcDbScale
 70
     0
300
3/16" = 1'-0"
140
0.1875
141
12.0
290
     0
  0
SCALE
  5
AB56
102
{ACAD_REACTORS
330
AB4D
102
}
330
AB4D
100
AcDbScale
 70
     0
300
1/4" = 1'-0"
140
0.25
141
12.0
290
     0
  0
SCALE
  5
AB57
102
{ACAD_REACTORS
330
AB4D
102
}
330
AB4D
100
AcDbScale
 70
     0
300
3/8" = 1'-0"
140
0.375
141
12.0
290
     0
  0
SCALE
  5
AB58
102
{ACAD_REACTORS
330
AB4D
102
}
330
AB4D
100
AcDbScale
 70
     0
300
1/2" = 1'-0"
140
0.5
141
12.0
290
     0
  0
SCALE
  5
AB59
102
{ACAD_REACTORS
330
AB4D
102
}
330
AB4D
100
AcDbScale
 70
     0
300
3/4" = 1'-0"
140
0.75
141
12.0
290
     0
  0
SCALE
  5
AB5A
102
{ACAD_REACTORS
330
AB4D
102
}
330
AB4D
100
AcDbScale
 70
     0
300
1" = 1'-0"
140
1.0
141
12.0
290
     0
  0
SCALE
  5
AB5B
102
{ACAD_REACTORS
330
AB4D
102
}
330
AB4D
100
AcDbScale
 70
     0
300
1-1/2" = 1'-0"
140
1.5
141
12.0
290
     0
  0
SCALE
  5
AB5C
102
{ACAD_REACTORS
330
AB4D
102
}
330
AB4D
100
AcDbScale
 70
     0
300
3" = 1'-0"
140
3.0
141
12.0
290
     0
  0
SCALE
  5
AB5D
102
{ACAD_REACTORS
330
AB4D
102
}
330
AB4D
100
AcDbScale
 70
     0
300
6" = 1'-0"
140
6.0
141
12.0
290
     0
  0
SCALE
  5
AB5E
102
{ACAD_REACTORS
330
AB4D
102
}
330
AB4D
100
AcDbScale
 70
     0
300
1'-0" = 1'-0"
140
12.0
141
12.0
290
     0
  0
ACDBSECTIONVIEWSTYLE
  5
AB62
102
{ACAD_XDICTIONARY
360
ABBD
102
}
102
{ACAD_REACTORS
330
AB61
102
}
330
AB61
100
AcDbModelDocViewStyle
 70
     0
  3
Imperial24
290
     0
100
AcDbSectionViewStyle
 70
     0
 71
     0
 90
       78
 71
     1
340
A5A5
 40
0.24
340
0
340
0
 40
0.24
300
I, O, Q, S, X, Z
 40
0.48
 90
        3
 40
0.18
 90
        1
 71
     2
340
A5A9
 90
       25
340
A5A9
 90
       50
 40
0.24
 40
0.0
 40
0.24
 71
     3
340
A5A5
 40
0.24
 90
        1
 40
0.75
 90
        1
300
%<\AcVar ViewType \f "%tc1">% %<\AcVar ViewSectionStartId>%-%<\AcVar ViewSectionEndId>%\PSCALE %<\AcVar ViewScale \f "%sn">%
 71
     4
300
ANSI31
 40
1.0
 90
        0
290
     0
290
     0
 90
        6
 40
0.0
 40
1.570796326794896
 40
0.2617993877991494
 40
1.308996938995747
 40
-0.2617993877991494
 40
1.832595714594046
  0
TABLESTYLE
  5
AB4C
102
{ACAD_XDICTIONARY
360
AB84
102
}
102
{ACAD_REACTORS
330
AB4B
102
}
330
AB4B
100
AcDbTableStyle
  3
Standard
 70
     0
 71
     0
 40
0.06
 41
0.06
280
     0
281
     0
  7
STANDARD
140
0.18
170
     2
 62
     0
 63
     7
283
     0
274
    -2
284
     1
 64
     0
275
    -2
285
     1
 65
     0
276
    -2
286
     1
 66
     0
277
    -2
287
     1
 67
     0
278
    -2
288
     1
 68
     0
279
    -2
289
     1
 69
     0
  7
STANDARD
140
0.25
170
     5
 62
     0
 63
     7
283
     0
274
    -2
284
     1
 64
     0
275
    -2
285
     1
 65
     0
276
    -2
286
     1
 66
     0
277
    -2
287
     1
 67
     0
278
    -2
288
     1
 68
     0
279
    -2
289
     1
 69
     0
  7
STANDARD
140
0.18
170
     5
 62
     0
 63
     7
283
     0
274
    -2
284
     1
 64
     0
275
    -2
285
     1
 65
     0
276
    -2
286
     1
 66
     0
277
    -2
287
     1
 67
     0
278
    -2
288
     1
 68
     0
279
    -2
289
     1
 69
     0
  0
VISUALSTYLE
  5
AB37
102
{ACAD_XDICTIONARY
360
AB95
102
}
102
{ACAD_REACTORS
330
AB31
102
}
330
AB31
100
AcDbVisualStyle
  2
2dWireframe
 70
     4
 71
     0
 72
     2
 73
     0
 90
        0
 40
-0.6
 41
-30.0
 62
     5
 63
     7
 74
     1
 91
        4
 64
     7
 65
   257
 75
     1
175
     1
 42
1.0
 92
        0
 66
   257
 43
1.0
 76
     1
 77
     6
 78
     2
 67
     7
 79
     5
170
     0
171
     0
290
     0
174
     0
 93
        1
 44
0.0
173
     0
291
     0
 45
0.0
1001
ACAD
1000
AcDbSavedByObjectVersion
1070
     0
  0
VISUALSTYLE
  5
AB36
102
{ACAD_XDICTIONARY
360
AB93
102
}
102
{ACAD_REACTORS
330
AB31
102
}
330
AB31
100
AcDbVisualStyle
  2
Basic
 70
     7
 71
     1
 72
     0
 73
     1
 90
        0
 40
-0.6
 41
-30.0
 62
     5
 63
     7
 74
     0
 91
        4
 64
     7
 65
   257
 75
     1
175
     1
 42
1.0
 92
        8
 66
     7
 43
1.0
 76
     1
 77
     6
 78
     2
 67
     7
 79
     5
170
     0
171
     0
290
     0
174
     0
 93
        1
 44
0.0
173
     0
291
     1
 45
0.0
1001
ACAD
1000
AcDbSavedByObjectVersion
1070
     0
  0
VISUALSTYLE
  5
AB3D
102
{ACAD_XDICTIONARY
360
ABA1
102
}
102
{ACAD_REACTORS
330
AB31
102
}
330
AB31
100
AcDbVisualStyle
  2
Brighten
 70
    12
 71
     2
 72
     2
 73
     0
 90
        0
 40
-0.6
 41
-30.0
 62
     5
 63
     7
 74
     1
 91
        4
 64
     7
 65
   257
 75
     1
175
     1
 42
1.0
 92
        8
 66
     7
 43
1.0
 76
     1
 77
     6
 78
     2
 67
     7
 79
     5
170
     0
171
     0
290
     0
174
     0
 93
        1
 44
50.0
173
     0
291
     1
 45
0.0
1001
ACAD
1000
AcDbSavedByObjectVersion
1070
     0
  0
VISUALSTYLE
  5
AB41
102
{ACAD_XDICTIONARY
360
ABA9
102
}
102
{ACAD_REACTORS
330
AB31
102
}
330
AB31
100
AcDbVisualStyle
  2
ColorChange
 70
    16
 71
     2
 72
     2
 73
     3
 90
        0
 40
-0.6
 41
-30.0
 62
     5
 63
     8
 74
     1
 91
        4
 64
     7
 65
   257
 75
     1
175
     1
 42
1.0
 92
        8
 66
     8
 43
1.0
 76
     1
 77
     6
 78
     2
 67
     7
 79
     5
170
     0
171
     0
290
     0
174
     0
 93
        1
 44
0.0
173
     0
291
     1
 45
0.0
1001
ACAD
1000
AcDbSavedByObjectVersion
1070
     0
  0
VISUALSTYLE
  5
AB3A
102
{ACAD_XDICTIONARY
360
AB9B
102
}
102
{ACAD_REACTORS
330
AB31
102
}
330
AB31
100
AcDbVisualStyle
  2
Conceptual
 70
     9
 71
     3
 72
     2
 73
     0
 90
        0
 40
-0.6
 41
-30.0
 62
     5
 63
     7
 74
     2
 91
        2
 64
     7
 65
   257
 75
     1
175
     1
 42
179.0
 92
        8
 66
     7
 43
1.0
 76
     1
 77
     6
 78
     2
 67
     7
 79
     3
170
     0
171
     0
290
     0
174
     0
 93
        1
 44
0.0
173
     0
291
     0
 45
0.0
1001
ACAD
1000
AcDbSavedByObjectVersion
1070
     0
  0
VISUALSTYLE
  5
AB3C
102
{ACAD_XDICTIONARY
360
AB9F
102
}
102
{ACAD_REACTORS
330
AB31
102
}
330
AB31
100
AcDbVisualStyle
  2
Dim
 70
    11
 71
     2
 72
     2
 73
     0
 90
        0
 40
-0.6
 41
-30.0
 62
     5
 63
     7
 74
     1
 91
        4
 64
     7
 65
   257
 75
     1
175
     1
 42
1.0
 92
        8
 66
     7
 43
1.0
 76
     1
 77
     6
 78
     2
 67
     7
 79
     5
170
     0
171
     0
290
     0
174
     0
 93
        1
 44
-50.0
173
     0
291
     1
 45
0.0
1001
ACAD
1000
AcDbSavedByObjectVersion
1070
     0
  0
VISUALSTYLE
  5
AB49
102
{ACAD_XDICTIONARY
360
ABB9
102
}
102
{ACAD_REACTORS
330
AB31
102
}
330
AB31
100
AcDbVisualStyle
  2
EdgeColorOff
 70
    22
 71
     2
 72
     2
 73
     0
 90
        0
 40
-0.6
 41
-30.0
 62
     5
 63
     7
 74
     1
 91
        4
 64
     7
 65
   257
 75
     1
175
     1
 42
1.0
 92
        8
 66
     7
 43
1.0
 76
     1
 77
     6
 78
     2
 67
     7
 79
     5
170
     0
171
     0
290
     0
174
     0
 93
        1
 44
0.0
173
     0
291
     1
 45
0.0
1001
ACAD
1000
AcDbSavedByObjectVersion
1070
     0
  0
VISUALSTYLE
  5
AB40
102
{ACAD_XDICTIONARY
360
ABA7
102
}
102
{ACAD_REACTORS
330
AB31
102
}
330
AB31
100
AcDbVisualStyle
  2
Facepattern
 70
    15
 71
     2
 72
     2
 73
     0
 90
        0
 40
-0.6
 41
-30.0
 62
     5
 63
     7
 74
     1
 91
        4
 64
     7
 65
   257
 75
     1
175
     1
 42
1.0
 92
        8
 66
     7
 43
1.0
 76
     1
 77
     6
 78
     2
 67
     7
 79
     5
170
     0
171
     0
290
     0
174
     0
 93
        1
 44
0.0
173
     0
291
     1
 45
0.0
1001
ACAD
1000
AcDbSavedByObjectVersion
1070
     0
  0
VISUALSTYLE
  5
AB32
102
{ACAD_XDICTIONARY
360
AB8B
102
}
102
{ACAD_REACTORS
330
AB31
102
}
330
AB31
100
AcDbVisualStyle
  2
Flat
 70
     0
 71
     2
 72
     1
 73
     1
 90
        2
 40
-0.6
 41
30.0
 62
     5
 63
     7
 74
     0
 91
        0
 64
     7
 65
   257
 75
     1
175
     1
 42
1.0
 92
        8
 66
     7
 43
1.0
 76
     1
 77
     6
 78
     2
 67
     7
 79
     5
170
     0
171
     0
290
     0
174
     0
 93
       13
 44
0.0
173
     0
291
     1
 45
0.0
1001
ACAD
1000
AcDbSavedByObjectVersion
1070
     0
  0
VISUALSTYLE
  5
AB33
102
{ACAD_XDICTIONARY
360
AB8D
102
}
102
{ACAD_REACTORS
330
AB31
102
}
330
AB31
100
AcDbVisualStyle
  2
FlatWithEdges
 70
     1
 71
     2
 72
     1
 73
     1
 90
        2
 40
-0.6
 41
30.0
 62
     5
 63
     7
 74
     1
 91
        0
 64
     7
 65
   257
 75
     1
175
     1
 42
1.0
 92
        0
 66
   257
 43
1.0
 76
     1
 77
     6
 78
     2
 67
     7
 79
     5
170
     0
171
     0
290
     0
174
     0
 93
       13
 44
0.0
173
     0
291
     1
 45
0.0
1001
ACAD
1000
AcDbSavedByObjectVersion
1070
     0
  0
VISUALSTYLE
  5
AB34
102
{ACAD_XDICTIONARY
360
AB8F
102
}
102
{ACAD_REACTORS
330
AB31
102
}
330
AB31
100
AcDbVisualStyle
  2
Gouraud
 70
     2
 71
     2
 72
     2
 73
     1
 90
        2
 40
-0.6
 41
30.0
 62
     5
 63
     7
 74
     0
 91
        0
 64
     7
 65
   257
 75
     1
175
     1
 42
1.0
 92
        0
 66
     7
 43
1.0
 76
     1
 77
     6
 78
     2
 67
     7
 79
     5
170
     0
171
     0
290
     0
174
     0
 93
       13
 44
0.0
173
     0
291
     1
 45
0.0
1001
ACAD
1000
AcDbSavedByObjectVersion
1070
     0
  0
VISUALSTYLE
  5
AB35
102
{ACAD_XDICTIONARY
360
AB91
102
}
102
{ACAD_REACTORS
330
AB31
102
}
330
AB31
100
AcDbVisualStyle
  2
GouraudWithEdges
 70
     3
 71
     2
 72
     2
 73
     1
 90
        2
 40
-0.6
 41
30.0
 62
     5
 63
     7
 74
     1
 91
        0
 64
     7
 65
   257
 75
     1
175
     1
 42
1.0
 92
        0
 66
   257
 43
1.0
 76
     1
 77
     6
 78
     2
 67
     7
 79
     5
170
     0
171
     0
290
     0
174
     0
 93
       13
 44
0.0
173
     0
291
     1
 45
0.0
1001
ACAD
1000
AcDbSavedByObjectVersion
1070
     0
  0
VISUALSTYLE
  5
AB39
102
{ACAD_XDICTIONARY
360
AB99
102
}
102
{ACAD_REACTORS
330
AB31
102
}
330
AB31
100
AcDbVisualStyle
  2
Hidden
 70
     6
 71
     1
 72
     2
 73
     2
 90
        0
 40
-0.6
 41
-30.0
 62
     5
 63
     7
 74
     2
 91
        2
 64
     7
 65
   257
 75
     2
175
     1
 42
40.0
 92
        0
 66
   257
 43
1.0
 76
     1
 77
     6
 78
     2
 67
     7
 79
     3
170
     0
171
     0
290
     0
174
     0
 93
        1
 44
0.0
173
     0
291
     0
 45
0.0
1001
ACAD
1000
AcDbSavedByObjectVersion
1070
     0
  0
VISUALSTYLE
  5
AB47
102
{ACAD_XDICTIONARY
360
ABB5
102
}
102
{ACAD_REACTORS
330
AB31
102
}
330
AB31
100
AcDbVisualStyle
  2
JitterOff
 70
    20
 71
     2
 72
     2
 73
     0
 90
        0
 40
-0.6
 41
-30.0
 62
     5
 63
     7
 74
     1
 91
        4
 64
     7
 65
   257
 75
     1
175
     1
 42
1.0
 92
       10
 66
     7
 43
1.0
 76
     1
 77
     6
 78
     2
 67
     7
 79
     5
170
     0
171
     0
290
     0
174
     0
 93
        1
 44
0.0
173
     0
291
     1
 45
0.0
1001
ACAD
1000
AcDbSavedByObjectVersion
1070
     0
  0
VISUALSTYLE
  5
AB3F
102
{ACAD_XDICTIONARY
360
ABA5
102
}
102
{ACAD_REACTORS
330
AB31
102
}
330
AB31
100
AcDbVisualStyle
  2
Linepattern
 70
    14
 71
     2
 72
     2
 73
     0
 90
        0
 40
-0.6
 41
-30.0
 62
     5
 63
     7
 74
     1
 91
        4
 64
     7
 65
   257
 75
     7
175
     7
 42
1.0
 92
        8
 66
     7
 43
1.0
 76
     1
 77
     6
 78
     2
 67
     7
 79
     5
170
     0
171
     0
290
     0
174
     0
 93
        1
 44
0.0
173
     0
291
     1
 45
0.0
1001
ACAD
1000
AcDbSavedByObjectVersion
1070
     0
  0
VISUALSTYLE
  5
AB48
102
{ACAD_XDICTIONARY
360
ABB7
102
}
102
{ACAD_REACTORS
330
AB31
102
}
330
AB31
100
AcDbVisualStyle
  2
OverhangOff
 70
    21
 71
     2
 72
     2
 73
     0
 90
        0
 40
-0.6
 41
-30.0
 62
     5
 63
     7
 74
     1
 91
        4
 64
     7
 65
   257
 75
     1
175
     1
 42
1.0
 92
        9
 66
     7
 43
1.0
 76
     1
 77
     6
 78
     2
 67
     7
 79
     5
170
     0
171
     0
290
     0
174
     0
 93
        1
 44
0.0
173
     0
291
     1
 45
0.0
1001
ACAD
1000
AcDbSavedByObjectVersion
1070
     0
  0
VISUALSTYLE
  5
AB3B
102
{ACAD_XDICTIONARY
360
AB9D
102
}
102
{ACAD_REACTORS
330
AB31
102
}
330
AB31
100
AcDbVisualStyle
  2
Realistic
 70
     8
 71
     2
 72
     3
 73
     0
 90
        2
 40
-0.6
 41
30.0
 62
     5
 63
     7
 74
     0
 91
        0
 64
     7
 65
   257
 75
     1
175
     1
 42
1.0
 92
        8
 66
   257
 43
1.0
 76
     1
 77
     6
 78
     2
 67
     7
 79
     3
170
     0
171
     0
290
     0
174
     0
 93
       13
 44
0.0
173
     0
291
     0
 45
0.0
1001
ACAD
1000
AcDbSavedByObjectVersion
1070
     0
  0
VISUALSTYLE
  5
AB46
102
{ACAD_XDICTIONARY
360
ABB3
102
}
102
{ACAD_REACTORS
330
AB31
102
}
330
AB31
100
AcDbVisualStyle
  2
Shaded
 70
    27
 71
     2
 72
     2
 73
     1
 90
        2
 40
-0.6
 41
30.0
 62
     5
 63
     7
 74
     0
 91
        4
 64
     7
 65
   257
 75
     1
175
     1
 42
1.0
 92
        8
 66
   257
 43
1.0
 76
     1
 77
     6
 78
     2
 67
     8
 79
     3
170
     0
171
     0
290
     0
174
     0
 93
        5
 44
0.0
173
     0
291
     0
 45
0.0
1001
ACAD
1000
AcDbSavedByObjectVersion
1070
     0
  0
VISUALSTYLE
  5
AB45
102
{ACAD_XDICTIONARY
360
ABB1
102
}
102
{ACAD_REACTORS
330
AB31
102
}
330
AB31
100
AcDbVisualStyle
  2
Shaded with edges
 70
    26
 71
     2
 72
     2
 73
     1
 90
        2
 40
-0.6
 41
30.0
 62
     5
 63
     7
 74
     1
 91
       10
 64
     7
 65
   257
 75
     2
175
     1
 42
1.0
 92
        8
 66
   257
 43
1.0
 76
     1
 77
     6
 78
     2
 67
     7
 79
     3
170
     0
171
     0
290
     0
174
     0
 93
        5
 44
0.0
173
     0
291
     0
 45
0.0
1001
ACAD
1000
AcDbSavedByObjectVersion
1070
     0
  0
VISUALSTYLE
  5
AB42
102
{ACAD_XDICTIONARY
360
ABAB
102
}
102
{ACAD_REACTORS
330
AB31
102
}
330
AB31
100
AcDbVisualStyle
  2
Shades of Gray
 70
    23
 71
     2
 72
     2
 73
     3
 90
        0
 40
-0.6
 41
-30.0
 62
     5
 63
     7
 74
     2
 91
        2
 64
     7
 65
     7
 75
     1
175
     1
 42
40.0
 92
        8
 66
     7
 43
1.0
 76
     1
 77
     6
 78
     2
 67
     7
 79
     3
170
     0
171
     0
290
     0
174
     0
 93
        1
 44
0.0
173
     0
291
     0
 45
0.0
1001
ACAD
1000
AcDbSavedByObjectVersion
1070
     0
  0
VISUALSTYLE
  5
AB43
102
{ACAD_XDICTIONARY
360
ABAD
102
}
102
{ACAD_REACTORS
330
AB31
102
}
330
AB31
100
AcDbVisualStyle
  2
Sketchy
 70
    24
 71
     1
 72
     2
 73
     2
 90
        0
 40
-0.6
 41
-30.0
 62
     5
 63
     7
 74
     2
 91
        2
 64
     7
 65
     7
 75
     1
175
     1
 42
40.0
 92
       11
 66
     7
 43
1.0
 76
     1
 77
     6
 78
     2
 67
     7
 79
     6
170
     0
171
     0
290
     0
174
     0
 93
        1
 44
0.0
173
     0
291
     0
 45
0.0
1001
ACAD
1000
AcDbSavedByObjectVersion
1070
     0
  0
VISUALSTYLE
  5
AB3E
102
{ACAD_XDICTIONARY
360
ABA3
102
}
102
{ACAD_REACTORS
330
AB31
102
}
330
AB31
100
AcDbVisualStyle
  2
Thicken
 70
    13
 71
     2
 72
     2
 73
     0
 90
        0
 40
-0.6
 41
-30.0
 62
     5
 63
     7
 74
     1
 91
        4
 64
     7
 65
   257
 75
     1
175
     1
 42
1.0
 92
       12
 66
     7
 43
1.0
 76
     1
 77
     6
 78
     2
 67
     7
 79
     5
170
     0
171
     0
290
     0
174
     0
 93
        1
 44
0.0
173
     0
291
     1
 45
0.0
1001
ACAD
1000
AcDbSavedByObjectVersion
1070
     0
  0
VISUALSTYLE
  5
AB38
102
{ACAD_XDICTIONARY
360
AB97
102
}
102
{ACAD_REACTORS
330
AB31
102
}
330
AB31
100
AcDbVisualStyle
  2
Wireframe
 70
     5
 71
     0
 72
     2
 73
     0
 90
        0
 40
-0.6
 41
-30.0
 62
     5
 63
     7
 74
     1
 91
        4
 64
     7
 65
   257
 75
     1
175
     1
 42
1.0
 92
        0
 66
   257
 43
1.0
 76
     1
 77
     6
 78
     2
 67
     7
 79
     3
170
     0
171
     0
290
     0
174
     0
 93
        1
 44
0.0
173
     0
291
     0
 45
0.0
1001
ACAD
1000
AcDbSavedByObjectVersion
1070
     0
  0
VISUALSTYLE
  5
AB44
102
{ACAD_XDICTIONARY
360
ABAF
102
}
102
{ACAD_REACTORS
330
AB31
102
}
330
AB31
100
AcDbVisualStyle
  2
X-Ray
 70
    25
 71
     2
 72
     2
 73
     1
 90
        1
 40
0.5
 41
-30.0
 62
     5
 63
     7
 74
     1
 91
        0
 64
     7
 65
   257
 75
     1
175
     1
 42
1.0
 92
        8
 66
     7
 43
1.0
 76
     1
 77
     6
 78
     2
 67
     7
 79
     3
170
     0
171
     0
290
     0
174
     0
 93
       13
 44
0.0
173
     0
291
     0
 45
0.0
1001
ACAD
1000
AcDbSavedByObjectVersion
1070
     0
  0
DICTIONARYVAR
  5
AB7E
102
{ACAD_REACTORS
330
AB79
102
}
330
AB79
100
DictionaryVariables
280
     0
  1
1:1
  0
DICTIONARYVAR
  5
AB7B
102
{ACAD_REACTORS
330
AB79
102
}
330
AB79
100
DictionaryVariables
280
     0
  1
STANDARD
  0
DICTIONARYVAR
  5
AB7A
102
{ACAD_REACTORS
330
AB79
102
}
330
AB79
100
DictionaryVariables
280
     0
  1
STANDARD
  0
DICTIONARYVAR
  5
AB7C
102
{ACAD_REACTORS
330
AB79
102
}
330
AB79
100
DictionaryVariables
280
     0
  1
Imperial24
  0
DICTIONARYVAR
  5
AB7D
102
{ACAD_REACTORS
330
AB79
102
}
330
AB79
100
DictionaryVariables
280
     0
  1
Imperial24
  0
DICTIONARYVAR
  5
AB81
102
{ACAD_REACTORS
330
AB79
102
}
330
AB79
100
DictionaryVariables
280
     0
  1
1
  0
DICTIONARYVAR
  5
AB80
102
{ACAD_REACTORS
330
AB79
102
}
330
AB79
100
DictionaryVariables
280
     0
  1
0
  0
DICTIONARYVAR
  5
AB7F
102
{ACAD_REACTORS
330
AB79
102
}
330
AB79
100
DictionaryVariables
280
     0
  1
127
  0
DICTIONARYVAR
  5
AB82
102
{ACAD_REACTORS
330
AB79
102
}
330
AB79
100
DictionaryVariables
280
     0
  1
2
  0
DICTIONARY
  5
ABBF
330
AB64
100
AcDbDictionary
280
     1
281
     1
  3
ACAD_XREC_ROUNDTRIP
360
ABC0
  0
DICTIONARY
  5
ABC1
330
AB65
100
AcDbDictionary
280
     1
281
     1
  3
ACAD_XREC_ROUNDTRIP
360
ABC2
  0
DICTIONARY
  5
ABC3
330
AB66
100
AcDbDictionary
280
     1
281
     1
  3
ACAD_XREC_ROUNDTRIP
360
ABC4
  0
DICTIONARY
  5
AB22
330
AB21
100
AcDbDictionary
280
     1
281
     1
  3
ACAD_XREC_ROUNDTRIP
360
AB89
  3
BUMPTILE
360
AB24
  3
DIFFUSETILE
360
AB23
  3
OPACITYTILE
360
AB27
  3
REFLECTIONTILE
360
AB26
  3
REFRACTIONTILE
360
AB28
  3
SPECULARTILE
360
AB25
  0
DICTIONARY
  5
AB1A
330
AB19
100
AcDbDictionary
280
     1
281
     1
  3
ACAD_XREC_ROUNDTRIP
360
AB88
  3
BUMPTILE
360
AB1C
  3
DIFFUSETILE
360
AB1B
  3
OPACITYTILE
360
AB1F
  3
REFLECTIONTILE
360
AB1E
  3
REFRACTIONTILE
360
AB20
  3
SPECULARTILE
360
AB1D
  0
DICTIONARY
  5
AB2A
330
AB29
100
AcDbDictionary
280
     1
281
     1
  3
ACAD_XREC_ROUNDTRIP
360
AB8A
  3
BUMPTILE
360
AB2C
  3
DIFFUSETILE
360
AB2B
  3
OPACITYTILE
360
AB2F
  3
REFLECTIONTILE
360
AB2E
  3
REFRACTIONTILE
360
AB30
  3
SPECULARTILE
360
AB2D
  0
DICTIONARY
  5
ABBD
330
AB62
100
AcDbDictionary
280
     1
281
     1
  3
ACAD_XREC_ROUNDTRIP
360
ABBE
  0
DICTIONARY
  5
AB84
330
AB4C
100
AcDbDictionary
280
     1
281
     1
  3
ACAD_ROUNDTRIP_2008_TABLESTYLE_CELLSTYLEMAP
360
AB85
  3
ACAD_XREC_ROUNDTRIP
360
ABBB
  0
DICTIONARY
  5
AB95
330
AB37
100
AcDbDictionary
280
     1
281
     1
  3
ACAD_XREC_ROUNDTRIP
360
AB96
  0
DICTIONARY
  5
AB93
330
AB36
100
AcDbDictionary
280
     1
281
     1
  3
ACAD_XREC_ROUNDTRIP
360
AB94
  0
DICTIONARY
  5
ABA1
330
AB3D
100
AcDbDictionary
280
     1
281
     1
  3
ACAD_XREC_ROUNDTRIP
360
ABA2
  0
DICTIONARY
  5
ABA9
330
AB41
100
AcDbDictionary
280
     1
281
     1
  3
ACAD_XREC_ROUNDTRIP
360
ABAA
  0
DICTIONARY
  5
AB9B
330
AB3A
100
AcDbDictionary
280
     1
281
     1
  3
ACAD_XREC_ROUNDTRIP
360
AB9C
  0
DICTIONARY
  5
AB9F
330
AB3C
100
AcDbDictionary
280
     1
281
     1
  3
ACAD_XREC_ROUNDTRIP
360
ABA0
  0
DICTIONARY
  5
ABB9
330
AB49
100
AcDbDictionary
280
     1
281
     1
  3
ACAD_XREC_ROUNDTRIP
360
ABBA
  0
DICTIONARY
  5
ABA7
330
AB40
100
AcDbDictionary
280
     1
281
     1
  3
ACAD_XREC_ROUNDTRIP
360
ABA8
  0
DICTIONARY
  5
AB8B
330
AB32
100
AcDbDictionary
280
     1
281
     1
  3
ACAD_XREC_ROUNDTRIP
360
AB8C
  0
DICTIONARY
  5
AB8D
330
AB33
100
AcDbDictionary
280
     1
281
     1
  3
ACAD_XREC_ROUNDTRIP
360
AB8E
  0
DICTIONARY
  5
AB8F
330
AB34
100
AcDbDictionary
280
     1
281
     1
  3
ACAD_XREC_ROUNDTRIP
360
AB90
  0
DICTIONARY
  5
AB91
330
AB35
100
AcDbDictionary
280
     1
281
     1
  3
ACAD_XREC_ROUNDTRIP
360
AB92
  0
DICTIONARY
  5
AB99
330
AB39
100
AcDbDictionary
280
     1
281
     1
  3
ACAD_XREC_ROUNDTRIP
360
AB9A
  0
DICTIONARY
  5
ABB5
330
AB47
100
AcDbDictionary
280
     1
281
     1
  3
ACAD_XREC_ROUNDTRIP
360
ABB6
  0
DICTIONARY
  5
ABA5
330
AB3F
100
AcDbDictionary
280
     1
281
     1
  3
ACAD_XREC_ROUNDTRIP
360
ABA6
  0
DICTIONARY
  5
ABB7
330
AB48
100
AcDbDictionary
280
     1
281
     1
  3
ACAD_XREC_ROUNDTRIP
360
ABB8
  0
DICTIONARY
  5
AB9D
330
AB3B
100
AcDbDictionary
280
     1
281
     1
  3
ACAD_XREC_ROUNDTRIP
360
AB9E
  0
DICTIONARY
  5
ABB3
330
AB46
100
AcDbDictionary
280
     1
281
     1
  3
ACAD_XREC_ROUNDTRIP
360
ABB4
  0
DICTIONARY
  5
ABB1
330
AB45
100
AcDbDictionary
280
     1
281
     1
  3
ACAD_XREC_ROUNDTRIP
360
ABB2
  0
DICTIONARY
  5
ABAB
330
AB42
100
AcDbDictionary
280
     1
281
     1
  3
ACAD_XREC_ROUNDTRIP
360
ABAC
  0
DICTIONARY
  5
ABAD
330
AB43
100
AcDbDictionary
280
     1
281
     1
  3
ACAD_XREC_ROUNDTRIP
360
ABAE
  0
DICTIONARY
  5
ABA3
330
AB3E
100
AcDbDictionary
280
     1
281
     1
  3
ACAD_XREC_ROUNDTRIP
360
ABA4
  0
DICTIONARY
  5
AB97
330
AB38
100
AcDbDictionary
280
     1
281
     1
  3
ACAD_XREC_ROUNDTRIP
360
AB98
  0
DICTIONARY
  5
ABAF
330
AB44
100
AcDbDictionary
280
     1
281
     1
  3
ACAD_XREC_ROUNDTRIP
360
ABB0
  0
XRECORD
  5
ABC0
102
{ACAD_REACTORS
330
ABBF
102
}
330
ABBF
100
AcDbXrecord
280
     1
102
DISPLAYNAME
  1
Imperial24
102
FLAGS
 90
        0
  0
XRECORD
  5
ABC2
102
{ACAD_REACTORS
330
ABC1
102
}
330
ABC1
100
AcDbXrecord
280
     1
102
SHADEPLOT
 70
     0
102
SHADEPLOTRESLEVEL
 70
     2
102
SHADEPLOTCUSTOMDPI
 70
   300
  0
XRECORD
  5
ABC4
102
{ACAD_REACTORS
330
ABC3
102
}
330
ABC3
100
AcDbXrecord
280
     1
102
SHADEPLOT
 70
     0
102
SHADEPLOTRESLEVEL
 70
     2
102
SHADEPLOTCUSTOMDPI
 70
   300
  0
XRECORD
  5
AB89
102
{ACAD_REACTORS
330
AB22
102
}
330
AB22
100
AcDbXrecord
280
     1
102
MATERIAL
148
0.0
149
0.0
149
0.0
 93
        0
 94
      127
282
     0
 72
     0
 77
     0
171
     0
175
     0
179
     0
273
     0
  0
XRECORD
  5
AB24
102
{ACAD_REACTORS
330
AB22
102
}
330
AB22
100
AcDbXrecord
280
     1
270
     1
271
     1
  0
XRECORD
  5
AB23
102
{ACAD_REACTORS
330
AB22
102
}
330
AB22
100
AcDbXrecord
280
     1
270
     1
271
     1
  0
XRECORD
  5
AB27
102
{ACAD_REACTORS
330
AB22
102
}
330
AB22
100
AcDbXrecord
280
     1
270
     1
271
     1
  0
XRECORD
  5
AB26
102
{ACAD_REACTORS
330
AB22
102
}
330
AB22
100
AcDbXrecord
280
     1
270
     1
271
     1
  0
XRECORD
  5
AB28
102
{ACAD_REACTORS
330
AB22
102
}
330
AB22
100
AcDbXrecord
280
     1
270
     1
271
     1
  0
XRECORD
  5
AB25
102
{ACAD_REACTORS
330
AB22
102
}
330
AB22
100
AcDbXrecord
280
     1
270
     1
271
     1
  0
XRECORD
  5
AB88
102
{ACAD_REACTORS
330
AB1A
102
}
330
AB1A
100
AcDbXrecord
280
     1
102
MATERIAL
148
0.0
149
0.0
149
0.0
 93
        0
 94
      127
282
     0
 72
     0
 77
     0
171
     0
175
     0
179
     0
273
     0
  0
XRECORD
  5
AB1C
102
{ACAD_REACTORS
330
AB1A
102
}
330
AB1A
100
AcDbXrecord
280
     1
270
     1
271
     1
  0
XRECORD
  5
AB1B
102
{ACAD_REACTORS
330
AB1A
102
}
330
AB1A
100
AcDbXrecord
280
     1
270
     1
271
     1
  0
XRECORD
  5
AB1F
102
{ACAD_REACTORS
330
AB1A
102
}
330
AB1A
100
AcDbXrecord
280
     1
270
     1
271
     1
  0
XRECORD
  5
AB1E
102
{ACAD_REACTORS
330
AB1A
102
}
330
AB1A
100
AcDbXrecord
280
     1
270
     1
271
     1
  0
XRECORD
  5
AB20
102
{ACAD_REACTORS
330
AB1A
102
}
330
AB1A
100
AcDbXrecord
280
     1
270
     1
271
     1
  0
XRECORD
  5
AB1D
102
{ACAD_REACTORS
330
AB1A
102
}
330
AB1A
100
AcDbXrecord
280
     1
270
     1
271
     1
  0
XRECORD
  5
AB8A
102
{ACAD_REACTORS
330
AB2A
102
}
330
AB2A
100
AcDbXrecord
280
     1
102
MATERIAL
148
0.0
149
0.0
149
0.0
 93
        0
 94
      127
282
     0
 72
     0
 77
     0
171
     0
175
     0
179
     0
273
     0
  0
XRECORD
  5
AB2C
102
{ACAD_REACTORS
330
AB2A
102
}
330
AB2A
100
AcDbXrecord
280
     1
270
     1
271
     1
  0
XRECORD
  5
AB2B
102
{ACAD_REACTORS
330
AB2A
102
}
330
AB2A
100
AcDbXrecord
280
     1
270
     1
271
     1
  0
XRECORD
  5
AB2F
102
{ACAD_REACTORS
330
AB2A
102
}
330
AB2A
100
AcDbXrecord
280
     1
270
     1
271
     1
  0
XRECORD
  5
AB2E
102
{ACAD_REACTORS
330
AB2A
102
}
330
AB2A
100
AcDbXrecord
280
     1
270
     1
271
     1
  0
XRECORD
  5
AB30
102
{ACAD_REACTORS
330
AB2A
102
}
330
AB2A
100
AcDbXrecord
280
     1
270
     1
271
     1
  0
XRECORD
  5
AB2D
102
{ACAD_REACTORS
330
AB2A
102
}
330
AB2A
100
AcDbXrecord
280
     1
270
     1
271
     1
  0
XRECORD
  5
ABBE
102
{ACAD_REACTORS
330
ABBD
102
}
330
ABBD
100
AcDbXrecord
280
     1
102
DISPLAYNAME
  1
Imperial24
102
FLAGS
 90
        0
  0
CELLSTYLEMAP
  5
AB85
102
{ACAD_REACTORS
330
AB84
102
}
330
AB84
100
AcDbCellStyleMap
 90
        3
300
CELLSTYLE
  1
TABLEFORMAT_BEGIN
 90
        5
170
     1
 91
        0
 92
    32768
 62
   257
 93
        1
300
CONTENTFORMAT
  1
CONTENTFORMAT_BEGIN
 90
        0
 91
        0
 92
      512
 93
        0
300

 40
0.0
140
1.0
 94
        5
 62
     0
340
A5A5
144
0.25
309
CONTENTFORMAT_END
171
     0
 94
        0
309
TABLEFORMAT_END
  1
CELLSTYLE_BEGIN
 90
        1
 91
        1
300
_TITLE
309
CELLSTYLE_END
300
CELLSTYLE
  1
TABLEFORMAT_BEGIN
 90
        5
170
     1
 91
        0
 92
        0
 62
   257
 93
        1
300
CONTENTFORMAT
  1
CONTENTFORMAT_BEGIN
 90
        0
 91
        0
 92
      512
 93
        0
300

 40
0.0
140
1.0
 94
        5
 62
     0
340
A5A5
144
0.18
309
CONTENTFORMAT_END
171
     0
 94
        0
309
TABLEFORMAT_END
  1
CELLSTYLE_BEGIN
 90
        2
 91
        1
300
_HEADER
309
CELLSTYLE_END
300
CELLSTYLE
  1
TABLEFORMAT_BEGIN
 90
        5
170
     1
 91
        0
 92
        0
 62
   257
 93
        1
300
CONTENTFORMAT
  1
CONTENTFORMAT_BEGIN
 90
        0
 91
        0
 92
      512
 93
        0
300

 40
0.0
140
1.0
 94
        2
 62
     0
340
A5A5
144
0.18
309
CONTENTFORMAT_END
171
     0
 94
        0
309
TABLEFORMAT_END
  1
CELLSTYLE_BEGIN
 90
        3
 91
        2
300
_DATA
309
CELLSTYLE_END
  0
XRECORD
  5
ABBB
102
{ACAD_REACTORS
330
AB84
102
}
330
AB84
100
AcDbXrecord
280
     1
102
ACAD_ROUNDTRIP_PRE2007_TABLESTYLE
 90
      512
 91
        0
  1

 92
      512
 93
        0
  2

 94
      512
 95
        0
  3

  0
XRECORD
  5
AB96
102
{ACAD_REACTORS
330
AB95
102
}
330
AB95
100
AcDbXrecord
280
     1
102
RTVSPost2010Prop28
280
     1
102
RTVSPost2010PropOp28
 70
     1
102
RTVSPost2010Prop29
280
     1
102
RTVSPost2010PropOp29
 70
     1
102
RTVSPost2010Prop30
280
     0
102
RTVSPost2010PropOp30
 70
     1
102
RTVSPost2010Prop31
280
     0
102
RTVSPost2010PropOp31
 70
     1
102
RTVSPost2010Prop32
280
     0
102
RTVSPost2010PropOp32
 70
     1
102
RTVSPost2010Prop33
280
     0
102
RTVSPost2010PropOp33
 70
     1
102
RTVSPost2010Prop34
280
     0
102
RTVSPost2010PropOp34
 70
     1
102
RTVSPost2010Prop35
280
     0
102
RTVSPost2010PropOp35
 70
     1
102
RTVSPost2010Prop36
280
     0
102
RTVSPost2010PropOp36
 70
     1
102
RTVSPost2010Prop37
 90
       50
102
RTVSPost2010PropOp37
 70
     1
102
RTVSPost2010Prop38
140
0.0
102
RTVSPost2010PropOp38
 70
     1
102
RTVSPost2010Prop39
140
1.0
102
RTVSPost2010PropOp39
 70
     1
102
RTVSPost2010Prop40
 90
        0
102
RTVSPost2010PropOp40
 70
     1
102
RTVSPost2010Prop41ColorIndex
 90
       18
102
RTVSPost2010Prop41ColorRGB
 90
        0
102
RTVSPost2010PropOp41
 70
     1
102
RTVSPost2010Prop42
 90
       50
102
RTVSPost2010PropOp42
 70
     1
102
RTVSPost2010Prop43
 90
        3
102
RTVSPost2010PropOp43
 70
     1
102
RTVSPost2010Prop44ColorIndex
 90
        5
102
RTVSPost2010Prop44ColorRGB
 90
      255
102
RTVSPost2010PropOp44
 70
     1
102
RTVSPost2010Prop45
280
     0
102
RTVSPost2010PropOp45
 70
     1
102
RTVSPost2010Prop46
 90
       50
102
RTVSPost2010PropOp46
 70
     1
102
RTVSPost2010Prop47
 90
       50
102
RTVSPost2010PropOp47
 70
     1
102
RTVSPost2010Prop48
 90
       50
102
RTVSPost2010PropOp48
 70
     1
102
RTVSPost2010Prop49
280
     0
102
RTVSPost2010PropOp49
 70
     1
102
RTVSPost2010Prop50
 90
       50
102
RTVSPost2010PropOp50
 70
     1
102
RTVSPost2010Prop51ColorIndex
 90
      256
102
RTVSPost2010Prop51ColorRGB
 90
-16777216
102
RTVSPost2010PropOp51
 70
     0
102
RTVSPost2010Prop52
140
1.0
102
RTVSPost2010PropOp52
 70
     0
102
RTVSPost2010Prop53
 90
        2
102
RTVSPost2010PropOp53
 70
     1
102
RTVSPost2010Prop54
  1
strokes_ogs.tif
102
RTVSPost2010PropOp54
 70
     1
102
RTVSPost2010Prop55
280
     0
102
RTVSPost2010PropOp55
 70
     1
102
RTVSPost2010Prop56
140
1.0
102
RTVSPost2010PropOp56
 70
     1
102
RTVSPost2010Prop57
140
1.0
102
RTVSPost2010PropOp57
 70
     1
102
RTVSPropertyOp0
 70
     1
102
RTVSPropertyOp1
 70
     1
102
RTVSPropertyOp2
 70
     1
102
RTVSPropertyOp3
 70
     1
102
RTVSPropertyOp4
 70
     1
102
RTVSPropertyOp5
 70
     1
102
RTVSPropertyOp6
 70
     1
102
RTVSPropertyOp7
 70
     1
102
RTVSPropertyOp8
 70
     1
102
RTVSPropertyOp9
 70
     1
102
RTVSPropertyOp10
 70
     1
102
RTVSPropertyOp11
 70
     1
102
RTVSPropertyOp12
 70
     1
102
RTVSPropertyOp13
 70
     1
102
RTVSPropertyOp14
 70
     1
102
RTVSPropertyOp15
 70
     1
102
RTVSPropertyOp16
 70
     1
102
RTVSPropertyOp17
 70
     1
102
RTVSPropertyOp18
 70
     1
102
RTVSPropertyOp19
 70
     1
102
RTVSPropertyOp20
 70
     1
102
RTVSPropertyOp21
 70
     1
102
RTVSPropertyOp22
 70
     1
102
RTVSPropertyOp23
 70
     1
102
RTVSPropertyOp24
 70
     1
102
RTVSPropertyOp25
 70
     1
102
RTVSPropertyOp26
 70
     1
102
RTVSPropertyOp27
 70
     1
102
RTVSPropertyOp28
 70
     1
102
RTVSPropertyOp29
 70
     1
102
RTVSPropertyOp30
 70
     1
102
RTVSPropertyOp31
 70
     1
102
RTVSPropertyOp32
 70
     1
102
RTVSPropertyOp33
 70
     1
102
RTVSPropertyOp34
 70
     1
102
RTVSPropertyOp35
 70
     1
102
RTVSPropertyOp36
 70
     1
102
RTVSPropertyOp37
 70
     1
102
RTVSPropertyOp38
 70
     1
102
RTVSPropertyOp39
 70
     1
102
RTVSPropertyOp40
 70
     1
102
RTVSPropertyOp41
 70
     1
102
RTVSPropertyOp42
 70
     1
102
RTVSPropertyOp43
 70
     1
102
RTVSPropertyOp44
 70
     1
102
RTVSPropertyOp45
 70
     1
102
RTVSPropertyOp46
 70
     1
102
RTVSPropertyOp47
 70
     1
102
RTVSPropertyOp48
 70
     1
102
RTVSPropertyOp49
 70
     1
102
RTVSPropertyOp50
 70
     1
102
RTVSPropertyOp51
 70
     0
102
RTVSPropertyOp52
 70
     0
102
RTVSPropertyOp53
 70
     1
102
RTVSPropertyOp54
 70
     1
102
RTVSPropertyOp55
 70
     1
102
RTVSPropertyOp56
 70
     1
102
RTVSPropertyOp57
 70
     1
102
RTVSPropertyOp58
 70
     1
102
RTVSPropertyOp59
 70
     1
102
RTVSPropertyOp60
 70
     1
102
RTVSPropertyOp61
 70
     1
102
RTVSPropertyOp62
 70
     1
  0
XRECORD
  5
AB94
102
{ACAD_REACTORS
330
AB93
102
}
330
AB93
100
AcDbXrecord
280
     1
102
RTVSPost2010Prop28
280
     0
102
RTVSPost2010PropOp28
 70
     1
102
RTVSPost2010Prop29
280
     1
102
RTVSPost2010PropOp29
 70
     1
102
RTVSPost2010Prop30
280
     1
102
RTVSPost2010PropOp30
 70
     1
102
RTVSPost2010Prop31
280
     0
102
RTVSPost2010PropOp31
 70
     1
102
RTVSPost2010Prop32
280
     0
102
RTVSPost2010PropOp32
 70
     1
102
RTVSPost2010Prop33
280
     0
102
RTVSPost2010PropOp33
 70
     1
102
RTVSPost2010Prop34
280
     0
102
RTVSPost2010PropOp34
 70
     1
102
RTVSPost2010Prop35
280
     0
102
RTVSPost2010PropOp35
 70
     1
102
RTVSPost2010Prop36
280
     0
102
RTVSPost2010PropOp36
 70
     1
102
RTVSPost2010Prop37
 90
       50
102
RTVSPost2010PropOp37
 70
     1
102
RTVSPost2010Prop38
140
0.0
102
RTVSPost2010PropOp38
 70
     1
102
RTVSPost2010Prop39
140
1.0
102
RTVSPost2010PropOp39
 70
     1
102
RTVSPost2010Prop40
 90
        0
102
RTVSPost2010PropOp40
 70
     1
102
RTVSPost2010Prop41ColorIndex
 90
       18
102
RTVSPost2010Prop41ColorRGB
 90
        0
102
RTVSPost2010PropOp41
 70
     1
102
RTVSPost2010Prop42
 90
       50
102
RTVSPost2010PropOp42
 70
     1
102
RTVSPost2010Prop43
 90
        3
102
RTVSPost2010PropOp43
 70
     1
102
RTVSPost2010Prop44ColorIndex
 90
        5
102
RTVSPost2010Prop44ColorRGB
 90
      255
102
RTVSPost2010PropOp44
 70
     1
102
RTVSPost2010Prop45
280
     0
102
RTVSPost2010PropOp45
 70
     1
102
RTVSPost2010Prop46
 90
       50
102
RTVSPost2010PropOp46
 70
     1
102
RTVSPost2010Prop47
 90
       50
102
RTVSPost2010PropOp47
 70
     1
102
RTVSPost2010Prop48
 90
       50
102
RTVSPost2010PropOp48
 70
     1
102
RTVSPost2010Prop49
280
     0
102
RTVSPost2010PropOp49
 70
     1
102
RTVSPost2010Prop50
 90
       50
102
RTVSPost2010PropOp50
 70
     1
102
RTVSPost2010Prop51ColorIndex
 90
      256
102
RTVSPost2010Prop51ColorRGB
 90
-16777216
102
RTVSPost2010PropOp51
 70
     0
102
RTVSPost2010Prop52
140
1.0
102
RTVSPost2010PropOp52
 70
     0
102
RTVSPost2010Prop53
 90
        2
102
RTVSPost2010PropOp53
 70
     1
102
RTVSPost2010Prop54
  1
strokes_ogs.tif
102
RTVSPost2010PropOp54
 70
     1
102
RTVSPost2010Prop55
280
     0
102
RTVSPost2010PropOp55
 70
     1
102
RTVSPost2010Prop56
140
1.0
102
RTVSPost2010PropOp56
 70
     1
102
RTVSPost2010Prop57
140
1.0
102
RTVSPost2010PropOp57
 70
     1
102
RTVSPropertyOp0
 70
     1
102
RTVSPropertyOp1
 70
     1
102
RTVSPropertyOp2
 70
     1
102
RTVSPropertyOp3
 70
     1
102
RTVSPropertyOp4
 70
     1
102
RTVSPropertyOp5
 70
     1
102
RTVSPropertyOp6
 70
     1
102
RTVSPropertyOp7
 70
     1
102
RTVSPropertyOp8
 70
     1
102
RTVSPropertyOp9
 70
     1
102
RTVSPropertyOp10
 70
     1
102
RTVSPropertyOp11
 70
     1
102
RTVSPropertyOp12
 70
     1
102
RTVSPropertyOp13
 70
     1
102
RTVSPropertyOp14
 70
     1
102
RTVSPropertyOp15
 70
     1
102
RTVSPropertyOp16
 70
     1
102
RTVSPropertyOp17
 70
     1
102
RTVSPropertyOp18
 70
     1
102
RTVSPropertyOp19
 70
     1
102
RTVSPropertyOp20
 70
     1
102
RTVSPropertyOp21
 70
     1
102
RTVSPropertyOp22
 70
     1
102
RTVSPropertyOp23
 70
     1
102
RTVSPropertyOp24
 70
     1
102
RTVSPropertyOp25
 70
     1
102
RTVSPropertyOp26
 70
     1
102
RTVSPropertyOp27
 70
     1
102
RTVSPropertyOp28
 70
     1
102
RTVSPropertyOp29
 70
     1
102
RTVSPropertyOp30
 70
     1
102
RTVSPropertyOp31
 70
     1
102
RTVSPropertyOp32
 70
     1
102
RTVSPropertyOp33
 70
     1
102
RTVSPropertyOp34
 70
     1
102
RTVSPropertyOp35
 70
     1
102
RTVSPropertyOp36
 70
     1
102
RTVSPropertyOp37
 70
     1
102
RTVSPropertyOp38
 70
     1
102
RTVSPropertyOp39
 70
     1
102
RTVSPropertyOp40
 70
     1
102
RTVSPropertyOp41
 70
     1
102
RTVSPropertyOp42
 70
     1
102
RTVSPropertyOp43
 70
     1
102
RTVSPropertyOp44
 70
     1
102
RTVSPropertyOp45
 70
     1
102
RTVSPropertyOp46
 70
     1
102
RTVSPropertyOp47
 70
     1
102
RTVSPropertyOp48
 70
     1
102
RTVSPropertyOp49
 70
     1
102
RTVSPropertyOp50
 70
     1
102
RTVSPropertyOp51
 70
     0
102
RTVSPropertyOp52
 70
     0
102
RTVSPropertyOp53
 70
     1
102
RTVSPropertyOp54
 70
     1
102
RTVSPropertyOp55
 70
     1
102
RTVSPropertyOp56
 70
     1
102
RTVSPropertyOp57
 70
     1
102
RTVSPropertyOp58
 70
     1
102
RTVSPropertyOp59
 70
     1
102
RTVSPropertyOp60
 70
     1
102
RTVSPropertyOp61
 70
     1
102
RTVSPropertyOp62
 70
     1
  0
XRECORD
  5
ABA2
102
{ACAD_REACTORS
330
ABA1
102
}
330
ABA1
100
AcDbXrecord
280
     1
102
RTVSPost2010Prop28
280
     0
102
RTVSPost2010PropOp28
 70
     1
102
RTVSPost2010Prop29
280
     1
102
RTVSPost2010PropOp29
 70
     1
102
RTVSPost2010Prop30
280
     1
102
RTVSPost2010PropOp30
 70
     1
102
RTVSPost2010Prop31
280
     0
102
RTVSPost2010PropOp31
 70
     1
102
RTVSPost2010Prop32
280
     0
102
RTVSPost2010PropOp32
 70
     1
102
RTVSPost2010Prop33
280
     0
102
RTVSPost2010PropOp33
 70
     1
102
RTVSPost2010Prop34
280
     0
102
RTVSPost2010PropOp34
 70
     1
102
RTVSPost2010Prop35
280
     0
102
RTVSPost2010PropOp35
 70
     1
102
RTVSPost2010Prop36
280
     0
102
RTVSPost2010PropOp36
 70
     1
102
RTVSPost2010Prop37
 90
       50
102
RTVSPost2010PropOp37
 70
     1
102
RTVSPost2010Prop38
140
0.0
102
RTVSPost2010PropOp38
 70
     1
102
RTVSPost2010Prop39
140
1.0
102
RTVSPost2010PropOp39
 70
     1
102
RTVSPost2010Prop40
 90
        0
102
RTVSPost2010PropOp40
 70
     1
102
RTVSPost2010Prop41ColorIndex
 90
       18
102
RTVSPost2010Prop41ColorRGB
 90
        0
102
RTVSPost2010PropOp41
 70
     1
102
RTVSPost2010Prop42
 90
       50
102
RTVSPost2010PropOp42
 70
     1
102
RTVSPost2010Prop43
 90
        3
102
RTVSPost2010PropOp43
 70
     1
102
RTVSPost2010Prop44ColorIndex
 90
        5
102
RTVSPost2010Prop44ColorRGB
 90
      255
102
RTVSPost2010PropOp44
 70
     1
102
RTVSPost2010Prop45
280
     0
102
RTVSPost2010PropOp45
 70
     1
102
RTVSPost2010Prop46
 90
       50
102
RTVSPost2010PropOp46
 70
     1
102
RTVSPost2010Prop47
 90
       50
102
RTVSPost2010PropOp47
 70
     1
102
RTVSPost2010Prop48
 90
       50
102
RTVSPost2010PropOp48
 70
     1
102
RTVSPost2010Prop49
280
     0
102
RTVSPost2010PropOp49
 70
     1
102
RTVSPost2010Prop50
 90
       50
102
RTVSPost2010PropOp50
 70
     1
102
RTVSPost2010Prop51ColorIndex
 90
      256
102
RTVSPost2010Prop51ColorRGB
 90
-16777216
102
RTVSPost2010PropOp51
 70
     0
102
RTVSPost2010Prop52
140
1.0
102
RTVSPost2010PropOp52
 70
     0
102
RTVSPost2010Prop53
 90
        2
102
RTVSPost2010PropOp53
 70
     1
102
RTVSPost2010Prop54
  1
strokes_ogs.tif
102
RTVSPost2010PropOp54
 70
     1
102
RTVSPost2010Prop55
280
     0
102
RTVSPost2010PropOp55
 70
     1
102
RTVSPost2010Prop56
140
1.0
102
RTVSPost2010PropOp56
 70
     1
102
RTVSPost2010Prop57
140
1.0
102
RTVSPost2010PropOp57
 70
     1
102
RTVSPropertyOp0
 70
     1
102
RTVSPropertyOp1
 70
     1
102
RTVSPropertyOp2
 70
     1
102
RTVSPropertyOp3
 70
     1
102
RTVSPropertyOp4
 70
     1
102
RTVSPropertyOp5
 70
     1
102
RTVSPropertyOp6
 70
     1
102
RTVSPropertyOp7
 70
     1
102
RTVSPropertyOp8
 70
     1
102
RTVSPropertyOp9
 70
     1
102
RTVSPropertyOp10
 70
     1
102
RTVSPropertyOp11
 70
     1
102
RTVSPropertyOp12
 70
     1
102
RTVSPropertyOp13
 70
     1
102
RTVSPropertyOp14
 70
     1
102
RTVSPropertyOp15
 70
     1
102
RTVSPropertyOp16
 70
     1
102
RTVSPropertyOp17
 70
     1
102
RTVSPropertyOp18
 70
     1
102
RTVSPropertyOp19
 70
     1
102
RTVSPropertyOp20
 70
     1
102
RTVSPropertyOp21
 70
     1
102
RTVSPropertyOp22
 70
     1
102
RTVSPropertyOp23
 70
     1
102
RTVSPropertyOp24
 70
     1
102
RTVSPropertyOp25
 70
     1
102
RTVSPropertyOp26
 70
     1
102
RTVSPropertyOp27
 70
     1
102
RTVSPropertyOp28
 70
     1
102
RTVSPropertyOp29
 70
     1
102
RTVSPropertyOp30
 70
     1
102
RTVSPropertyOp31
 70
     1
102
RTVSPropertyOp32
 70
     1
102
RTVSPropertyOp33
 70
     1
102
RTVSPropertyOp34
 70
     1
102
RTVSPropertyOp35
 70
     1
102
RTVSPropertyOp36
 70
     1
102
RTVSPropertyOp37
 70
     1
102
RTVSPropertyOp38
 70
     1
102
RTVSPropertyOp39
 70
     1
102
RTVSPropertyOp40
 70
     1
102
RTVSPropertyOp41
 70
     1
102
RTVSPropertyOp42
 70
     1
102
RTVSPropertyOp43
 70
     1
102
RTVSPropertyOp44
 70
     1
102
RTVSPropertyOp45
 70
     1
102
RTVSPropertyOp46
 70
     1
102
RTVSPropertyOp47
 70
     1
102
RTVSPropertyOp48
 70
     1
102
RTVSPropertyOp49
 70
     1
102
RTVSPropertyOp50
 70
     1
102
RTVSPropertyOp51
 70
     0
102
RTVSPropertyOp52
 70
     0
102
RTVSPropertyOp53
 70
     1
102
RTVSPropertyOp54
 70
     1
102
RTVSPropertyOp55
 70
     1
102
RTVSPropertyOp56
 70
     1
102
RTVSPropertyOp57
 70
     1
102
RTVSPropertyOp58
 70
     1
102
RTVSPropertyOp59
 70
     1
102
RTVSPropertyOp60
 70
     1
102
RTVSPropertyOp61
 70
     1
102
RTVSPropertyOp62
 70
     1
  0
XRECORD
  5
ABAA
102
{ACAD_REACTORS
330
ABA9
102
}
330
ABA9
100
AcDbXrecord
280
     1
102
RTVSPost2010Prop28
280
     0
102
RTVSPost2010PropOp28
 70
     1
102
RTVSPost2010Prop29
280
     1
102
RTVSPost2010PropOp29
 70
     1
102
RTVSPost2010Prop30
280
     1
102
RTVSPost2010PropOp30
 70
     1
102
RTVSPost2010Prop31
280
     0
102
RTVSPost2010PropOp31
 70
     1
102
RTVSPost2010Prop32
280
     0
102
RTVSPost2010PropOp32
 70
     1
102
RTVSPost2010Prop33
280
     0
102
RTVSPost2010PropOp33
 70
     1
102
RTVSPost2010Prop34
280
     0
102
RTVSPost2010PropOp34
 70
     1
102
RTVSPost2010Prop35
280
     0
102
RTVSPost2010PropOp35
 70
     1
102
RTVSPost2010Prop36
280
     0
102
RTVSPost2010PropOp36
 70
     1
102
RTVSPost2010Prop37
 90
       50
102
RTVSPost2010PropOp37
 70
     1
102
RTVSPost2010Prop38
140
0.0
102
RTVSPost2010PropOp38
 70
     1
102
RTVSPost2010Prop39
140
1.0
102
RTVSPost2010PropOp39
 70
     1
102
RTVSPost2010Prop40
 90
        0
102
RTVSPost2010PropOp40
 70
     1
102
RTVSPost2010Prop41ColorIndex
 90
       18
102
RTVSPost2010Prop41ColorRGB
 90
        0
102
RTVSPost2010PropOp41
 70
     1
102
RTVSPost2010Prop42
 90
       50
102
RTVSPost2010PropOp42
 70
     1
102
RTVSPost2010Prop43
 90
        3
102
RTVSPost2010PropOp43
 70
     1
102
RTVSPost2010Prop44ColorIndex
 90
        5
102
RTVSPost2010Prop44ColorRGB
 90
      255
102
RTVSPost2010PropOp44
 70
     1
102
RTVSPost2010Prop45
280
     0
102
RTVSPost2010PropOp45
 70
     1
102
RTVSPost2010Prop46
 90
       50
102
RTVSPost2010PropOp46
 70
     1
102
RTVSPost2010Prop47
 90
       50
102
RTVSPost2010PropOp47
 70
     1
102
RTVSPost2010Prop48
 90
       50
102
RTVSPost2010PropOp48
 70
     1
102
RTVSPost2010Prop49
280
     0
102
RTVSPost2010PropOp49
 70
     1
102
RTVSPost2010Prop50
 90
       50
102
RTVSPost2010PropOp50
 70
     1
102
RTVSPost2010Prop51ColorIndex
 90
      256
102
RTVSPost2010Prop51ColorRGB
 90
-16777216
102
RTVSPost2010PropOp51
 70
     0
102
RTVSPost2010Prop52
140
1.0
102
RTVSPost2010PropOp52
 70
     0
102
RTVSPost2010Prop53
 90
        2
102
RTVSPost2010PropOp53
 70
     1
102
RTVSPost2010Prop54
  1
strokes_ogs.tif
102
RTVSPost2010PropOp54
 70
     1
102
RTVSPost2010Prop55
280
     0
102
RTVSPost2010PropOp55
 70
     1
102
RTVSPost2010Prop56
140
1.0
102
RTVSPost2010PropOp56
 70
     1
102
RTVSPost2010Prop57
140
1.0
102
RTVSPost2010PropOp57
 70
     1
102
RTVSPropertyOp0
 70
     1
102
RTVSPropertyOp1
 70
     1
102
RTVSPropertyOp2
 70
     1
102
RTVSPropertyOp3
 70
     1
102
RTVSPropertyOp4
 70
     1
102
RTVSPropertyOp5
 70
     1
102
RTVSPropertyOp6
 70
     1
102
RTVSPropertyOp7
 70
     1
102
RTVSPropertyOp8
 70
     1
102
RTVSPropertyOp9
 70
     1
102
RTVSPropertyOp10
 70
     1
102
RTVSPropertyOp11
 70
     1
102
RTVSPropertyOp12
 70
     1
102
RTVSPropertyOp13
 70
     1
102
RTVSPropertyOp14
 70
     1
102
RTVSPropertyOp15
 70
     1
102
RTVSPropertyOp16
 70
     1
102
RTVSPropertyOp17
 70
     1
102
RTVSPropertyOp18
 70
     1
102
RTVSPropertyOp19
 70
     1
102
RTVSPropertyOp20
 70
     1
102
RTVSPropertyOp21
 70
     1
102
RTVSPropertyOp22
 70
     1
102
RTVSPropertyOp23
 70
     1
102
RTVSPropertyOp24
 70
     1
102
RTVSPropertyOp25
 70
     1
102
RTVSPropertyOp26
 70
     1
102
RTVSPropertyOp27
 70
     1
102
RTVSPropertyOp28
 70
     1
102
RTVSPropertyOp29
 70
     1
102
RTVSPropertyOp30
 70
     1
102
RTVSPropertyOp31
 70
     1
102
RTVSPropertyOp32
 70
     1
102
RTVSPropertyOp33
 70
     1
102
RTVSPropertyOp34
 70
     1
102
RTVSPropertyOp35
 70
     1
102
RTVSPropertyOp36
 70
     1
102
RTVSPropertyOp37
 70
     1
102
RTVSPropertyOp38
 70
     1
102
RTVSPropertyOp39
 70
     1
102
RTVSPropertyOp40
 70
     1
102
RTVSPropertyOp41
 70
     1
102
RTVSPropertyOp42
 70
     1
102
RTVSPropertyOp43
 70
     1
102
RTVSPropertyOp44
 70
     1
102
RTVSPropertyOp45
 70
     1
102
RTVSPropertyOp46
 70
     1
102
RTVSPropertyOp47
 70
     1
102
RTVSPropertyOp48
 70
     1
102
RTVSPropertyOp49
 70
     1
102
RTVSPropertyOp50
 70
     1
102
RTVSPropertyOp51
 70
     0
102
RTVSPropertyOp52
 70
     0
102
RTVSPropertyOp53
 70
     1
102
RTVSPropertyOp54
 70
     1
102
RTVSPropertyOp55
 70
     1
102
RTVSPropertyOp56
 70
     1
102
RTVSPropertyOp57
 70
     1
102
RTVSPropertyOp58
 70
     1
102
RTVSPropertyOp59
 70
     1
102
RTVSPropertyOp60
 70
     1
102
RTVSPropertyOp61
 70
     1
102
RTVSPropertyOp62
 70
     1
  0
XRECORD
  5
AB9C
102
{ACAD_REACTORS
330
AB9B
102
}
330
AB9B
100
AcDbXrecord
280
     1
102
RTVSPost2010Prop28
280
     0
102
RTVSPost2010PropOp28
 70
     1
102
RTVSPost2010Prop29
280
     1
102
RTVSPost2010PropOp29
 70
     1
102
RTVSPost2010Prop30
280
     1
102
RTVSPost2010PropOp30
 70
     1
102
RTVSPost2010Prop31
280
     0
102
RTVSPost2010PropOp31
 70
     1
102
RTVSPost2010Prop32
280
     0
102
RTVSPost2010PropOp32
 70
     1
102
RTVSPost2010Prop33
280
     0
102
RTVSPost2010PropOp33
 70
     1
102
RTVSPost2010Prop34
280
     0
102
RTVSPost2010PropOp34
 70
     1
102
RTVSPost2010Prop35
280
     0
102
RTVSPost2010PropOp35
 70
     1
102
RTVSPost2010Prop36
280
     0
102
RTVSPost2010PropOp36
 70
     1
102
RTVSPost2010Prop37
 90
       50
102
RTVSPost2010PropOp37
 70
     1
102
RTVSPost2010Prop38
140
0.0
102
RTVSPost2010PropOp38
 70
     1
102
RTVSPost2010Prop39
140
1.0
102
RTVSPost2010PropOp39
 70
     1
102
RTVSPost2010Prop40
 90
        0
102
RTVSPost2010PropOp40
 70
     1
102
RTVSPost2010Prop41ColorIndex
 90
       18
102
RTVSPost2010Prop41ColorRGB
 90
        0
102
RTVSPost2010PropOp41
 70
     1
102
RTVSPost2010Prop42
 90
       50
102
RTVSPost2010PropOp42
 70
     1
102
RTVSPost2010Prop43
 90
        3
102
RTVSPost2010PropOp43
 70
     1
102
RTVSPost2010Prop44ColorIndex
 90
        5
102
RTVSPost2010Prop44ColorRGB
 90
      255
102
RTVSPost2010PropOp44
 70
     1
102
RTVSPost2010Prop45
280
     0
102
RTVSPost2010PropOp45
 70
     1
102
RTVSPost2010Prop46
 90
       50
102
RTVSPost2010PropOp46
 70
     1
102
RTVSPost2010Prop47
 90
       50
102
RTVSPost2010PropOp47
 70
     1
102
RTVSPost2010Prop48
 90
       50
102
RTVSPost2010PropOp48
 70
     1
102
RTVSPost2010Prop49
280
     0
102
RTVSPost2010PropOp49
 70
     1
102
RTVSPost2010Prop50
 90
       50
102
RTVSPost2010PropOp50
 70
     1
102
RTVSPost2010Prop51ColorIndex
 90
      256
102
RTVSPost2010Prop51ColorRGB
 90
-16777216
102
RTVSPost2010PropOp51
 70
     0
102
RTVSPost2010Prop52
140
1.0
102
RTVSPost2010PropOp52
 70
     0
102
RTVSPost2010Prop53
 90
        2
102
RTVSPost2010PropOp53
 70
     1
102
RTVSPost2010Prop54
  1
strokes_ogs.tif
102
RTVSPost2010PropOp54
 70
     1
102
RTVSPost2010Prop55
280
     0
102
RTVSPost2010PropOp55
 70
     1
102
RTVSPost2010Prop56
140
1.0
102
RTVSPost2010PropOp56
 70
     1
102
RTVSPost2010Prop57
140
1.0
102
RTVSPost2010PropOp57
 70
     1
102
RTVSPropertyOp0
 70
     1
102
RTVSPropertyOp1
 70
     1
102
RTVSPropertyOp2
 70
     1
102
RTVSPropertyOp3
 70
     1
102
RTVSPropertyOp4
 70
     1
102
RTVSPropertyOp5
 70
     1
102
RTVSPropertyOp6
 70
     1
102
RTVSPropertyOp7
 70
     1
102
RTVSPropertyOp8
 70
     1
102
RTVSPropertyOp9
 70
     1
102
RTVSPropertyOp10
 70
     1
102
RTVSPropertyOp11
 70
     1
102
RTVSPropertyOp12
 70
     1
102
RTVSPropertyOp13
 70
     1
102
RTVSPropertyOp14
 70
     1
102
RTVSPropertyOp15
 70
     1
102
RTVSPropertyOp16
 70
     1
102
RTVSPropertyOp17
 70
     1
102
RTVSPropertyOp18
 70
     1
102
RTVSPropertyOp19
 70
     1
102
RTVSPropertyOp20
 70
     1
102
RTVSPropertyOp21
 70
     1
102
RTVSPropertyOp22
 70
     1
102
RTVSPropertyOp23
 70
     1
102
RTVSPropertyOp24
 70
     1
102
RTVSPropertyOp25
 70
     1
102
RTVSPropertyOp26
 70
     1
102
RTVSPropertyOp27
 70
     1
102
RTVSPropertyOp28
 70
     1
102
RTVSPropertyOp29
 70
     1
102
RTVSPropertyOp30
 70
     1
102
RTVSPropertyOp31
 70
     1
102
RTVSPropertyOp32
 70
     1
102
RTVSPropertyOp33
 70
     1
102
RTVSPropertyOp34
 70
     1
102
RTVSPropertyOp35
 70
     1
102
RTVSPropertyOp36
 70
     1
102
RTVSPropertyOp37
 70
     1
102
RTVSPropertyOp38
 70
     1
102
RTVSPropertyOp39
 70
     1
102
RTVSPropertyOp40
 70
     1
102
RTVSPropertyOp41
 70
     1
102
RTVSPropertyOp42
 70
     1
102
RTVSPropertyOp43
 70
     1
102
RTVSPropertyOp44
 70
     1
102
RTVSPropertyOp45
 70
     1
102
RTVSPropertyOp46
 70
     1
102
RTVSPropertyOp47
 70
     1
102
RTVSPropertyOp48
 70
     1
102
RTVSPropertyOp49
 70
     1
102
RTVSPropertyOp50
 70
     1
102
RTVSPropertyOp51
 70
     0
102
RTVSPropertyOp52
 70
     0
102
RTVSPropertyOp53
 70
     1
102
RTVSPropertyOp54
 70
     1
102
RTVSPropertyOp55
 70
     1
102
RTVSPropertyOp56
 70
     1
102
RTVSPropertyOp57
 70
     1
102
RTVSPropertyOp58
 70
     1
102
RTVSPropertyOp59
 70
     1
102
RTVSPropertyOp60
 70
     1
102
RTVSPropertyOp61
 70
     1
102
RTVSPropertyOp62
 70
     1
  0
XRECORD
  5
ABA0
102
{ACAD_REACTORS
330
AB9F
102
}
330
AB9F
100
AcDbXrecord
280
     1
102
RTVSPost2010Prop28
280
     0
102
RTVSPost2010PropOp28
 70
     1
102
RTVSPost2010Prop29
280
     1
102
RTVSPost2010PropOp29
 70
     1
102
RTVSPost2010Prop30
280
     1
102
RTVSPost2010PropOp30
 70
     1
102
RTVSPost2010Prop31
280
     0
102
RTVSPost2010PropOp31
 70
     1
102
RTVSPost2010Prop32
280
     0
102
RTVSPost2010PropOp32
 70
     1
102
RTVSPost2010Prop33
280
     0
102
RTVSPost2010PropOp33
 70
     1
102
RTVSPost2010Prop34
280
     0
102
RTVSPost2010PropOp34
 70
     1
102
RTVSPost2010Prop35
280
     0
102
RTVSPost2010PropOp35
 70
     1
102
RTVSPost2010Prop36
280
     0
102
RTVSPost2010PropOp36
 70
     1
102
RTVSPost2010Prop37
 90
       50
102
RTVSPost2010PropOp37
 70
     1
102
RTVSPost2010Prop38
140
0.0
102
RTVSPost2010PropOp38
 70
     1
102
RTVSPost2010Prop39
140
1.0
102
RTVSPost2010PropOp39
 70
     1
102
RTVSPost2010Prop40
 90
        0
102
RTVSPost2010PropOp40
 70
     1
102
RTVSPost2010Prop41ColorIndex
 90
       18
102
RTVSPost2010Prop41ColorRGB
 90
        0
102
RTVSPost2010PropOp41
 70
     1
102
RTVSPost2010Prop42
 90
       50
102
RTVSPost2010PropOp42
 70
     1
102
RTVSPost2010Prop43
 90
        3
102
RTVSPost2010PropOp43
 70
     1
102
RTVSPost2010Prop44ColorIndex
 90
        5
102
RTVSPost2010Prop44ColorRGB
 90
      255
102
RTVSPost2010PropOp44
 70
     1
102
RTVSPost2010Prop45
280
     0
102
RTVSPost2010PropOp45
 70
     1
102
RTVSPost2010Prop46
 90
       50
102
RTVSPost2010PropOp46
 70
     1
102
RTVSPost2010Prop47
 90
       50
102
RTVSPost2010PropOp47
 70
     1
102
RTVSPost2010Prop48
 90
       50
102
RTVSPost2010PropOp48
 70
     1
102
RTVSPost2010Prop49
280
     0
102
RTVSPost2010PropOp49
 70
     1
102
RTVSPost2010Prop50
 90
       50
102
RTVSPost2010PropOp50
 70
     1
102
RTVSPost2010Prop51ColorIndex
 90
      256
102
RTVSPost2010Prop51ColorRGB
 90
-16777216
102
RTVSPost2010PropOp51
 70
     0
102
RTVSPost2010Prop52
140
1.0
102
RTVSPost2010PropOp52
 70
     0
102
RTVSPost2010Prop53
 90
        2
102
RTVSPost2010PropOp53
 70
     1
102
RTVSPost2010Prop54
  1
strokes_ogs.tif
102
RTVSPost2010PropOp54
 70
     1
102
RTVSPost2010Prop55
280
     0
102
RTVSPost2010PropOp55
 70
     1
102
RTVSPost2010Prop56
140
1.0
102
RTVSPost2010PropOp56
 70
     1
102
RTVSPost2010Prop57
140
1.0
102
RTVSPost2010PropOp57
 70
     1
102
RTVSPropertyOp0
 70
     1
102
RTVSPropertyOp1
 70
     1
102
RTVSPropertyOp2
 70
     1
102
RTVSPropertyOp3
 70
     1
102
RTVSPropertyOp4
 70
     1
102
RTVSPropertyOp5
 70
     1
102
RTVSPropertyOp6
 70
     1
102
RTVSPropertyOp7
 70
     1
102
RTVSPropertyOp8
 70
     1
102
RTVSPropertyOp9
 70
     1
102
RTVSPropertyOp10
 70
     1
102
RTVSPropertyOp11
 70
     1
102
RTVSPropertyOp12
 70
     1
102
RTVSPropertyOp13
 70
     1
102
RTVSPropertyOp14
 70
     1
102
RTVSPropertyOp15
 70
     1
102
RTVSPropertyOp16
 70
     1
102
RTVSPropertyOp17
 70
     1
102
RTVSPropertyOp18
 70
     1
102
RTVSPropertyOp19
 70
     1
102
RTVSPropertyOp20
 70
     1
102
RTVSPropertyOp21
 70
     1
102
RTVSPropertyOp22
 70
     1
102
RTVSPropertyOp23
 70
     1
102
RTVSPropertyOp24
 70
     1
102
RTVSPropertyOp25
 70
     1
102
RTVSPropertyOp26
 70
     1
102
RTVSPropertyOp27
 70
     1
102
RTVSPropertyOp28
 70
     1
102
RTVSPropertyOp29
 70
     1
102
RTVSPropertyOp30
 70
     1
102
RTVSPropertyOp31
 70
     1
102
RTVSPropertyOp32
 70
     1
102
RTVSPropertyOp33
 70
     1
102
RTVSPropertyOp34
 70
     1
102
RTVSPropertyOp35
 70
     1
102
RTVSPropertyOp36
 70
     1
102
RTVSPropertyOp37
 70
     1
102
RTVSPropertyOp38
 70
     1
102
RTVSPropertyOp39
 70
     1
102
RTVSPropertyOp40
 70
     1
102
RTVSPropertyOp41
 70
     1
102
RTVSPropertyOp42
 70
     1
102
RTVSPropertyOp43
 70
     1
102
RTVSPropertyOp44
 70
     1
102
RTVSPropertyOp45
 70
     1
102
RTVSPropertyOp46
 70
     1
102
RTVSPropertyOp47
 70
     1
102
RTVSPropertyOp48
 70
     1
102
RTVSPropertyOp49
 70
     1
102
RTVSPropertyOp50
 70
     1
102
RTVSPropertyOp51
 70
     0
102
RTVSPropertyOp52
 70
     0
102
RTVSPropertyOp53
 70
     1
102
RTVSPropertyOp54
 70
     1
102
RTVSPropertyOp55
 70
     1
102
RTVSPropertyOp56
 70
     1
102
RTVSPropertyOp57
 70
     1
102
RTVSPropertyOp58
 70
     1
102
RTVSPropertyOp59
 70
     1
102
RTVSPropertyOp60
 70
     1
102
RTVSPropertyOp61
 70
     1
102
RTVSPropertyOp62
 70
     1
  0
XRECORD
  5
ABBA
102
{ACAD_REACTORS
330
ABB9
102
}
330
ABB9
100
AcDbXrecord
280
     1
102
RTVSPost2010Prop28
280
     0
102
RTVSPost2010PropOp28
 70
     1
102
RTVSPost2010Prop29
280
     1
102
RTVSPost2010PropOp29
 70
     1
102
RTVSPost2010Prop30
280
     1
102
RTVSPost2010PropOp30
 70
     1
102
RTVSPost2010Prop31
280
     0
102
RTVSPost2010PropOp31
 70
     1
102
RTVSPost2010Prop32
280
     0
102
RTVSPost2010PropOp32
 70
     1
102
RTVSPost2010Prop33
280
     0
102
RTVSPost2010PropOp33
 70
     1
102
RTVSPost2010Prop34
280
     0
102
RTVSPost2010PropOp34
 70
     1
102
RTVSPost2010Prop35
280
     0
102
RTVSPost2010PropOp35
 70
     1
102
RTVSPost2010Prop36
280
     0
102
RTVSPost2010PropOp36
 70
     1
102
RTVSPost2010Prop37
 90
       50
102
RTVSPost2010PropOp37
 70
     0
102
RTVSPost2010Prop38
140
0.0
102
RTVSPost2010PropOp38
 70
     0
102
RTVSPost2010Prop39
140
1.0
102
RTVSPost2010PropOp39
 70
     0
102
RTVSPost2010Prop40
 90
        0
102
RTVSPost2010PropOp40
 70
     0
102
RTVSPost2010Prop41ColorIndex
 90
       18
102
RTVSPost2010Prop41ColorRGB
 90
        0
102
RTVSPost2010PropOp41
 70
     0
102
RTVSPost2010Prop42
 90
       50
102
RTVSPost2010PropOp42
 70
     0
102
RTVSPost2010Prop43
 90
        3
102
RTVSPost2010PropOp43
 70
     0
102
RTVSPost2010Prop44ColorIndex
 90
        5
102
RTVSPost2010Prop44ColorRGB
 90
      255
102
RTVSPost2010PropOp44
 70
     0
102
RTVSPost2010Prop45
280
     0
102
RTVSPost2010PropOp45
 70
     1
102
RTVSPost2010Prop46
 90
       50
102
RTVSPost2010PropOp46
 70
     0
102
RTVSPost2010Prop47
 90
       50
102
RTVSPost2010PropOp47
 70
     0
102
RTVSPost2010Prop48
 90
       50
102
RTVSPost2010PropOp48
 70
     0
102
RTVSPost2010Prop49
280
     0
102
RTVSPost2010PropOp49
 70
     1
102
RTVSPost2010Prop50
 90
       50
102
RTVSPost2010PropOp50
 70
     0
102
RTVSPost2010Prop51ColorIndex
 90
      256
102
RTVSPost2010Prop51ColorRGB
 90
-16777216
102
RTVSPost2010PropOp51
 70
     0
102
RTVSPost2010Prop52
140
1.0
102
RTVSPost2010PropOp52
 70
     0
102
RTVSPost2010Prop53
 90
        2
102
RTVSPost2010PropOp53
 70
     0
102
RTVSPost2010Prop54
  1
strokes_ogs.tif
102
RTVSPost2010PropOp54
 70
     0
102
RTVSPost2010Prop55
280
     0
102
RTVSPost2010PropOp55
 70
     1
102
RTVSPost2010Prop56
140
1.0
102
RTVSPost2010PropOp56
 70
     0
102
RTVSPost2010Prop57
140
1.0
102
RTVSPost2010PropOp57
 70
     0
102
RTVSPropertyOp0
 70
     0
102
RTVSPropertyOp1
 70
     0
102
RTVSPropertyOp2
 70
     0
102
RTVSPropertyOp3
 70
     0
102
RTVSPropertyOp4
 70
     0
102
RTVSPropertyOp5
 70
     0
102
RTVSPropertyOp6
 70
     0
102
RTVSPropertyOp7
 70
     0
102
RTVSPropertyOp8
 70
     0
102
RTVSPropertyOp9
 70
     0
102
RTVSPropertyOp10
 70
     0
102
RTVSPropertyOp11
 70
     0
102
RTVSPropertyOp12
 70
     0
102
RTVSPropertyOp13
 70
     0
102
RTVSPropertyOp14
 70
     2
102
RTVSPropertyOp15
 70
     0
102
RTVSPropertyOp16
 70
     0
102
RTVSPropertyOp17
 70
     0
102
RTVSPropertyOp18
 70
     0
102
RTVSPropertyOp19
 70
     0
102
RTVSPropertyOp20
 70
     0
102
RTVSPropertyOp21
 70
     0
102
RTVSPropertyOp22
 70
     0
102
RTVSPropertyOp23
 70
     0
102
RTVSPropertyOp24
 70
     0
102
RTVSPropertyOp25
 70
     0
102
RTVSPropertyOp26
 70
     0
102
RTVSPropertyOp27
 70
     0
102
RTVSPropertyOp28
 70
     1
102
RTVSPropertyOp29
 70
     1
102
RTVSPropertyOp30
 70
     1
102
RTVSPropertyOp31
 70
     1
102
RTVSPropertyOp32
 70
     1
102
RTVSPropertyOp33
 70
     1
102
RTVSPropertyOp34
 70
     1
102
RTVSPropertyOp35
 70
     1
102
RTVSPropertyOp36
 70
     1
102
RTVSPropertyOp37
 70
     0
102
RTVSPropertyOp38
 70
     0
102
RTVSPropertyOp39
 70
     0
102
RTVSPropertyOp40
 70
     0
102
RTVSPropertyOp41
 70
     0
102
RTVSPropertyOp42
 70
     0
102
RTVSPropertyOp43
 70
     0
102
RTVSPropertyOp44
 70
     0
102
RTVSPropertyOp45
 70
     1
102
RTVSPropertyOp46
 70
     0
102
RTVSPropertyOp47
 70
     0
102
RTVSPropertyOp48
 70
     0
102
RTVSPropertyOp49
 70
     1
102
RTVSPropertyOp50
 70
     0
102
RTVSPropertyOp51
 70
     0
102
RTVSPropertyOp52
 70
     0
102
RTVSPropertyOp53
 70
     0
102
RTVSPropertyOp54
 70
     0
102
RTVSPropertyOp55
 70
     1
102
RTVSPropertyOp56
 70
     0
102
RTVSPropertyOp57
 70
     0
102
RTVSPropertyOp58
 70
     0
102
RTVSPropertyOp59
 70
     0
102
RTVSPropertyOp60
 70
     0
102
RTVSPropertyOp61
 70
     0
102
RTVSPropertyOp62
 70
     0
  0
XRECORD
  5
ABA8
102
{ACAD_REACTORS
330
ABA7
102
}
330
ABA7
100
AcDbXrecord
280
     1
102
RTVSPost2010Prop28
280
     0
102
RTVSPost2010PropOp28
 70
     1
102
RTVSPost2010Prop29
280
     1
102
RTVSPost2010PropOp29
 70
     1
102
RTVSPost2010Prop30
280
     1
102
RTVSPost2010PropOp30
 70
     1
102
RTVSPost2010Prop31
280
     0
102
RTVSPost2010PropOp31
 70
     1
102
RTVSPost2010Prop32
280
     0
102
RTVSPost2010PropOp32
 70
     1
102
RTVSPost2010Prop33
280
     0
102
RTVSPost2010PropOp33
 70
     1
102
RTVSPost2010Prop34
280
     0
102
RTVSPost2010PropOp34
 70
     1
102
RTVSPost2010Prop35
280
     0
102
RTVSPost2010PropOp35
 70
     1
102
RTVSPost2010Prop36
280
     0
102
RTVSPost2010PropOp36
 70
     1
102
RTVSPost2010Prop37
 90
       50
102
RTVSPost2010PropOp37
 70
     1
102
RTVSPost2010Prop38
140
0.0
102
RTVSPost2010PropOp38
 70
     1
102
RTVSPost2010Prop39
140
1.0
102
RTVSPost2010PropOp39
 70
     1
102
RTVSPost2010Prop40
 90
        0
102
RTVSPost2010PropOp40
 70
     1
102
RTVSPost2010Prop41ColorIndex
 90
       18
102
RTVSPost2010Prop41ColorRGB
 90
        0
102
RTVSPost2010PropOp41
 70
     1
102
RTVSPost2010Prop42
 90
       50
102
RTVSPost2010PropOp42
 70
     1
102
RTVSPost2010Prop43
 90
        3
102
RTVSPost2010PropOp43
 70
     1
102
RTVSPost2010Prop44ColorIndex
 90
        5
102
RTVSPost2010Prop44ColorRGB
 90
      255
102
RTVSPost2010PropOp44
 70
     1
102
RTVSPost2010Prop45
280
     0
102
RTVSPost2010PropOp45
 70
     1
102
RTVSPost2010Prop46
 90
       50
102
RTVSPost2010PropOp46
 70
     1
102
RTVSPost2010Prop47
 90
       50
102
RTVSPost2010PropOp47
 70
     1
102
RTVSPost2010Prop48
 90
       50
102
RTVSPost2010PropOp48
 70
     1
102
RTVSPost2010Prop49
280
     0
102
RTVSPost2010PropOp49
 70
     1
102
RTVSPost2010Prop50
 90
       50
102
RTVSPost2010PropOp50
 70
     1
102
RTVSPost2010Prop51ColorIndex
 90
      256
102
RTVSPost2010Prop51ColorRGB
 90
-16777216
102
RTVSPost2010PropOp51
 70
     0
102
RTVSPost2010Prop52
140
1.0
102
RTVSPost2010PropOp52
 70
     0
102
RTVSPost2010Prop53
 90
        2
102
RTVSPost2010PropOp53
 70
     1
102
RTVSPost2010Prop54
  1
strokes_ogs.tif
102
RTVSPost2010PropOp54
 70
     1
102
RTVSPost2010Prop55
280
     0
102
RTVSPost2010PropOp55
 70
     1
102
RTVSPost2010Prop56
140
1.0
102
RTVSPost2010PropOp56
 70
     1
102
RTVSPost2010Prop57
140
1.0
102
RTVSPost2010PropOp57
 70
     1
102
RTVSPropertyOp0
 70
     1
102
RTVSPropertyOp1
 70
     1
102
RTVSPropertyOp2
 70
     1
102
RTVSPropertyOp3
 70
     1
102
RTVSPropertyOp4
 70
     1
102
RTVSPropertyOp5
 70
     1
102
RTVSPropertyOp6
 70
     1
102
RTVSPropertyOp7
 70
     1
102
RTVSPropertyOp8
 70
     1
102
RTVSPropertyOp9
 70
     1
102
RTVSPropertyOp10
 70
     1
102
RTVSPropertyOp11
 70
     1
102
RTVSPropertyOp12
 70
     1
102
RTVSPropertyOp13
 70
     1
102
RTVSPropertyOp14
 70
     1
102
RTVSPropertyOp15
 70
     1
102
RTVSPropertyOp16
 70
     1
102
RTVSPropertyOp17
 70
     1
102
RTVSPropertyOp18
 70
     1
102
RTVSPropertyOp19
 70
     1
102
RTVSPropertyOp20
 70
     1
102
RTVSPropertyOp21
 70
     1
102
RTVSPropertyOp22
 70
     1
102
RTVSPropertyOp23
 70
     1
102
RTVSPropertyOp24
 70
     1
102
RTVSPropertyOp25
 70
     1
102
RTVSPropertyOp26
 70
     1
102
RTVSPropertyOp27
 70
     1
102
RTVSPropertyOp28
 70
     1
102
RTVSPropertyOp29
 70
     1
102
RTVSPropertyOp30
 70
     1
102
RTVSPropertyOp31
 70
     1
102
RTVSPropertyOp32
 70
     1
102
RTVSPropertyOp33
 70
     1
102
RTVSPropertyOp34
 70
     1
102
RTVSPropertyOp35
 70
     1
102
RTVSPropertyOp36
 70
     1
102
RTVSPropertyOp37
 70
     1
102
RTVSPropertyOp38
 70
     1
102
RTVSPropertyOp39
 70
     1
102
RTVSPropertyOp40
 70
     1
102
RTVSPropertyOp41
 70
     1
102
RTVSPropertyOp42
 70
     1
102
RTVSPropertyOp43
 70
     1
102
RTVSPropertyOp44
 70
     1
102
RTVSPropertyOp45
 70
     1
102
RTVSPropertyOp46
 70
     1
102
RTVSPropertyOp47
 70
     1
102
RTVSPropertyOp48
 70
     1
102
RTVSPropertyOp49
 70
     1
102
RTVSPropertyOp50
 70
     1
102
RTVSPropertyOp51
 70
     0
102
RTVSPropertyOp52
 70
     0
102
RTVSPropertyOp53
 70
     1
102
RTVSPropertyOp54
 70
     1
102
RTVSPropertyOp55
 70
     1
102
RTVSPropertyOp56
 70
     1
102
RTVSPropertyOp57
 70
     1
102
RTVSPropertyOp58
 70
     1
102
RTVSPropertyOp59
 70
     1
102
RTVSPropertyOp60
 70
     1
102
RTVSPropertyOp61
 70
     1
102
RTVSPropertyOp62
 70
     1
  0
XRECORD
  5
AB8C
102
{ACAD_REACTORS
330
AB8B
102
}
330
AB8B
100
AcDbXrecord
280
     1
102
RTVSPost2010Prop28
280
     0
102
RTVSPost2010PropOp28
 70
     1
102
RTVSPost2010Prop29
280
     1
102
RTVSPost2010PropOp29
 70
     1
102
RTVSPost2010Prop30
280
     1
102
RTVSPost2010PropOp30
 70
     1
102
RTVSPost2010Prop31
280
     0
102
RTVSPost2010PropOp31
 70
     1
102
RTVSPost2010Prop32
280
     0
102
RTVSPost2010PropOp32
 70
     1
102
RTVSPost2010Prop33
280
     0
102
RTVSPost2010PropOp33
 70
     1
102
RTVSPost2010Prop34
280
     0
102
RTVSPost2010PropOp34
 70
     1
102
RTVSPost2010Prop35
280
     0
102
RTVSPost2010PropOp35
 70
     1
102
RTVSPost2010Prop36
280
     0
102
RTVSPost2010PropOp36
 70
     1
102
RTVSPost2010Prop37
 90
       50
102
RTVSPost2010PropOp37
 70
     1
102
RTVSPost2010Prop38
140
0.0
102
RTVSPost2010PropOp38
 70
     1
102
RTVSPost2010Prop39
140
1.0
102
RTVSPost2010PropOp39
 70
     1
102
RTVSPost2010Prop40
 90
        0
102
RTVSPost2010PropOp40
 70
     1
102
RTVSPost2010Prop41ColorIndex
 90
       18
102
RTVSPost2010Prop41ColorRGB
 90
        0
102
RTVSPost2010PropOp41
 70
     1
102
RTVSPost2010Prop42
 90
       50
102
RTVSPost2010PropOp42
 70
     1
102
RTVSPost2010Prop43
 90
        3
102
RTVSPost2010PropOp43
 70
     1
102
RTVSPost2010Prop44ColorIndex
 90
        5
102
RTVSPost2010Prop44ColorRGB
 90
      255
102
RTVSPost2010PropOp44
 70
     1
102
RTVSPost2010Prop45
280
     0
102
RTVSPost2010PropOp45
 70
     1
102
RTVSPost2010Prop46
 90
       50
102
RTVSPost2010PropOp46
 70
     1
102
RTVSPost2010Prop47
 90
       50
102
RTVSPost2010PropOp47
 70
     1
102
RTVSPost2010Prop48
 90
       50
102
RTVSPost2010PropOp48
 70
     1
102
RTVSPost2010Prop49
280
     0
102
RTVSPost2010PropOp49
 70
     1
102
RTVSPost2010Prop50
 90
       50
102
RTVSPost2010PropOp50
 70
     1
102
RTVSPost2010Prop51ColorIndex
 90
      256
102
RTVSPost2010Prop51ColorRGB
 90
-16777216
102
RTVSPost2010PropOp51
 70
     0
102
RTVSPost2010Prop52
140
1.0
102
RTVSPost2010PropOp52
 70
     0
102
RTVSPost2010Prop53
 90
        2
102
RTVSPost2010PropOp53
 70
     1
102
RTVSPost2010Prop54
  1
strokes_ogs.tif
102
RTVSPost2010PropOp54
 70
     1
102
RTVSPost2010Prop55
280
     0
102
RTVSPost2010PropOp55
 70
     1
102
RTVSPost2010Prop56
140
1.0
102
RTVSPost2010PropOp56
 70
     1
102
RTVSPost2010Prop57
140
1.0
102
RTVSPost2010PropOp57
 70
     1
102
RTVSPropertyOp0
 70
     1
102
RTVSPropertyOp1
 70
     1
102
RTVSPropertyOp2
 70
     1
102
RTVSPropertyOp3
 70
     1
102
RTVSPropertyOp4
 70
     1
102
RTVSPropertyOp5
 70
     1
102
RTVSPropertyOp6
 70
     1
102
RTVSPropertyOp7
 70
     1
102
RTVSPropertyOp8
 70
     1
102
RTVSPropertyOp9
 70
     1
102
RTVSPropertyOp10
 70
     1
102
RTVSPropertyOp11
 70
     1
102
RTVSPropertyOp12
 70
     1
102
RTVSPropertyOp13
 70
     1
102
RTVSPropertyOp14
 70
     1
102
RTVSPropertyOp15
 70
     1
102
RTVSPropertyOp16
 70
     1
102
RTVSPropertyOp17
 70
     1
102
RTVSPropertyOp18
 70
     1
102
RTVSPropertyOp19
 70
     1
102
RTVSPropertyOp20
 70
     1
102
RTVSPropertyOp21
 70
     1
102
RTVSPropertyOp22
 70
     1
102
RTVSPropertyOp23
 70
     1
102
RTVSPropertyOp24
 70
     1
102
RTVSPropertyOp25
 70
     1
102
RTVSPropertyOp26
 70
     1
102
RTVSPropertyOp27
 70
     1
102
RTVSPropertyOp28
 70
     1
102
RTVSPropertyOp29
 70
     1
102
RTVSPropertyOp30
 70
     1
102
RTVSPropertyOp31
 70
     1
102
RTVSPropertyOp32
 70
     1
102
RTVSPropertyOp33
 70
     1
102
RTVSPropertyOp34
 70
     1
102
RTVSPropertyOp35
 70
     1
102
RTVSPropertyOp36
 70
     1
102
RTVSPropertyOp37
 70
     1
102
RTVSPropertyOp38
 70
     1
102
RTVSPropertyOp39
 70
     1
102
RTVSPropertyOp40
 70
     1
102
RTVSPropertyOp41
 70
     1
102
RTVSPropertyOp42
 70
     1
102
RTVSPropertyOp43
 70
     1
102
RTVSPropertyOp44
 70
     1
102
RTVSPropertyOp45
 70
     1
102
RTVSPropertyOp46
 70
     1
102
RTVSPropertyOp47
 70
     1
102
RTVSPropertyOp48
 70
     1
102
RTVSPropertyOp49
 70
     1
102
RTVSPropertyOp50
 70
     1
102
RTVSPropertyOp51
 70
     0
102
RTVSPropertyOp52
 70
     0
102
RTVSPropertyOp53
 70
     1
102
RTVSPropertyOp54
 70
     1
102
RTVSPropertyOp55
 70
     1
102
RTVSPropertyOp56
 70
     1
102
RTVSPropertyOp57
 70
     1
102
RTVSPropertyOp58
 70
     1
102
RTVSPropertyOp59
 70
     1
102
RTVSPropertyOp60
 70
     1
102
RTVSPropertyOp61
 70
     1
102
RTVSPropertyOp62
 70
     1
  0
XRECORD
  5
AB8E
102
{ACAD_REACTORS
330
AB8D
102
}
330
AB8D
100
AcDbXrecord
280
     1
102
RTVSPost2010Prop28
280
     0
102
RTVSPost2010PropOp28
 70
     1
102
RTVSPost2010Prop29
280
     1
102
RTVSPost2010PropOp29
 70
     1
102
RTVSPost2010Prop30
280
     1
102
RTVSPost2010PropOp30
 70
     1
102
RTVSPost2010Prop31
280
     0
102
RTVSPost2010PropOp31
 70
     1
102
RTVSPost2010Prop32
280
     0
102
RTVSPost2010PropOp32
 70
     1
102
RTVSPost2010Prop33
280
     0
102
RTVSPost2010PropOp33
 70
     1
102
RTVSPost2010Prop34
280
     0
102
RTVSPost2010PropOp34
 70
     1
102
RTVSPost2010Prop35
280
     0
102
RTVSPost2010PropOp35
 70
     1
102
RTVSPost2010Prop36
280
     0
102
RTVSPost2010PropOp36
 70
     1
102
RTVSPost2010Prop37
 90
       50
102
RTVSPost2010PropOp37
 70
     1
102
RTVSPost2010Prop38
140
0.0
102
RTVSPost2010PropOp38
 70
     1
102
RTVSPost2010Prop39
140
1.0
102
RTVSPost2010PropOp39
 70
     1
102
RTVSPost2010Prop40
 90
        0
102
RTVSPost2010PropOp40
 70
     1
102
RTVSPost2010Prop41ColorIndex
 90
       18
102
RTVSPost2010Prop41ColorRGB
 90
        0
102
RTVSPost2010PropOp41
 70
     1
102
RTVSPost2010Prop42
 90
       50
102
RTVSPost2010PropOp42
 70
     1
102
RTVSPost2010Prop43
 90
        3
102
RTVSPost2010PropOp43
 70
     1
102
RTVSPost2010Prop44ColorIndex
 90
        5
102
RTVSPost2010Prop44ColorRGB
 90
      255
102
RTVSPost2010PropOp44
 70
     1
102
RTVSPost2010Prop45
280
     0
102
RTVSPost2010PropOp45
 70
     1
102
RTVSPost2010Prop46
 90
       50
102
RTVSPost2010PropOp46
 70
     1
102
RTVSPost2010Prop47
 90
       50
102
RTVSPost2010PropOp47
 70
     1
102
RTVSPost2010Prop48
 90
       50
102
RTVSPost2010PropOp48
 70
     1
102
RTVSPost2010Prop49
280
     0
102
RTVSPost2010PropOp49
 70
     1
102
RTVSPost2010Prop50
 90
       50
102
RTVSPost2010PropOp50
 70
     1
102
RTVSPost2010Prop51ColorIndex
 90
      256
102
RTVSPost2010Prop51ColorRGB
 90
-16777216
102
RTVSPost2010PropOp51
 70
     0
102
RTVSPost2010Prop52
140
1.0
102
RTVSPost2010PropOp52
 70
     0
102
RTVSPost2010Prop53
 90
        2
102
RTVSPost2010PropOp53
 70
     1
102
RTVSPost2010Prop54
  1
strokes_ogs.tif
102
RTVSPost2010PropOp54
 70
     1
102
RTVSPost2010Prop55
280
     0
102
RTVSPost2010PropOp55
 70
     1
102
RTVSPost2010Prop56
140
1.0
102
RTVSPost2010PropOp56
 70
     1
102
RTVSPost2010Prop57
140
1.0
102
RTVSPost2010PropOp57
 70
     1
102
RTVSPropertyOp0
 70
     1
102
RTVSPropertyOp1
 70
     1
102
RTVSPropertyOp2
 70
     1
102
RTVSPropertyOp3
 70
     1
102
RTVSPropertyOp4
 70
     1
102
RTVSPropertyOp5
 70
     1
102
RTVSPropertyOp6
 70
     1
102
RTVSPropertyOp7
 70
     1
102
RTVSPropertyOp8
 70
     1
102
RTVSPropertyOp9
 70
     1
102
RTVSPropertyOp10
 70
     1
102
RTVSPropertyOp11
 70
     1
102
RTVSPropertyOp12
 70
     1
102
RTVSPropertyOp13
 70
     1
102
RTVSPropertyOp14
 70
     1
102
RTVSPropertyOp15
 70
     1
102
RTVSPropertyOp16
 70
     1
102
RTVSPropertyOp17
 70
     1
102
RTVSPropertyOp18
 70
     1
102
RTVSPropertyOp19
 70
     1
102
RTVSPropertyOp20
 70
     1
102
RTVSPropertyOp21
 70
     1
102
RTVSPropertyOp22
 70
     1
102
RTVSPropertyOp23
 70
     1
102
RTVSPropertyOp24
 70
     1
102
RTVSPropertyOp25
 70
     1
102
RTVSPropertyOp26
 70
     1
102
RTVSPropertyOp27
 70
     1
102
RTVSPropertyOp28
 70
     1
102
RTVSPropertyOp29
 70
     1
102
RTVSPropertyOp30
 70
     1
102
RTVSPropertyOp31
 70
     1
102
RTVSPropertyOp32
 70
     1
102
RTVSPropertyOp33
 70
     1
102
RTVSPropertyOp34
 70
     1
102
RTVSPropertyOp35
 70
     1
102
RTVSPropertyOp36
 70
     1
102
RTVSPropertyOp37
 70
     1
102
RTVSPropertyOp38
 70
     1
102
RTVSPropertyOp39
 70
     1
102
RTVSPropertyOp40
 70
     1
102
RTVSPropertyOp41
 70
     1
102
RTVSPropertyOp42
 70
     1
102
RTVSPropertyOp43
 70
     1
102
RTVSPropertyOp44
 70
     1
102
RTVSPropertyOp45
 70
     1
102
RTVSPropertyOp46
 70
     1
102
RTVSPropertyOp47
 70
     1
102
RTVSPropertyOp48
 70
     1
102
RTVSPropertyOp49
 70
     1
102
RTVSPropertyOp50
 70
     1
102
RTVSPropertyOp51
 70
     0
102
RTVSPropertyOp52
 70
     0
102
RTVSPropertyOp53
 70
     1
102
RTVSPropertyOp54
 70
     1
102
RTVSPropertyOp55
 70
     1
102
RTVSPropertyOp56
 70
     1
102
RTVSPropertyOp57
 70
     1
102
RTVSPropertyOp58
 70
     1
102
RTVSPropertyOp59
 70
     1
102
RTVSPropertyOp60
 70
     1
102
RTVSPropertyOp61
 70
     1
102
RTVSPropertyOp62
 70
     1
  0
XRECORD
  5
AB90
102
{ACAD_REACTORS
330
AB8F
102
}
330
AB8F
100
AcDbXrecord
280
     1
102
RTVSPost2010Prop28
280
     0
102
RTVSPost2010PropOp28
 70
     1
102
RTVSPost2010Prop29
280
     1
102
RTVSPost2010PropOp29
 70
     1
102
RTVSPost2010Prop30
280
     1
102
RTVSPost2010PropOp30
 70
     1
102
RTVSPost2010Prop31
280
     0
102
RTVSPost2010PropOp31
 70
     1
102
RTVSPost2010Prop32
280
     0
102
RTVSPost2010PropOp32
 70
     1
102
RTVSPost2010Prop33
280
     0
102
RTVSPost2010PropOp33
 70
     1
102
RTVSPost2010Prop34
280
     0
102
RTVSPost2010PropOp34
 70
     1
102
RTVSPost2010Prop35
280
     0
102
RTVSPost2010PropOp35
 70
     1
102
RTVSPost2010Prop36
280
     0
102
RTVSPost2010PropOp36
 70
     1
102
RTVSPost2010Prop37
 90
       50
102
RTVSPost2010PropOp37
 70
     1
102
RTVSPost2010Prop38
140
0.0
102
RTVSPost2010PropOp38
 70
     1
102
RTVSPost2010Prop39
140
1.0
102
RTVSPost2010PropOp39
 70
     1
102
RTVSPost2010Prop40
 90
        0
102
RTVSPost2010PropOp40
 70
     1
102
RTVSPost2010Prop41ColorIndex
 90
       18
102
RTVSPost2010Prop41ColorRGB
 90
        0
102
RTVSPost2010PropOp41
 70
     1
102
RTVSPost2010Prop42
 90
       50
102
RTVSPost2010PropOp42
 70
     1
102
RTVSPost2010Prop43
 90
        3
102
RTVSPost2010PropOp43
 70
     1
102
RTVSPost2010Prop44ColorIndex
 90
        5
102
RTVSPost2010Prop44ColorRGB
 90
      255
102
RTVSPost2010PropOp44
 70
     1
102
RTVSPost2010Prop45
280
     0
102
RTVSPost2010PropOp45
 70
     1
102
RTVSPost2010Prop46
 90
       50
102
RTVSPost2010PropOp46
 70
     1
102
RTVSPost2010Prop47
 90
       50
102
RTVSPost2010PropOp47
 70
     1
102
RTVSPost2010Prop48
 90
       50
102
RTVSPost2010PropOp48
 70
     1
102
RTVSPost2010Prop49
280
     0
102
RTVSPost2010PropOp49
 70
     1
102
RTVSPost2010Prop50
 90
       50
102
RTVSPost2010PropOp50
 70
     1
102
RTVSPost2010Prop51ColorIndex
 90
      256
102
RTVSPost2010Prop51ColorRGB
 90
-16777216
102
RTVSPost2010PropOp51
 70
     0
102
RTVSPost2010Prop52
140
1.0
102
RTVSPost2010PropOp52
 70
     0
102
RTVSPost2010Prop53
 90
        2
102
RTVSPost2010PropOp53
 70
     1
102
RTVSPost2010Prop54
  1
strokes_ogs.tif
102
RTVSPost2010PropOp54
 70
     1
102
RTVSPost2010Prop55
280
     0
102
RTVSPost2010PropOp55
 70
     1
102
RTVSPost2010Prop56
140
1.0
102
RTVSPost2010PropOp56
 70
     1
102
RTVSPost2010Prop57
140
1.0
102
RTVSPost2010PropOp57
 70
     1
102
RTVSPropertyOp0
 70
     1
102
RTVSPropertyOp1
 70
     1
102
RTVSPropertyOp2
 70
     1
102
RTVSPropertyOp3
 70
     1
102
RTVSPropertyOp4
 70
     1
102
RTVSPropertyOp5
 70
     1
102
RTVSPropertyOp6
 70
     1
102
RTVSPropertyOp7
 70
     1
102
RTVSPropertyOp8
 70
     1
102
RTVSPropertyOp9
 70
     1
102
RTVSPropertyOp10
 70
     1
102
RTVSPropertyOp11
 70
     1
102
RTVSPropertyOp12
 70
     1
102
RTVSPropertyOp13
 70
     1
102
RTVSPropertyOp14
 70
     1
102
RTVSPropertyOp15
 70
     1
102
RTVSPropertyOp16
 70
     1
102
RTVSPropertyOp17
 70
     1
102
RTVSPropertyOp18
 70
     1
102
RTVSPropertyOp19
 70
     1
102
RTVSPropertyOp20
 70
     1
102
RTVSPropertyOp21
 70
     1
102
RTVSPropertyOp22
 70
     1
102
RTVSPropertyOp23
 70
     1
102
RTVSPropertyOp24
 70
     1
102
RTVSPropertyOp25
 70
     1
102
RTVSPropertyOp26
 70
     1
102
RTVSPropertyOp27
 70
     1
102
RTVSPropertyOp28
 70
     1
102
RTVSPropertyOp29
 70
     1
102
RTVSPropertyOp30
 70
     1
102
RTVSPropertyOp31
 70
     1
102
RTVSPropertyOp32
 70
     1
102
RTVSPropertyOp33
 70
     1
102
RTVSPropertyOp34
 70
     1
102
RTVSPropertyOp35
 70
     1
102
RTVSPropertyOp36
 70
     1
102
RTVSPropertyOp37
 70
     1
102
RTVSPropertyOp38
 70
     1
102
RTVSPropertyOp39
 70
     1
102
RTVSPropertyOp40
 70
     1
102
RTVSPropertyOp41
 70
     1
102
RTVSPropertyOp42
 70
     1
102
RTVSPropertyOp43
 70
     1
102
RTVSPropertyOp44
 70
     1
102
RTVSPropertyOp45
 70
     1
102
RTVSPropertyOp46
 70
     1
102
RTVSPropertyOp47
 70
     1
102
RTVSPropertyOp48
 70
     1
102
RTVSPropertyOp49
 70
     1
102
RTVSPropertyOp50
 70
     1
102
RTVSPropertyOp51
 70
     0
102
RTVSPropertyOp52
 70
     0
102
RTVSPropertyOp53
 70
     1
102
RTVSPropertyOp54
 70
     1
102
RTVSPropertyOp55
 70
     1
102
RTVSPropertyOp56
 70
     1
102
RTVSPropertyOp57
 70
     1
102
RTVSPropertyOp58
 70
     1
102
RTVSPropertyOp59
 70
     1
102
RTVSPropertyOp60
 70
     1
102
RTVSPropertyOp61
 70
     1
102
RTVSPropertyOp62
 70
     1
  0
XRECORD
  5
AB92
102
{ACAD_REACTORS
330
AB91
102
}
330
AB91
100
AcDbXrecord
280
     1
102
RTVSPost2010Prop28
280
     0
102
RTVSPost2010PropOp28
 70
     1
102
RTVSPost2010Prop29
280
     1
102
RTVSPost2010PropOp29
 70
     1
102
RTVSPost2010Prop30
280
     1
102
RTVSPost2010PropOp30
 70
     1
102
RTVSPost2010Prop31
280
     0
102
RTVSPost2010PropOp31
 70
     1
102
RTVSPost2010Prop32
280
     0
102
RTVSPost2010PropOp32
 70
     1
102
RTVSPost2010Prop33
280
     0
102
RTVSPost2010PropOp33
 70
     1
102
RTVSPost2010Prop34
280
     0
102
RTVSPost2010PropOp34
 70
     1
102
RTVSPost2010Prop35
280
     0
102
RTVSPost2010PropOp35
 70
     1
102
RTVSPost2010Prop36
280
     0
102
RTVSPost2010PropOp36
 70
     1
102
RTVSPost2010Prop37
 90
       50
102
RTVSPost2010PropOp37
 70
     1
102
RTVSPost2010Prop38
140
0.0
102
RTVSPost2010PropOp38
 70
     1
102
RTVSPost2010Prop39
140
1.0
102
RTVSPost2010PropOp39
 70
     1
102
RTVSPost2010Prop40
 90
        0
102
RTVSPost2010PropOp40
 70
     1
102
RTVSPost2010Prop41ColorIndex
 90
       18
102
RTVSPost2010Prop41ColorRGB
 90
        0
102
RTVSPost2010PropOp41
 70
     1
102
RTVSPost2010Prop42
 90
       50
102
RTVSPost2010PropOp42
 70
     1
102
RTVSPost2010Prop43
 90
        3
102
RTVSPost2010PropOp43
 70
     1
102
RTVSPost2010Prop44ColorIndex
 90
        5
102
RTVSPost2010Prop44ColorRGB
 90
      255
102
RTVSPost2010PropOp44
 70
     1
102
RTVSPost2010Prop45
280
     0
102
RTVSPost2010PropOp45
 70
     1
102
RTVSPost2010Prop46
 90
       50
102
RTVSPost2010PropOp46
 70
     1
102
RTVSPost2010Prop47
 90
       50
102
RTVSPost2010PropOp47
 70
     1
102
RTVSPost2010Prop48
 90
       50
102
RTVSPost2010PropOp48
 70
     1
102
RTVSPost2010Prop49
280
     0
102
RTVSPost2010PropOp49
 70
     1
102
RTVSPost2010Prop50
 90
       50
102
RTVSPost2010PropOp50
 70
     1
102
RTVSPost2010Prop51ColorIndex
 90
      256
102
RTVSPost2010Prop51ColorRGB
 90
-16777216
102
RTVSPost2010PropOp51
 70
     0
102
RTVSPost2010Prop52
140
1.0
102
RTVSPost2010PropOp52
 70
     0
102
RTVSPost2010Prop53
 90
        2
102
RTVSPost2010PropOp53
 70
     1
102
RTVSPost2010Prop54
  1
strokes_ogs.tif
102
RTVSPost2010PropOp54
 70
     1
102
RTVSPost2010Prop55
280
     0
102
RTVSPost2010PropOp55
 70
     1
102
RTVSPost2010Prop56
140
1.0
102
RTVSPost2010PropOp56
 70
     1
102
RTVSPost2010Prop57
140
1.0
102
RTVSPost2010PropOp57
 70
     1
102
RTVSPropertyOp0
 70
     1
102
RTVSPropertyOp1
 70
     1
102
RTVSPropertyOp2
 70
     1
102
RTVSPropertyOp3
 70
     1
102
RTVSPropertyOp4
 70
     1
102
RTVSPropertyOp5
 70
     1
102
RTVSPropertyOp6
 70
     1
102
RTVSPropertyOp7
 70
     1
102
RTVSPropertyOp8
 70
     1
102
RTVSPropertyOp9
 70
     1
102
RTVSPropertyOp10
 70
     1
102
RTVSPropertyOp11
 70
     1
102
RTVSPropertyOp12
 70
     1
102
RTVSPropertyOp13
 70
     1
102
RTVSPropertyOp14
 70
     1
102
RTVSPropertyOp15
 70
     1
102
RTVSPropertyOp16
 70
     1
102
RTVSPropertyOp17
 70
     1
102
RTVSPropertyOp18
 70
     1
102
RTVSPropertyOp19
 70
     1
102
RTVSPropertyOp20
 70
     1
102
RTVSPropertyOp21
 70
     1
102
RTVSPropertyOp22
 70
     1
102
RTVSPropertyOp23
 70
     1
102
RTVSPropertyOp24
 70
     1
102
RTVSPropertyOp25
 70
     1
102
RTVSPropertyOp26
 70
     1
102
RTVSPropertyOp27
 70
     1
102
RTVSPropertyOp28
 70
     1
102
RTVSPropertyOp29
 70
     1
102
RTVSPropertyOp30
 70
     1
102
RTVSPropertyOp31
 70
     1
102
RTVSPropertyOp32
 70
     1
102
RTVSPropertyOp33
 70
     1
102
RTVSPropertyOp34
 70
     1
102
RTVSPropertyOp35
 70
     1
102
RTVSPropertyOp36
 70
     1
102
RTVSPropertyOp37
 70
     1
102
RTVSPropertyOp38
 70
     1
102
RTVSPropertyOp39
 70
     1
102
RTVSPropertyOp40
 70
     1
102
RTVSPropertyOp41
 70
     1
102
RTVSPropertyOp42
 70
     1
102
RTVSPropertyOp43
 70
     1
102
RTVSPropertyOp44
 70
     1
102
RTVSPropertyOp45
 70
     1
102
RTVSPropertyOp46
 70
     1
102
RTVSPropertyOp47
 70
     1
102
RTVSPropertyOp48
 70
     1
102
RTVSPropertyOp49
 70
     1
102
RTVSPropertyOp50
 70
     1
102
RTVSPropertyOp51
 70
     0
102
RTVSPropertyOp52
 70
     0
102
RTVSPropertyOp53
 70
     1
102
RTVSPropertyOp54
 70
     1
102
RTVSPropertyOp55
 70
     1
102
RTVSPropertyOp56
 70
     1
102
RTVSPropertyOp57
 70
     1
102
RTVSPropertyOp58
 70
     1
102
RTVSPropertyOp59
 70
     1
102
RTVSPropertyOp60
 70
     1
102
RTVSPropertyOp61
 70
     1
102
RTVSPropertyOp62
 70
     1
  0
XRECORD
  5
AB9A
102
{ACAD_REACTORS
330
AB99
102
}
330
AB99
100
AcDbXrecord
280
     1
102
RTVSPost2010Prop28
280
     0
102
RTVSPost2010PropOp28
 70
     1
102
RTVSPost2010Prop29
280
     1
102
RTVSPost2010PropOp29
 70
     1
102
RTVSPost2010Prop30
280
     1
102
RTVSPost2010PropOp30
 70
     1
102
RTVSPost2010Prop31
280
     0
102
RTVSPost2010PropOp31
 70
     1
102
RTVSPost2010Prop32
280
     0
102
RTVSPost2010PropOp32
 70
     1
102
RTVSPost2010Prop33
280
     0
102
RTVSPost2010PropOp33
 70
     1
102
RTVSPost2010Prop34
280
     0
102
RTVSPost2010PropOp34
 70
     1
102
RTVSPost2010Prop35
280
     0
102
RTVSPost2010PropOp35
 70
     1
102
RTVSPost2010Prop36
280
     0
102
RTVSPost2010PropOp36
 70
     1
102
RTVSPost2010Prop37
 90
       50
102
RTVSPost2010PropOp37
 70
     1
102
RTVSPost2010Prop38
140
0.0
102
RTVSPost2010PropOp38
 70
     1
102
RTVSPost2010Prop39
140
1.0
102
RTVSPost2010PropOp39
 70
     1
102
RTVSPost2010Prop40
 90
        0
102
RTVSPost2010PropOp40
 70
     1
102
RTVSPost2010Prop41ColorIndex
 90
       18
102
RTVSPost2010Prop41ColorRGB
 90
        0
102
RTVSPost2010PropOp41
 70
     1
102
RTVSPost2010Prop42
 90
       50
102
RTVSPost2010PropOp42
 70
     1
102
RTVSPost2010Prop43
 90
        3
102
RTVSPost2010PropOp43
 70
     1
102
RTVSPost2010Prop44ColorIndex
 90
        5
102
RTVSPost2010Prop44ColorRGB
 90
      255
102
RTVSPost2010PropOp44
 70
     1
102
RTVSPost2010Prop45
280
     0
102
RTVSPost2010PropOp45
 70
     1
102
RTVSPost2010Prop46
 90
       50
102
RTVSPost2010PropOp46
 70
     1
102
RTVSPost2010Prop47
 90
       50
102
RTVSPost2010PropOp47
 70
     1
102
RTVSPost2010Prop48
 90
       50
102
RTVSPost2010PropOp48
 70
     1
102
RTVSPost2010Prop49
280
     0
102
RTVSPost2010PropOp49
 70
     1
102
RTVSPost2010Prop50
 90
       50
102
RTVSPost2010PropOp50
 70
     1
102
RTVSPost2010Prop51ColorIndex
 90
      256
102
RTVSPost2010Prop51ColorRGB
 90
-16777216
102
RTVSPost2010PropOp51
 70
     0
102
RTVSPost2010Prop52
140
1.0
102
RTVSPost2010PropOp52
 70
     0
102
RTVSPost2010Prop53
 90
        2
102
RTVSPost2010PropOp53
 70
     1
102
RTVSPost2010Prop54
  1
strokes_ogs.tif
102
RTVSPost2010PropOp54
 70
     1
102
RTVSPost2010Prop55
280
     0
102
RTVSPost2010PropOp55
 70
     1
102
RTVSPost2010Prop56
140
1.0
102
RTVSPost2010PropOp56
 70
     1
102
RTVSPost2010Prop57
140
1.0
102
RTVSPost2010PropOp57
 70
     1
102
RTVSPropertyOp0
 70
     1
102
RTVSPropertyOp1
 70
     1
102
RTVSPropertyOp2
 70
     1
102
RTVSPropertyOp3
 70
     1
102
RTVSPropertyOp4
 70
     1
102
RTVSPropertyOp5
 70
     1
102
RTVSPropertyOp6
 70
     1
102
RTVSPropertyOp7
 70
     1
102
RTVSPropertyOp8
 70
     1
102
RTVSPropertyOp9
 70
     1
102
RTVSPropertyOp10
 70
     1
102
RTVSPropertyOp11
 70
     1
102
RTVSPropertyOp12
 70
     1
102
RTVSPropertyOp13
 70
     1
102
RTVSPropertyOp14
 70
     1
102
RTVSPropertyOp15
 70
     1
102
RTVSPropertyOp16
 70
     1
102
RTVSPropertyOp17
 70
     1
102
RTVSPropertyOp18
 70
     1
102
RTVSPropertyOp19
 70
     1
102
RTVSPropertyOp20
 70
     1
102
RTVSPropertyOp21
 70
     1
102
RTVSPropertyOp22
 70
     1
102
RTVSPropertyOp23
 70
     1
102
RTVSPropertyOp24
 70
     1
102
RTVSPropertyOp25
 70
     1
102
RTVSPropertyOp26
 70
     1
102
RTVSPropertyOp27
 70
     1
102
RTVSPropertyOp28
 70
     1
102
RTVSPropertyOp29
 70
     1
102
RTVSPropertyOp30
 70
     1
102
RTVSPropertyOp31
 70
     1
102
RTVSPropertyOp32
 70
     1
102
RTVSPropertyOp33
 70
     1
102
RTVSPropertyOp34
 70
     1
102
RTVSPropertyOp35
 70
     1
102
RTVSPropertyOp36
 70
     1
102
RTVSPropertyOp37
 70
     1
102
RTVSPropertyOp38
 70
     1
102
RTVSPropertyOp39
 70
     1
102
RTVSPropertyOp40
 70
     1
102
RTVSPropertyOp41
 70
     1
102
RTVSPropertyOp42
 70
     1
102
RTVSPropertyOp43
 70
     1
102
RTVSPropertyOp44
 70
     1
102
RTVSPropertyOp45
 70
     1
102
RTVSPropertyOp46
 70
     1
102
RTVSPropertyOp47
 70
     1
102
RTVSPropertyOp48
 70
     1
102
RTVSPropertyOp49
 70
     1
102
RTVSPropertyOp50
 70
     1
102
RTVSPropertyOp51
 70
     0
102
RTVSPropertyOp52
 70
     0
102
RTVSPropertyOp53
 70
     1
102
RTVSPropertyOp54
 70
     1
102
RTVSPropertyOp55
 70
     1
102
RTVSPropertyOp56
 70
     1
102
RTVSPropertyOp57
 70
     1
102
RTVSPropertyOp58
 70
     1
102
RTVSPropertyOp59
 70
     1
102
RTVSPropertyOp60
 70
     1
102
RTVSPropertyOp61
 70
     1
102
RTVSPropertyOp62
 70
     1
  0
XRECORD
  5
ABB6
102
{ACAD_REACTORS
330
ABB5
102
}
330
ABB5
100
AcDbXrecord
280
     1
102
RTVSPost2010Prop28
280
     0
102
RTVSPost2010PropOp28
 70
     1
102
RTVSPost2010Prop29
280
     1
102
RTVSPost2010PropOp29
 70
     1
102
RTVSPost2010Prop30
280
     1
102
RTVSPost2010PropOp30
 70
     1
102
RTVSPost2010Prop31
280
     0
102
RTVSPost2010PropOp31
 70
     1
102
RTVSPost2010Prop32
280
     0
102
RTVSPost2010PropOp32
 70
     1
102
RTVSPost2010Prop33
280
     0
102
RTVSPost2010PropOp33
 70
     1
102
RTVSPost2010Prop34
280
     0
102
RTVSPost2010PropOp34
 70
     1
102
RTVSPost2010Prop35
280
     0
102
RTVSPost2010PropOp35
 70
     1
102
RTVSPost2010Prop36
280
     0
102
RTVSPost2010PropOp36
 70
     1
102
RTVSPost2010Prop37
 90
       50
102
RTVSPost2010PropOp37
 70
     0
102
RTVSPost2010Prop38
140
0.0
102
RTVSPost2010PropOp38
 70
     0
102
RTVSPost2010Prop39
140
1.0
102
RTVSPost2010PropOp39
 70
     0
102
RTVSPost2010Prop40
 90
        0
102
RTVSPost2010PropOp40
 70
     0
102
RTVSPost2010Prop41ColorIndex
 90
       18
102
RTVSPost2010Prop41ColorRGB
 90
        0
102
RTVSPost2010PropOp41
 70
     0
102
RTVSPost2010Prop42
 90
       50
102
RTVSPost2010PropOp42
 70
     0
102
RTVSPost2010Prop43
 90
        3
102
RTVSPost2010PropOp43
 70
     0
102
RTVSPost2010Prop44ColorIndex
 90
        5
102
RTVSPost2010Prop44ColorRGB
 90
      255
102
RTVSPost2010PropOp44
 70
     0
102
RTVSPost2010Prop45
280
     0
102
RTVSPost2010PropOp45
 70
     1
102
RTVSPost2010Prop46
 90
       50
102
RTVSPost2010PropOp46
 70
     0
102
RTVSPost2010Prop47
 90
       50
102
RTVSPost2010PropOp47
 70
     0
102
RTVSPost2010Prop48
 90
       50
102
RTVSPost2010PropOp48
 70
     0
102
RTVSPost2010Prop49
280
     0
102
RTVSPost2010PropOp49
 70
     1
102
RTVSPost2010Prop50
 90
       50
102
RTVSPost2010PropOp50
 70
     0
102
RTVSPost2010Prop51ColorIndex
 90
      256
102
RTVSPost2010Prop51ColorRGB
 90
-16777216
102
RTVSPost2010PropOp51
 70
     0
102
RTVSPost2010Prop52
140
1.0
102
RTVSPost2010PropOp52
 70
     0
102
RTVSPost2010Prop53
 90
        2
102
RTVSPost2010PropOp53
 70
     0
102
RTVSPost2010Prop54
  1
strokes_ogs.tif
102
RTVSPost2010PropOp54
 70
     0
102
RTVSPost2010Prop55
280
     0
102
RTVSPost2010PropOp55
 70
     1
102
RTVSPost2010Prop56
140
1.0
102
RTVSPost2010PropOp56
 70
     0
102
RTVSPost2010Prop57
140
1.0
102
RTVSPost2010PropOp57
 70
     0
102
RTVSPropertyOp0
 70
     0
102
RTVSPropertyOp1
 70
     0
102
RTVSPropertyOp2
 70
     0
102
RTVSPropertyOp3
 70
     0
102
RTVSPropertyOp4
 70
     0
102
RTVSPropertyOp5
 70
     0
102
RTVSPropertyOp6
 70
     0
102
RTVSPropertyOp7
 70
     0
102
RTVSPropertyOp8
 70
     0
102
RTVSPropertyOp9
 70
     0
102
RTVSPropertyOp10
 70
     0
102
RTVSPropertyOp11
 70
     0
102
RTVSPropertyOp12
 70
     0
102
RTVSPropertyOp13
 70
     0
102
RTVSPropertyOp14
 70
     2
102
RTVSPropertyOp15
 70
     0
102
RTVSPropertyOp16
 70
     0
102
RTVSPropertyOp17
 70
     0
102
RTVSPropertyOp18
 70
     0
102
RTVSPropertyOp19
 70
     0
102
RTVSPropertyOp20
 70
     0
102
RTVSPropertyOp21
 70
     0
102
RTVSPropertyOp22
 70
     0
102
RTVSPropertyOp23
 70
     0
102
RTVSPropertyOp24
 70
     0
102
RTVSPropertyOp25
 70
     0
102
RTVSPropertyOp26
 70
     0
102
RTVSPropertyOp27
 70
     0
102
RTVSPropertyOp28
 70
     1
102
RTVSPropertyOp29
 70
     1
102
RTVSPropertyOp30
 70
     1
102
RTVSPropertyOp31
 70
     1
102
RTVSPropertyOp32
 70
     1
102
RTVSPropertyOp33
 70
     1
102
RTVSPropertyOp34
 70
     1
102
RTVSPropertyOp35
 70
     1
102
RTVSPropertyOp36
 70
     1
102
RTVSPropertyOp37
 70
     0
102
RTVSPropertyOp38
 70
     0
102
RTVSPropertyOp39
 70
     0
102
RTVSPropertyOp40
 70
     0
102
RTVSPropertyOp41
 70
     0
102
RTVSPropertyOp42
 70
     0
102
RTVSPropertyOp43
 70
     0
102
RTVSPropertyOp44
 70
     0
102
RTVSPropertyOp45
 70
     1
102
RTVSPropertyOp46
 70
     0
102
RTVSPropertyOp47
 70
     0
102
RTVSPropertyOp48
 70
     0
102
RTVSPropertyOp49
 70
     1
102
RTVSPropertyOp50
 70
     0
102
RTVSPropertyOp51
 70
     0
102
RTVSPropertyOp52
 70
     0
102
RTVSPropertyOp53
 70
     0
102
RTVSPropertyOp54
 70
     0
102
RTVSPropertyOp55
 70
     1
102
RTVSPropertyOp56
 70
     0
102
RTVSPropertyOp57
 70
     0
102
RTVSPropertyOp58
 70
     0
102
RTVSPropertyOp59
 70
     0
102
RTVSPropertyOp60
 70
     0
102
RTVSPropertyOp61
 70
     0
102
RTVSPropertyOp62
 70
     0
  0
XRECORD
  5
ABA6
102
{ACAD_REACTORS
330
ABA5
102
}
330
ABA5
100
AcDbXrecord
280
     1
102
RTVSPost2010Prop28
280
     0
102
RTVSPost2010PropOp28
 70
     1
102
RTVSPost2010Prop29
280
     1
102
RTVSPost2010PropOp29
 70
     1
102
RTVSPost2010Prop30
280
     1
102
RTVSPost2010PropOp30
 70
     1
102
RTVSPost2010Prop31
280
     0
102
RTVSPost2010PropOp31
 70
     1
102
RTVSPost2010Prop32
280
     0
102
RTVSPost2010PropOp32
 70
     1
102
RTVSPost2010Prop33
280
     0
102
RTVSPost2010PropOp33
 70
     1
102
RTVSPost2010Prop34
280
     0
102
RTVSPost2010PropOp34
 70
     1
102
RTVSPost2010Prop35
280
     0
102
RTVSPost2010PropOp35
 70
     1
102
RTVSPost2010Prop36
280
     0
102
RTVSPost2010PropOp36
 70
     1
102
RTVSPost2010Prop37
 90
       50
102
RTVSPost2010PropOp37
 70
     1
102
RTVSPost2010Prop38
140
0.0
102
RTVSPost2010PropOp38
 70
     1
102
RTVSPost2010Prop39
140
1.0
102
RTVSPost2010PropOp39
 70
     1
102
RTVSPost2010Prop40
 90
        0
102
RTVSPost2010PropOp40
 70
     1
102
RTVSPost2010Prop41ColorIndex
 90
       18
102
RTVSPost2010Prop41ColorRGB
 90
        0
102
RTVSPost2010PropOp41
 70
     1
102
RTVSPost2010Prop42
 90
       50
102
RTVSPost2010PropOp42
 70
     1
102
RTVSPost2010Prop43
 90
        3
102
RTVSPost2010PropOp43
 70
     1
102
RTVSPost2010Prop44ColorIndex
 90
        5
102
RTVSPost2010Prop44ColorRGB
 90
      255
102
RTVSPost2010PropOp44
 70
     1
102
RTVSPost2010Prop45
280
     0
102
RTVSPost2010PropOp45
 70
     1
102
RTVSPost2010Prop46
 90
       50
102
RTVSPost2010PropOp46
 70
     1
102
RTVSPost2010Prop47
 90
       50
102
RTVSPost2010PropOp47
 70
     1
102
RTVSPost2010Prop48
 90
       50
102
RTVSPost2010PropOp48
 70
     1
102
RTVSPost2010Prop49
280
     0
102
RTVSPost2010PropOp49
 70
     1
102
RTVSPost2010Prop50
 90
       50
102
RTVSPost2010PropOp50
 70
     1
102
RTVSPost2010Prop51ColorIndex
 90
      256
102
RTVSPost2010Prop51ColorRGB
 90
-16777216
102
RTVSPost2010PropOp51
 70
     0
102
RTVSPost2010Prop52
140
1.0
102
RTVSPost2010PropOp52
 70
     0
102
RTVSPost2010Prop53
 90
        2
102
RTVSPost2010PropOp53
 70
     1
102
RTVSPost2010Prop54
  1
strokes_ogs.tif
102
RTVSPost2010PropOp54
 70
     1
102
RTVSPost2010Prop55
280
     0
102
RTVSPost2010PropOp55
 70
     1
102
RTVSPost2010Prop56
140
1.0
102
RTVSPost2010PropOp56
 70
     1
102
RTVSPost2010Prop57
140
1.0
102
RTVSPost2010PropOp57
 70
     1
102
RTVSPropertyOp0
 70
     1
102
RTVSPropertyOp1
 70
     1
102
RTVSPropertyOp2
 70
     1
102
RTVSPropertyOp3
 70
     1
102
RTVSPropertyOp4
 70
     1
102
RTVSPropertyOp5
 70
     1
102
RTVSPropertyOp6
 70
     1
102
RTVSPropertyOp7
 70
     1
102
RTVSPropertyOp8
 70
     1
102
RTVSPropertyOp9
 70
     1
102
RTVSPropertyOp10
 70
     1
102
RTVSPropertyOp11
 70
     1
102
RTVSPropertyOp12
 70
     1
102
RTVSPropertyOp13
 70
     1
102
RTVSPropertyOp14
 70
     1
102
RTVSPropertyOp15
 70
     1
102
RTVSPropertyOp16
 70
     1
102
RTVSPropertyOp17
 70
     1
102
RTVSPropertyOp18
 70
     1
102
RTVSPropertyOp19
 70
     1
102
RTVSPropertyOp20
 70
     1
102
RTVSPropertyOp21
 70
     1
102
RTVSPropertyOp22
 70
     1
102
RTVSPropertyOp23
 70
     1
102
RTVSPropertyOp24
 70
     1
102
RTVSPropertyOp25
 70
     1
102
RTVSPropertyOp26
 70
     1
102
RTVSPropertyOp27
 70
     1
102
RTVSPropertyOp28
 70
     1
102
RTVSPropertyOp29
 70
     1
102
RTVSPropertyOp30
 70
     1
102
RTVSPropertyOp31
 70
     1
102
RTVSPropertyOp32
 70
     1
102
RTVSPropertyOp33
 70
     1
102
RTVSPropertyOp34
 70
     1
102
RTVSPropertyOp35
 70
     1
102
RTVSPropertyOp36
 70
     1
102
RTVSPropertyOp37
 70
     1
102
RTVSPropertyOp38
 70
     1
102
RTVSPropertyOp39
 70
     1
102
RTVSPropertyOp40
 70
     1
102
RTVSPropertyOp41
 70
     1
102
RTVSPropertyOp42
 70
     1
102
RTVSPropertyOp43
 70
     1
102
RTVSPropertyOp44
 70
     1
102
RTVSPropertyOp45
 70
     1
102
RTVSPropertyOp46
 70
     1
102
RTVSPropertyOp47
 70
     1
102
RTVSPropertyOp48
 70
     1
102
RTVSPropertyOp49
 70
     1
102
RTVSPropertyOp50
 70
     1
102
RTVSPropertyOp51
 70
     0
102
RTVSPropertyOp52
 70
     0
102
RTVSPropertyOp53
 70
     1
102
RTVSPropertyOp54
 70
     1
102
RTVSPropertyOp55
 70
     1
102
RTVSPropertyOp56
 70
     1
102
RTVSPropertyOp57
 70
     1
102
RTVSPropertyOp58
 70
     1
102
RTVSPropertyOp59
 70
     1
102
RTVSPropertyOp60
 70
     1
102
RTVSPropertyOp61
 70
     1
102
RTVSPropertyOp62
 70
     1
  0
XRECORD
  5
ABB8
102
{ACAD_REACTORS
330
ABB7
102
}
330
ABB7
100
AcDbXrecord
280
     1
102
RTVSPost2010Prop28
280
     0
102
RTVSPost2010PropOp28
 70
     1
102
RTVSPost2010Prop29
280
     1
102
RTVSPost2010PropOp29
 70
     1
102
RTVSPost2010Prop30
280
     1
102
RTVSPost2010PropOp30
 70
     1
102
RTVSPost2010Prop31
280
     0
102
RTVSPost2010PropOp31
 70
     1
102
RTVSPost2010Prop32
280
     0
102
RTVSPost2010PropOp32
 70
     1
102
RTVSPost2010Prop33
280
     0
102
RTVSPost2010PropOp33
 70
     1
102
RTVSPost2010Prop34
280
     0
102
RTVSPost2010PropOp34
 70
     1
102
RTVSPost2010Prop35
280
     0
102
RTVSPost2010PropOp35
 70
     1
102
RTVSPost2010Prop36
280
     0
102
RTVSPost2010PropOp36
 70
     1
102
RTVSPost2010Prop37
 90
       50
102
RTVSPost2010PropOp37
 70
     0
102
RTVSPost2010Prop38
140
0.0
102
RTVSPost2010PropOp38
 70
     0
102
RTVSPost2010Prop39
140
1.0
102
RTVSPost2010PropOp39
 70
     0
102
RTVSPost2010Prop40
 90
        0
102
RTVSPost2010PropOp40
 70
     0
102
RTVSPost2010Prop41ColorIndex
 90
       18
102
RTVSPost2010Prop41ColorRGB
 90
        0
102
RTVSPost2010PropOp41
 70
     0
102
RTVSPost2010Prop42
 90
       50
102
RTVSPost2010PropOp42
 70
     0
102
RTVSPost2010Prop43
 90
        3
102
RTVSPost2010PropOp43
 70
     0
102
RTVSPost2010Prop44ColorIndex
 90
        5
102
RTVSPost2010Prop44ColorRGB
 90
      255
102
RTVSPost2010PropOp44
 70
     0
102
RTVSPost2010Prop45
280
     0
102
RTVSPost2010PropOp45
 70
     1
102
RTVSPost2010Prop46
 90
       50
102
RTVSPost2010PropOp46
 70
     0
102
RTVSPost2010Prop47
 90
       50
102
RTVSPost2010PropOp47
 70
     0
102
RTVSPost2010Prop48
 90
       50
102
RTVSPost2010PropOp48
 70
     0
102
RTVSPost2010Prop49
280
     0
102
RTVSPost2010PropOp49
 70
     1
102
RTVSPost2010Prop50
 90
       50
102
RTVSPost2010PropOp50
 70
     0
102
RTVSPost2010Prop51ColorIndex
 90
      256
102
RTVSPost2010Prop51ColorRGB
 90
-16777216
102
RTVSPost2010PropOp51
 70
     0
102
RTVSPost2010Prop52
140
1.0
102
RTVSPost2010PropOp52
 70
     0
102
RTVSPost2010Prop53
 90
        2
102
RTVSPost2010PropOp53
 70
     0
102
RTVSPost2010Prop54
  1
strokes_ogs.tif
102
RTVSPost2010PropOp54
 70
     0
102
RTVSPost2010Prop55
280
     0
102
RTVSPost2010PropOp55
 70
     1
102
RTVSPost2010Prop56
140
1.0
102
RTVSPost2010PropOp56
 70
     0
102
RTVSPost2010Prop57
140
1.0
102
RTVSPost2010PropOp57
 70
     0
102
RTVSPropertyOp0
 70
     0
102
RTVSPropertyOp1
 70
     0
102
RTVSPropertyOp2
 70
     0
102
RTVSPropertyOp3
 70
     0
102
RTVSPropertyOp4
 70
     0
102
RTVSPropertyOp5
 70
     0
102
RTVSPropertyOp6
 70
     0
102
RTVSPropertyOp7
 70
     0
102
RTVSPropertyOp8
 70
     0
102
RTVSPropertyOp9
 70
     0
102
RTVSPropertyOp10
 70
     0
102
RTVSPropertyOp11
 70
     0
102
RTVSPropertyOp12
 70
     0
102
RTVSPropertyOp13
 70
     0
102
RTVSPropertyOp14
 70
     2
102
RTVSPropertyOp15
 70
     0
102
RTVSPropertyOp16
 70
     0
102
RTVSPropertyOp17
 70
     0
102
RTVSPropertyOp18
 70
     0
102
RTVSPropertyOp19
 70
     0
102
RTVSPropertyOp20
 70
     0
102
RTVSPropertyOp21
 70
     0
102
RTVSPropertyOp22
 70
     0
102
RTVSPropertyOp23
 70
     0
102
RTVSPropertyOp24
 70
     0
102
RTVSPropertyOp25
 70
     0
102
RTVSPropertyOp26
 70
     0
102
RTVSPropertyOp27
 70
     0
102
RTVSPropertyOp28
 70
     1
102
RTVSPropertyOp29
 70
     1
102
RTVSPropertyOp30
 70
     1
102
RTVSPropertyOp31
 70
     1
102
RTVSPropertyOp32
 70
     1
102
RTVSPropertyOp33
 70
     1
102
RTVSPropertyOp34
 70
     1
102
RTVSPropertyOp35
 70
     1
102
RTVSPropertyOp36
 70
     1
102
RTVSPropertyOp37
 70
     0
102
RTVSPropertyOp38
 70
     0
102
RTVSPropertyOp39
 70
     0
102
RTVSPropertyOp40
 70
     0
102
RTVSPropertyOp41
 70
     0
102
RTVSPropertyOp42
 70
     0
102
RTVSPropertyOp43
 70
     0
102
RTVSPropertyOp44
 70
     0
102
RTVSPropertyOp45
 70
     1
102
RTVSPropertyOp46
 70
     0
102
RTVSPropertyOp47
 70
     0
102
RTVSPropertyOp48
 70
     0
102
RTVSPropertyOp49
 70
     1
102
RTVSPropertyOp50
 70
     0
102
RTVSPropertyOp51
 70
     0
102
RTVSPropertyOp52
 70
     0
102
RTVSPropertyOp53
 70
     0
102
RTVSPropertyOp54
 70
     0
102
RTVSPropertyOp55
 70
     1
102
RTVSPropertyOp56
 70
     0
102
RTVSPropertyOp57
 70
     0
102
RTVSPropertyOp58
 70
     0
102
RTVSPropertyOp59
 70
     0
102
RTVSPropertyOp60
 70
     0
102
RTVSPropertyOp61
 70
     0
102
RTVSPropertyOp62
 70
     0
  0
XRECORD
  5
AB9E
102
{ACAD_REACTORS
330
AB9D
102
}
330
AB9D
100
AcDbXrecord
280
     1
102
RTVSPost2010Prop28
280
     0
102
RTVSPost2010PropOp28
 70
     1
102
RTVSPost2010Prop29
280
     1
102
RTVSPost2010PropOp29
 70
     1
102
RTVSPost2010Prop30
280
     1
102
RTVSPost2010PropOp30
 70
     1
102
RTVSPost2010Prop31
280
     0
102
RTVSPost2010PropOp31
 70
     1
102
RTVSPost2010Prop32
280
     0
102
RTVSPost2010PropOp32
 70
     1
102
RTVSPost2010Prop33
280
     0
102
RTVSPost2010PropOp33
 70
     1
102
RTVSPost2010Prop34
280
     0
102
RTVSPost2010PropOp34
 70
     1
102
RTVSPost2010Prop35
280
     0
102
RTVSPost2010PropOp35
 70
     1
102
RTVSPost2010Prop36
280
     0
102
RTVSPost2010PropOp36
 70
     1
102
RTVSPost2010Prop37
 90
       50
102
RTVSPost2010PropOp37
 70
     1
102
RTVSPost2010Prop38
140
0.0
102
RTVSPost2010PropOp38
 70
     1
102
RTVSPost2010Prop39
140
1.0
102
RTVSPost2010PropOp39
 70
     1
102
RTVSPost2010Prop40
 90
        0
102
RTVSPost2010PropOp40
 70
     1
102
RTVSPost2010Prop41ColorIndex
 90
       18
102
RTVSPost2010Prop41ColorRGB
 90
        0
102
RTVSPost2010PropOp41
 70
     1
102
RTVSPost2010Prop42
 90
       50
102
RTVSPost2010PropOp42
 70
     1
102
RTVSPost2010Prop43
 90
        3
102
RTVSPost2010PropOp43
 70
     1
102
RTVSPost2010Prop44ColorIndex
 90
        5
102
RTVSPost2010Prop44ColorRGB
 90
      255
102
RTVSPost2010PropOp44
 70
     1
102
RTVSPost2010Prop45
280
     0
102
RTVSPost2010PropOp45
 70
     1
102
RTVSPost2010Prop46
 90
       50
102
RTVSPost2010PropOp46
 70
     1
102
RTVSPost2010Prop47
 90
       50
102
RTVSPost2010PropOp47
 70
     1
102
RTVSPost2010Prop48
 90
       50
102
RTVSPost2010PropOp48
 70
     1
102
RTVSPost2010Prop49
280
     0
102
RTVSPost2010PropOp49
 70
     1
102
RTVSPost2010Prop50
 90
       50
102
RTVSPost2010PropOp50
 70
     1
102
RTVSPost2010Prop51ColorIndex
 90
      256
102
RTVSPost2010Prop51ColorRGB
 90
-16777216
102
RTVSPost2010PropOp51
 70
     0
102
RTVSPost2010Prop52
140
1.0
102
RTVSPost2010PropOp52
 70
     0
102
RTVSPost2010Prop53
 90
        2
102
RTVSPost2010PropOp53
 70
     1
102
RTVSPost2010Prop54
  1
strokes_ogs.tif
102
RTVSPost2010PropOp54
 70
     1
102
RTVSPost2010Prop55
280
     0
102
RTVSPost2010PropOp55
 70
     1
102
RTVSPost2010Prop56
140
1.0
102
RTVSPost2010PropOp56
 70
     1
102
RTVSPost2010Prop57
140
1.0
102
RTVSPost2010PropOp57
 70
     1
102
RTVSPropertyOp0
 70
     1
102
RTVSPropertyOp1
 70
     1
102
RTVSPropertyOp2
 70
     1
102
RTVSPropertyOp3
 70
     1
102
RTVSPropertyOp4
 70
     1
102
RTVSPropertyOp5
 70
     1
102
RTVSPropertyOp6
 70
     1
102
RTVSPropertyOp7
 70
     1
102
RTVSPropertyOp8
 70
     1
102
RTVSPropertyOp9
 70
     1
102
RTVSPropertyOp10
 70
     1
102
RTVSPropertyOp11
 70
     1
102
RTVSPropertyOp12
 70
     1
102
RTVSPropertyOp13
 70
     1
102
RTVSPropertyOp14
 70
     1
102
RTVSPropertyOp15
 70
     1
102
RTVSPropertyOp16
 70
     1
102
RTVSPropertyOp17
 70
     1
102
RTVSPropertyOp18
 70
     1
102
RTVSPropertyOp19
 70
     1
102
RTVSPropertyOp20
 70
     1
102
RTVSPropertyOp21
 70
     1
102
RTVSPropertyOp22
 70
     1
102
RTVSPropertyOp23
 70
     1
102
RTVSPropertyOp24
 70
     1
102
RTVSPropertyOp25
 70
     1
102
RTVSPropertyOp26
 70
     1
102
RTVSPropertyOp27
 70
     1
102
RTVSPropertyOp28
 70
     1
102
RTVSPropertyOp29
 70
     1
102
RTVSPropertyOp30
 70
     1
102
RTVSPropertyOp31
 70
     1
102
RTVSPropertyOp32
 70
     1
102
RTVSPropertyOp33
 70
     1
102
RTVSPropertyOp34
 70
     1
102
RTVSPropertyOp35
 70
     1
102
RTVSPropertyOp36
 70
     1
102
RTVSPropertyOp37
 70
     1
102
RTVSPropertyOp38
 70
     1
102
RTVSPropertyOp39
 70
     1
102
RTVSPropertyOp40
 70
     1
102
RTVSPropertyOp41
 70
     1
102
RTVSPropertyOp42
 70
     1
102
RTVSPropertyOp43
 70
     1
102
RTVSPropertyOp44
 70
     1
102
RTVSPropertyOp45
 70
     1
102
RTVSPropertyOp46
 70
     1
102
RTVSPropertyOp47
 70
     1
102
RTVSPropertyOp48
 70
     1
102
RTVSPropertyOp49
 70
     1
102
RTVSPropertyOp50
 70
     1
102
RTVSPropertyOp51
 70
     0
102
RTVSPropertyOp52
 70
     0
102
RTVSPropertyOp53
 70
     1
102
RTVSPropertyOp54
 70
     1
102
RTVSPropertyOp55
 70
     1
102
RTVSPropertyOp56
 70
     1
102
RTVSPropertyOp57
 70
     1
102
RTVSPropertyOp58
 70
     1
102
RTVSPropertyOp59
 70
     1
102
RTVSPropertyOp60
 70
     1
102
RTVSPropertyOp61
 70
     1
102
RTVSPropertyOp62
 70
     1
  0
XRECORD
  5
ABB4
102
{ACAD_REACTORS
330
ABB3
102
}
330
ABB3
100
AcDbXrecord
280
     1
102
RTVSPost2010Prop28
280
     0
102
RTVSPost2010PropOp28
 70
     1
102
RTVSPost2010Prop29
280
     1
102
RTVSPost2010PropOp29
 70
     1
102
RTVSPost2010Prop30
280
     1
102
RTVSPost2010PropOp30
 70
     1
102
RTVSPost2010Prop31
280
     0
102
RTVSPost2010PropOp31
 70
     1
102
RTVSPost2010Prop32
280
     0
102
RTVSPost2010PropOp32
 70
     1
102
RTVSPost2010Prop33
280
     0
102
RTVSPost2010PropOp33
 70
     1
102
RTVSPost2010Prop34
280
     0
102
RTVSPost2010PropOp34
 70
     1
102
RTVSPost2010Prop35
280
     0
102
RTVSPost2010PropOp35
 70
     1
102
RTVSPost2010Prop36
280
     0
102
RTVSPost2010PropOp36
 70
     1
102
RTVSPost2010Prop37
 90
       50
102
RTVSPost2010PropOp37
 70
     1
102
RTVSPost2010Prop38
140
0.0
102
RTVSPost2010PropOp38
 70
     1
102
RTVSPost2010Prop39
140
1.0
102
RTVSPost2010PropOp39
 70
     1
102
RTVSPost2010Prop40
 90
        0
102
RTVSPost2010PropOp40
 70
     1
102
RTVSPost2010Prop41ColorIndex
 90
       18
102
RTVSPost2010Prop41ColorRGB
 90
        0
102
RTVSPost2010PropOp41
 70
     1
102
RTVSPost2010Prop42
 90
       50
102
RTVSPost2010PropOp42
 70
     1
102
RTVSPost2010Prop43
 90
        3
102
RTVSPost2010PropOp43
 70
     1
102
RTVSPost2010Prop44ColorIndex
 90
        5
102
RTVSPost2010Prop44ColorRGB
 90
      255
102
RTVSPost2010PropOp44
 70
     1
102
RTVSPost2010Prop45
280
     0
102
RTVSPost2010PropOp45
 70
     1
102
RTVSPost2010Prop46
 90
       50
102
RTVSPost2010PropOp46
 70
     1
102
RTVSPost2010Prop47
 90
       50
102
RTVSPost2010PropOp47
 70
     1
102
RTVSPost2010Prop48
 90
       50
102
RTVSPost2010PropOp48
 70
     1
102
RTVSPost2010Prop49
280
     0
102
RTVSPost2010PropOp49
 70
     1
102
RTVSPost2010Prop50
 90
       50
102
RTVSPost2010PropOp50
 70
     1
102
RTVSPost2010Prop51ColorIndex
 90
      256
102
RTVSPost2010Prop51ColorRGB
 90
-16777216
102
RTVSPost2010PropOp51
 70
     0
102
RTVSPost2010Prop52
140
1.0
102
RTVSPost2010PropOp52
 70
     0
102
RTVSPost2010Prop53
 90
        2
102
RTVSPost2010PropOp53
 70
     1
102
RTVSPost2010Prop54
  1
strokes_ogs.tif
102
RTVSPost2010PropOp54
 70
     1
102
RTVSPost2010Prop55
280
     0
102
RTVSPost2010PropOp55
 70
     1
102
RTVSPost2010Prop56
140
1.0
102
RTVSPost2010PropOp56
 70
     1
102
RTVSPost2010Prop57
140
1.0
102
RTVSPost2010PropOp57
 70
     1
102
RTVSPropertyOp0
 70
     1
102
RTVSPropertyOp1
 70
     1
102
RTVSPropertyOp2
 70
     1
102
RTVSPropertyOp3
 70
     1
102
RTVSPropertyOp4
 70
     1
102
RTVSPropertyOp5
 70
     1
102
RTVSPropertyOp6
 70
     1
102
RTVSPropertyOp7
 70
     1
102
RTVSPropertyOp8
 70
     1
102
RTVSPropertyOp9
 70
     1
102
RTVSPropertyOp10
 70
     1
102
RTVSPropertyOp11
 70
     1
102
RTVSPropertyOp12
 70
     1
102
RTVSPropertyOp13
 70
     1
102
RTVSPropertyOp14
 70
     1
102
RTVSPropertyOp15
 70
     1
102
RTVSPropertyOp16
 70
     1
102
RTVSPropertyOp17
 70
     1
102
RTVSPropertyOp18
 70
     1
102
RTVSPropertyOp19
 70
     1
102
RTVSPropertyOp20
 70
     1
102
RTVSPropertyOp21
 70
     1
102
RTVSPropertyOp22
 70
     1
102
RTVSPropertyOp23
 70
     1
102
RTVSPropertyOp24
 70
     1
102
RTVSPropertyOp25
 70
     1
102
RTVSPropertyOp26
 70
     1
102
RTVSPropertyOp27
 70
     1
102
RTVSPropertyOp28
 70
     1
102
RTVSPropertyOp29
 70
     1
102
RTVSPropertyOp30
 70
     1
102
RTVSPropertyOp31
 70
     1
102
RTVSPropertyOp32
 70
     1
102
RTVSPropertyOp33
 70
     1
102
RTVSPropertyOp34
 70
     1
102
RTVSPropertyOp35
 70
     1
102
RTVSPropertyOp36
 70
     1
102
RTVSPropertyOp37
 70
     1
102
RTVSPropertyOp38
 70
     1
102
RTVSPropertyOp39
 70
     1
102
RTVSPropertyOp40
 70
     1
102
RTVSPropertyOp41
 70
     1
102
RTVSPropertyOp42
 70
     1
102
RTVSPropertyOp43
 70
     1
102
RTVSPropertyOp44
 70
     1
102
RTVSPropertyOp45
 70
     1
102
RTVSPropertyOp46
 70
     1
102
RTVSPropertyOp47
 70
     1
102
RTVSPropertyOp48
 70
     1
102
RTVSPropertyOp49
 70
     1
102
RTVSPropertyOp50
 70
     1
102
RTVSPropertyOp51
 70
     0
102
RTVSPropertyOp52
 70
     0
102
RTVSPropertyOp53
 70
     1
102
RTVSPropertyOp54
 70
     1
102
RTVSPropertyOp55
 70
     1
102
RTVSPropertyOp56
 70
     1
102
RTVSPropertyOp57
 70
     1
102
RTVSPropertyOp58
 70
     1
102
RTVSPropertyOp59
 70
     1
102
RTVSPropertyOp60
 70
     1
102
RTVSPropertyOp61
 70
     1
102
RTVSPropertyOp62
 70
     1
  0
XRECORD
  5
ABB2
102
{ACAD_REACTORS
330
ABB1
102
}
330
ABB1
100
AcDbXrecord
280
     1
102
RTVSPost2010Prop28
280
     0
102
RTVSPost2010PropOp28
 70
     1
102
RTVSPost2010Prop29
280
     1
102
RTVSPost2010PropOp29
 70
     1
102
RTVSPost2010Prop30
280
     1
102
RTVSPost2010PropOp30
 70
     1
102
RTVSPost2010Prop31
280
     0
102
RTVSPost2010PropOp31
 70
     1
102
RTVSPost2010Prop32
280
     0
102
RTVSPost2010PropOp32
 70
     1
102
RTVSPost2010Prop33
280
     0
102
RTVSPost2010PropOp33
 70
     1
102
RTVSPost2010Prop34
280
     0
102
RTVSPost2010PropOp34
 70
     1
102
RTVSPost2010Prop35
280
     0
102
RTVSPost2010PropOp35
 70
     1
102
RTVSPost2010Prop36
280
     0
102
RTVSPost2010PropOp36
 70
     1
102
RTVSPost2010Prop37
 90
       50
102
RTVSPost2010PropOp37
 70
     1
102
RTVSPost2010Prop38
140
0.0
102
RTVSPost2010PropOp38
 70
     1
102
RTVSPost2010Prop39
140
1.0
102
RTVSPost2010PropOp39
 70
     1
102
RTVSPost2010Prop40
 90
        0
102
RTVSPost2010PropOp40
 70
     1
102
RTVSPost2010Prop41ColorIndex
 90
       18
102
RTVSPost2010Prop41ColorRGB
 90
        0
102
RTVSPost2010PropOp41
 70
     1
102
RTVSPost2010Prop42
 90
       50
102
RTVSPost2010PropOp42
 70
     1
102
RTVSPost2010Prop43
 90
        3
102
RTVSPost2010PropOp43
 70
     1
102
RTVSPost2010Prop44ColorIndex
 90
        5
102
RTVSPost2010Prop44ColorRGB
 90
      255
102
RTVSPost2010PropOp44
 70
     1
102
RTVSPost2010Prop45
280
     0
102
RTVSPost2010PropOp45
 70
     1
102
RTVSPost2010Prop46
 90
       50
102
RTVSPost2010PropOp46
 70
     1
102
RTVSPost2010Prop47
 90
       50
102
RTVSPost2010PropOp47
 70
     1
102
RTVSPost2010Prop48
 90
       50
102
RTVSPost2010PropOp48
 70
     1
102
RTVSPost2010Prop49
280
     0
102
RTVSPost2010PropOp49
 70
     1
102
RTVSPost2010Prop50
 90
       50
102
RTVSPost2010PropOp50
 70
     1
102
RTVSPost2010Prop51ColorIndex
 90
      256
102
RTVSPost2010Prop51ColorRGB
 90
-16777216
102
RTVSPost2010PropOp51
 70
     0
102
RTVSPost2010Prop52
140
1.0
102
RTVSPost2010PropOp52
 70
     0
102
RTVSPost2010Prop53
 90
        2
102
RTVSPost2010PropOp53
 70
     1
102
RTVSPost2010Prop54
  1
strokes_ogs.tif
102
RTVSPost2010PropOp54
 70
     1
102
RTVSPost2010Prop55
280
     0
102
RTVSPost2010PropOp55
 70
     1
102
RTVSPost2010Prop56
140
1.0
102
RTVSPost2010PropOp56
 70
     1
102
RTVSPost2010Prop57
140
1.0
102
RTVSPost2010PropOp57
 70
     1
102
RTVSPropertyOp0
 70
     1
102
RTVSPropertyOp1
 70
     1
102
RTVSPropertyOp2
 70
     1
102
RTVSPropertyOp3
 70
     1
102
RTVSPropertyOp4
 70
     1
102
RTVSPropertyOp5
 70
     1
102
RTVSPropertyOp6
 70
     1
102
RTVSPropertyOp7
 70
     1
102
RTVSPropertyOp8
 70
     1
102
RTVSPropertyOp9
 70
     1
102
RTVSPropertyOp10
 70
     1
102
RTVSPropertyOp11
 70
     1
102
RTVSPropertyOp12
 70
     1
102
RTVSPropertyOp13
 70
     1
102
RTVSPropertyOp14
 70
     1
102
RTVSPropertyOp15
 70
     1
102
RTVSPropertyOp16
 70
     1
102
RTVSPropertyOp17
 70
     1
102
RTVSPropertyOp18
 70
     1
102
RTVSPropertyOp19
 70
     1
102
RTVSPropertyOp20
 70
     1
102
RTVSPropertyOp21
 70
     1
102
RTVSPropertyOp22
 70
     1
102
RTVSPropertyOp23
 70
     1
102
RTVSPropertyOp24
 70
     1
102
RTVSPropertyOp25
 70
     1
102
RTVSPropertyOp26
 70
     1
102
RTVSPropertyOp27
 70
     1
102
RTVSPropertyOp28
 70
     1
102
RTVSPropertyOp29
 70
     1
102
RTVSPropertyOp30
 70
     1
102
RTVSPropertyOp31
 70
     1
102
RTVSPropertyOp32
 70
     1
102
RTVSPropertyOp33
 70
     1
102
RTVSPropertyOp34
 70
     1
102
RTVSPropertyOp35
 70
     1
102
RTVSPropertyOp36
 70
     1
102
RTVSPropertyOp37
 70
     1
102
RTVSPropertyOp38
 70
     1
102
RTVSPropertyOp39
 70
     1
102
RTVSPropertyOp40
 70
     1
102
RTVSPropertyOp41
 70
     1
102
RTVSPropertyOp42
 70
     1
102
RTVSPropertyOp43
 70
     1
102
RTVSPropertyOp44
 70
     1
102
RTVSPropertyOp45
 70
     1
102
RTVSPropertyOp46
 70
     1
102
RTVSPropertyOp47
 70
     1
102
RTVSPropertyOp48
 70
     1
102
RTVSPropertyOp49
 70
     1
102
RTVSPropertyOp50
 70
     1
102
RTVSPropertyOp51
 70
     0
102
RTVSPropertyOp52
 70
     0
102
RTVSPropertyOp53
 70
     1
102
RTVSPropertyOp54
 70
     1
102
RTVSPropertyOp55
 70
     1
102
RTVSPropertyOp56
 70
     1
102
RTVSPropertyOp57
 70
     1
102
RTVSPropertyOp58
 70
     1
102
RTVSPropertyOp59
 70
     1
102
RTVSPropertyOp60
 70
     1
102
RTVSPropertyOp61
 70
     1
102
RTVSPropertyOp62
 70
     1
  0
XRECORD
  5
ABAC
102
{ACAD_REACTORS
330
ABAB
102
}
330
ABAB
100
AcDbXrecord
280
     1
102
RTVSPost2010Prop28
280
     0
102
RTVSPost2010PropOp28
 70
     1
102
RTVSPost2010Prop29
280
     1
102
RTVSPost2010PropOp29
 70
     1
102
RTVSPost2010Prop30
280
     1
102
RTVSPost2010PropOp30
 70
     1
102
RTVSPost2010Prop31
280
     0
102
RTVSPost2010PropOp31
 70
     1
102
RTVSPost2010Prop32
280
     0
102
RTVSPost2010PropOp32
 70
     1
102
RTVSPost2010Prop33
280
     0
102
RTVSPost2010PropOp33
 70
     1
102
RTVSPost2010Prop34
280
     0
102
RTVSPost2010PropOp34
 70
     1
102
RTVSPost2010Prop35
280
     0
102
RTVSPost2010PropOp35
 70
     1
102
RTVSPost2010Prop36
280
     0
102
RTVSPost2010PropOp36
 70
     1
102
RTVSPost2010Prop37
 90
       50
102
RTVSPost2010PropOp37
 70
     1
102
RTVSPost2010Prop38
140
0.0
102
RTVSPost2010PropOp38
 70
     1
102
RTVSPost2010Prop39
140
1.0
102
RTVSPost2010PropOp39
 70
     1
102
RTVSPost2010Prop40
 90
        0
102
RTVSPost2010PropOp40
 70
     1
102
RTVSPost2010Prop41ColorIndex
 90
       18
102
RTVSPost2010Prop41ColorRGB
 90
        0
102
RTVSPost2010PropOp41
 70
     1
102
RTVSPost2010Prop42
 90
       50
102
RTVSPost2010PropOp42
 70
     1
102
RTVSPost2010Prop43
 90
        3
102
RTVSPost2010PropOp43
 70
     1
102
RTVSPost2010Prop44ColorIndex
 90
        5
102
RTVSPost2010Prop44ColorRGB
 90
      255
102
RTVSPost2010PropOp44
 70
     1
102
RTVSPost2010Prop45
280
     0
102
RTVSPost2010PropOp45
 70
     1
102
RTVSPost2010Prop46
 90
       50
102
RTVSPost2010PropOp46
 70
     1
102
RTVSPost2010Prop47
 90
       50
102
RTVSPost2010PropOp47
 70
     1
102
RTVSPost2010Prop48
 90
       50
102
RTVSPost2010PropOp48
 70
     1
102
RTVSPost2010Prop49
280
     0
102
RTVSPost2010PropOp49
 70
     1
102
RTVSPost2010Prop50
 90
       50
102
RTVSPost2010PropOp50
 70
     1
102
RTVSPost2010Prop51ColorIndex
 90
      256
102
RTVSPost2010Prop51ColorRGB
 90
-16777216
102
RTVSPost2010PropOp51
 70
     0
102
RTVSPost2010Prop52
140
1.0
102
RTVSPost2010PropOp52
 70
     0
102
RTVSPost2010Prop53
 90
        2
102
RTVSPost2010PropOp53
 70
     1
102
RTVSPost2010Prop54
  1
strokes_ogs.tif
102
RTVSPost2010PropOp54
 70
     1
102
RTVSPost2010Prop55
280
     0
102
RTVSPost2010PropOp55
 70
     1
102
RTVSPost2010Prop56
140
1.0
102
RTVSPost2010PropOp56
 70
     1
102
RTVSPost2010Prop57
140
1.0
102
RTVSPost2010PropOp57
 70
     1
102
RTVSPropertyOp0
 70
     1
102
RTVSPropertyOp1
 70
     1
102
RTVSPropertyOp2
 70
     1
102
RTVSPropertyOp3
 70
     1
102
RTVSPropertyOp4
 70
     1
102
RTVSPropertyOp5
 70
     1
102
RTVSPropertyOp6
 70
     1
102
RTVSPropertyOp7
 70
     1
102
RTVSPropertyOp8
 70
     1
102
RTVSPropertyOp9
 70
     1
102
RTVSPropertyOp10
 70
     1
102
RTVSPropertyOp11
 70
     1
102
RTVSPropertyOp12
 70
     1
102
RTVSPropertyOp13
 70
     1
102
RTVSPropertyOp14
 70
     1
102
RTVSPropertyOp15
 70
     1
102
RTVSPropertyOp16
 70
     1
102
RTVSPropertyOp17
 70
     1
102
RTVSPropertyOp18
 70
     1
102
RTVSPropertyOp19
 70
     1
102
RTVSPropertyOp20
 70
     1
102
RTVSPropertyOp21
 70
     1
102
RTVSPropertyOp22
 70
     1
102
RTVSPropertyOp23
 70
     1
102
RTVSPropertyOp24
 70
     1
102
RTVSPropertyOp25
 70
     1
102
RTVSPropertyOp26
 70
     1
102
RTVSPropertyOp27
 70
     1
102
RTVSPropertyOp28
 70
     1
102
RTVSPropertyOp29
 70
     1
102
RTVSPropertyOp30
 70
     1
102
RTVSPropertyOp31
 70
     1
102
RTVSPropertyOp32
 70
     1
102
RTVSPropertyOp33
 70
     1
102
RTVSPropertyOp34
 70
     1
102
RTVSPropertyOp35
 70
     1
102
RTVSPropertyOp36
 70
     1
102
RTVSPropertyOp37
 70
     1
102
RTVSPropertyOp38
 70
     1
102
RTVSPropertyOp39
 70
     1
102
RTVSPropertyOp40
 70
     1
102
RTVSPropertyOp41
 70
     1
102
RTVSPropertyOp42
 70
     1
102
RTVSPropertyOp43
 70
     1
102
RTVSPropertyOp44
 70
     1
102
RTVSPropertyOp45
 70
     1
102
RTVSPropertyOp46
 70
     1
102
RTVSPropertyOp47
 70
     1
102
RTVSPropertyOp48
 70
     1
102
RTVSPropertyOp49
 70
     1
102
RTVSPropertyOp50
 70
     1
102
RTVSPropertyOp51
 70
     0
102
RTVSPropertyOp52
 70
     0
102
RTVSPropertyOp53
 70
     1
102
RTVSPropertyOp54
 70
     1
102
RTVSPropertyOp55
 70
     1
102
RTVSPropertyOp56
 70
     1
102
RTVSPropertyOp57
 70
     1
102
RTVSPropertyOp58
 70
     1
102
RTVSPropertyOp59
 70
     1
102
RTVSPropertyOp60
 70
     1
102
RTVSPropertyOp61
 70
     1
102
RTVSPropertyOp62
 70
     1
  0
XRECORD
  5
ABAE
102
{ACAD_REACTORS
330
ABAD
102
}
330
ABAD
100
AcDbXrecord
280
     1
102
RTVSPost2010Prop28
280
     0
102
RTVSPost2010PropOp28
 70
     1
102
RTVSPost2010Prop29
280
     1
102
RTVSPost2010PropOp29
 70
     1
102
RTVSPost2010Prop30
280
     1
102
RTVSPost2010PropOp30
 70
     1
102
RTVSPost2010Prop31
280
     0
102
RTVSPost2010PropOp31
 70
     1
102
RTVSPost2010Prop32
280
     0
102
RTVSPost2010PropOp32
 70
     1
102
RTVSPost2010Prop33
280
     0
102
RTVSPost2010PropOp33
 70
     1
102
RTVSPost2010Prop34
280
     0
102
RTVSPost2010PropOp34
 70
     1
102
RTVSPost2010Prop35
280
     0
102
RTVSPost2010PropOp35
 70
     1
102
RTVSPost2010Prop36
280
     0
102
RTVSPost2010PropOp36
 70
     1
102
RTVSPost2010Prop37
 90
       50
102
RTVSPost2010PropOp37
 70
     1
102
RTVSPost2010Prop38
140
0.0
102
RTVSPost2010PropOp38
 70
     1
102
RTVSPost2010Prop39
140
1.0
102
RTVSPost2010PropOp39
 70
     1
102
RTVSPost2010Prop40
 90
        0
102
RTVSPost2010PropOp40
 70
     1
102
RTVSPost2010Prop41ColorIndex
 90
       18
102
RTVSPost2010Prop41ColorRGB
 90
        0
102
RTVSPost2010PropOp41
 70
     1
102
RTVSPost2010Prop42
 90
       50
102
RTVSPost2010PropOp42
 70
     1
102
RTVSPost2010Prop43
 90
        3
102
RTVSPost2010PropOp43
 70
     1
102
RTVSPost2010Prop44ColorIndex
 90
        5
102
RTVSPost2010Prop44ColorRGB
 90
      255
102
RTVSPost2010PropOp44
 70
     1
102
RTVSPost2010Prop45
280
     0
102
RTVSPost2010PropOp45
 70
     1
102
RTVSPost2010Prop46
 90
       50
102
RTVSPost2010PropOp46
 70
     1
102
RTVSPost2010Prop47
 90
       50
102
RTVSPost2010PropOp47
 70
     1
102
RTVSPost2010Prop48
 90
       50
102
RTVSPost2010PropOp48
 70
     1
102
RTVSPost2010Prop49
280
     0
102
RTVSPost2010PropOp49
 70
     1
102
RTVSPost2010Prop50
 90
       50
102
RTVSPost2010PropOp50
 70
     1
102
RTVSPost2010Prop51ColorIndex
 90
      256
102
RTVSPost2010Prop51ColorRGB
 90
-16777216
102
RTVSPost2010PropOp51
 70
     0
102
RTVSPost2010Prop52
140
1.0
102
RTVSPost2010PropOp52
 70
     0
102
RTVSPost2010Prop53
 90
        2
102
RTVSPost2010PropOp53
 70
     1
102
RTVSPost2010Prop54
  1
strokes_ogs.tif
102
RTVSPost2010PropOp54
 70
     1
102
RTVSPost2010Prop55
280
     0
102
RTVSPost2010PropOp55
 70
     1
102
RTVSPost2010Prop56
140
1.0
102
RTVSPost2010PropOp56
 70
     1
102
RTVSPost2010Prop57
140
1.0
102
RTVSPost2010PropOp57
 70
     1
102
RTVSPropertyOp0
 70
     1
102
RTVSPropertyOp1
 70
     1
102
RTVSPropertyOp2
 70
     1
102
RTVSPropertyOp3
 70
     1
102
RTVSPropertyOp4
 70
     1
102
RTVSPropertyOp5
 70
     1
102
RTVSPropertyOp6
 70
     1
102
RTVSPropertyOp7
 70
     1
102
RTVSPropertyOp8
 70
     1
102
RTVSPropertyOp9
 70
     1
102
RTVSPropertyOp10
 70
     1
102
RTVSPropertyOp11
 70
     1
102
RTVSPropertyOp12
 70
     1
102
RTVSPropertyOp13
 70
     1
102
RTVSPropertyOp14
 70
     1
102
RTVSPropertyOp15
 70
     1
102
RTVSPropertyOp16
 70
     1
102
RTVSPropertyOp17
 70
     1
102
RTVSPropertyOp18
 70
     1
102
RTVSPropertyOp19
 70
     1
102
RTVSPropertyOp20
 70
     1
102
RTVSPropertyOp21
 70
     1
102
RTVSPropertyOp22
 70
     1
102
RTVSPropertyOp23
 70
     1
102
RTVSPropertyOp24
 70
     1
102
RTVSPropertyOp25
 70
     1
102
RTVSPropertyOp26
 70
     1
102
RTVSPropertyOp27
 70
     1
102
RTVSPropertyOp28
 70
     1
102
RTVSPropertyOp29
 70
     1
102
RTVSPropertyOp30
 70
     1
102
RTVSPropertyOp31
 70
     1
102
RTVSPropertyOp32
 70
     1
102
RTVSPropertyOp33
 70
     1
102
RTVSPropertyOp34
 70
     1
102
RTVSPropertyOp35
 70
     1
102
RTVSPropertyOp36
 70
     1
102
RTVSPropertyOp37
 70
     1
102
RTVSPropertyOp38
 70
     1
102
RTVSPropertyOp39
 70
     1
102
RTVSPropertyOp40
 70
     1
102
RTVSPropertyOp41
 70
     1
102
RTVSPropertyOp42
 70
     1
102
RTVSPropertyOp43
 70
     1
102
RTVSPropertyOp44
 70
     1
102
RTVSPropertyOp45
 70
     1
102
RTVSPropertyOp46
 70
     1
102
RTVSPropertyOp47
 70
     1
102
RTVSPropertyOp48
 70
     1
102
RTVSPropertyOp49
 70
     1
102
RTVSPropertyOp50
 70
     1
102
RTVSPropertyOp51
 70
     0
102
RTVSPropertyOp52
 70
     0
102
RTVSPropertyOp53
 70
     1
102
RTVSPropertyOp54
 70
     1
102
RTVSPropertyOp55
 70
     1
102
RTVSPropertyOp56
 70
     1
102
RTVSPropertyOp57
 70
     1
102
RTVSPropertyOp58
 70
     1
102
RTVSPropertyOp59
 70
     1
102
RTVSPropertyOp60
 70
     1
102
RTVSPropertyOp61
 70
     1
102
RTVSPropertyOp62
 70
     1
  0
XRECORD
  5
ABA4
102
{ACAD_REACTORS
330
ABA3
102
}
330
ABA3
100
AcDbXrecord
280
     1
102
RTVSPost2010Prop28
280
     0
102
RTVSPost2010PropOp28
 70
     1
102
RTVSPost2010Prop29
280
     1
102
RTVSPost2010PropOp29
 70
     1
102
RTVSPost2010Prop30
280
     1
102
RTVSPost2010PropOp30
 70
     1
102
RTVSPost2010Prop31
280
     0
102
RTVSPost2010PropOp31
 70
     1
102
RTVSPost2010Prop32
280
     0
102
RTVSPost2010PropOp32
 70
     1
102
RTVSPost2010Prop33
280
     0
102
RTVSPost2010PropOp33
 70
     1
102
RTVSPost2010Prop34
280
     0
102
RTVSPost2010PropOp34
 70
     1
102
RTVSPost2010Prop35
280
     0
102
RTVSPost2010PropOp35
 70
     1
102
RTVSPost2010Prop36
280
     0
102
RTVSPost2010PropOp36
 70
     1
102
RTVSPost2010Prop37
 90
       50
102
RTVSPost2010PropOp37
 70
     1
102
RTVSPost2010Prop38
140
0.0
102
RTVSPost2010PropOp38
 70
     1
102
RTVSPost2010Prop39
140
1.0
102
RTVSPost2010PropOp39
 70
     1
102
RTVSPost2010Prop40
 90
        0
102
RTVSPost2010PropOp40
 70
     1
102
RTVSPost2010Prop41ColorIndex
 90
       18
102
RTVSPost2010Prop41ColorRGB
 90
        0
102
RTVSPost2010PropOp41
 70
     1
102
RTVSPost2010Prop42
 90
       50
102
RTVSPost2010PropOp42
 70
     1
102
RTVSPost2010Prop43
 90
        3
102
RTVSPost2010PropOp43
 70
     1
102
RTVSPost2010Prop44ColorIndex
 90
        5
102
RTVSPost2010Prop44ColorRGB
 90
      255
102
RTVSPost2010PropOp44
 70
     1
102
RTVSPost2010Prop45
280
     0
102
RTVSPost2010PropOp45
 70
     1
102
RTVSPost2010Prop46
 90
       50
102
RTVSPost2010PropOp46
 70
     1
102
RTVSPost2010Prop47
 90
       50
102
RTVSPost2010PropOp47
 70
     1
102
RTVSPost2010Prop48
 90
       50
102
RTVSPost2010PropOp48
 70
     1
102
RTVSPost2010Prop49
280
     0
102
RTVSPost2010PropOp49
 70
     1
102
RTVSPost2010Prop50
 90
       50
102
RTVSPost2010PropOp50
 70
     1
102
RTVSPost2010Prop51ColorIndex
 90
      256
102
RTVSPost2010Prop51ColorRGB
 90
-16777216
102
RTVSPost2010PropOp51
 70
     0
102
RTVSPost2010Prop52
140
1.0
102
RTVSPost2010PropOp52
 70
     0
102
RTVSPost2010Prop53
 90
        2
102
RTVSPost2010PropOp53
 70
     1
102
RTVSPost2010Prop54
  1
strokes_ogs.tif
102
RTVSPost2010PropOp54
 70
     1
102
RTVSPost2010Prop55
280
     0
102
RTVSPost2010PropOp55
 70
     1
102
RTVSPost2010Prop56
140
1.0
102
RTVSPost2010PropOp56
 70
     1
102
RTVSPost2010Prop57
140
1.0
102
RTVSPost2010PropOp57
 70
     1
102
RTVSPropertyOp0
 70
     1
102
RTVSPropertyOp1
 70
     1
102
RTVSPropertyOp2
 70
     1
102
RTVSPropertyOp3
 70
     1
102
RTVSPropertyOp4
 70
     1
102
RTVSPropertyOp5
 70
     1
102
RTVSPropertyOp6
 70
     1
102
RTVSPropertyOp7
 70
     1
102
RTVSPropertyOp8
 70
     1
102
RTVSPropertyOp9
 70
     1
102
RTVSPropertyOp10
 70
     1
102
RTVSPropertyOp11
 70
     1
102
RTVSPropertyOp12
 70
     1
102
RTVSPropertyOp13
 70
     1
102
RTVSPropertyOp14
 70
     1
102
RTVSPropertyOp15
 70
     1
102
RTVSPropertyOp16
 70
     1
102
RTVSPropertyOp17
 70
     1
102
RTVSPropertyOp18
 70
     1
102
RTVSPropertyOp19
 70
     1
102
RTVSPropertyOp20
 70
     1
102
RTVSPropertyOp21
 70
     1
102
RTVSPropertyOp22
 70
     1
102
RTVSPropertyOp23
 70
     1
102
RTVSPropertyOp24
 70
     1
102
RTVSPropertyOp25
 70
     1
102
RTVSPropertyOp26
 70
     1
102
RTVSPropertyOp27
 70
     1
102
RTVSPropertyOp28
 70
     1
102
RTVSPropertyOp29
 70
     1
102
RTVSPropertyOp30
 70
     1
102
RTVSPropertyOp31
 70
     1
102
RTVSPropertyOp32
 70
     1
102
RTVSPropertyOp33
 70
     1
102
RTVSPropertyOp34
 70
     1
102
RTVSPropertyOp35
 70
     1
102
RTVSPropertyOp36
 70
     1
102
RTVSPropertyOp37
 70
     1
102
RTVSPropertyOp38
 70
     1
102
RTVSPropertyOp39
 70
     1
102
RTVSPropertyOp40
 70
     1
102
RTVSPropertyOp41
 70
     1
102
RTVSPropertyOp42
 70
     1
102
RTVSPropertyOp43
 70
     1
102
RTVSPropertyOp44
 70
     1
102
RTVSPropertyOp45
 70
     1
102
RTVSPropertyOp46
 70
     1
102
RTVSPropertyOp47
 70
     1
102
RTVSPropertyOp48
 70
     1
102
RTVSPropertyOp49
 70
     1
102
RTVSPropertyOp50
 70
     1
102
RTVSPropertyOp51
 70
     0
102
RTVSPropertyOp52
 70
     0
102
RTVSPropertyOp53
 70
     1
102
RTVSPropertyOp54
 70
     1
102
RTVSPropertyOp55
 70
     1
102
RTVSPropertyOp56
 70
     1
102
RTVSPropertyOp57
 70
     1
102
RTVSPropertyOp58
 70
     1
102
RTVSPropertyOp59
 70
     1
102
RTVSPropertyOp60
 70
     1
102
RTVSPropertyOp61
 70
     1
102
RTVSPropertyOp62
 70
     1
  0
XRECORD
  5
AB98
102
{ACAD_REACTORS
330
AB97
102
}
330
AB97
100
AcDbXrecord
280
     1
102
RTVSPost2010Prop28
280
     0
102
RTVSPost2010PropOp28
 70
     1
102
RTVSPost2010Prop29
280
     1
102
RTVSPost2010PropOp29
 70
     1
102
RTVSPost2010Prop30
280
     1
102
RTVSPost2010PropOp30
 70
     1
102
RTVSPost2010Prop31
280
     0
102
RTVSPost2010PropOp31
 70
     1
102
RTVSPost2010Prop32
280
     0
102
RTVSPost2010PropOp32
 70
     1
102
RTVSPost2010Prop33
280
     0
102
RTVSPost2010PropOp33
 70
     1
102
RTVSPost2010Prop34
280
     0
102
RTVSPost2010PropOp34
 70
     1
102
RTVSPost2010Prop35
280
     0
102
RTVSPost2010PropOp35
 70
     1
102
RTVSPost2010Prop36
280
     0
102
RTVSPost2010PropOp36
 70
     1
102
RTVSPost2010Prop37
 90
       50
102
RTVSPost2010PropOp37
 70
     1
102
RTVSPost2010Prop38
140
0.0
102
RTVSPost2010PropOp38
 70
     1
102
RTVSPost2010Prop39
140
1.0
102
RTVSPost2010PropOp39
 70
     1
102
RTVSPost2010Prop40
 90
        0
102
RTVSPost2010PropOp40
 70
     1
102
RTVSPost2010Prop41ColorIndex
 90
       18
102
RTVSPost2010Prop41ColorRGB
 90
        0
102
RTVSPost2010PropOp41
 70
     1
102
RTVSPost2010Prop42
 90
       50
102
RTVSPost2010PropOp42
 70
     1
102
RTVSPost2010Prop43
 90
        3
102
RTVSPost2010PropOp43
 70
     1
102
RTVSPost2010Prop44ColorIndex
 90
        5
102
RTVSPost2010Prop44ColorRGB
 90
      255
102
RTVSPost2010PropOp44
 70
     1
102
RTVSPost2010Prop45
280
     0
102
RTVSPost2010PropOp45
 70
     1
102
RTVSPost2010Prop46
 90
       50
102
RTVSPost2010PropOp46
 70
     1
102
RTVSPost2010Prop47
 90
       50
102
RTVSPost2010PropOp47
 70
     1
102
RTVSPost2010Prop48
 90
       50
102
RTVSPost2010PropOp48
 70
     1
102
RTVSPost2010Prop49
280
     0
102
RTVSPost2010PropOp49
 70
     1
102
RTVSPost2010Prop50
 90
       50
102
RTVSPost2010PropOp50
 70
     1
102
RTVSPost2010Prop51ColorIndex
 90
      256
102
RTVSPost2010Prop51ColorRGB
 90
-16777216
102
RTVSPost2010PropOp51
 70
     0
102
RTVSPost2010Prop52
140
1.0
102
RTVSPost2010PropOp52
 70
     0
102
RTVSPost2010Prop53
 90
        2
102
RTVSPost2010PropOp53
 70
     1
102
RTVSPost2010Prop54
  1
strokes_ogs.tif
102
RTVSPost2010PropOp54
 70
     1
102
RTVSPost2010Prop55
280
     0
102
RTVSPost2010PropOp55
 70
     1
102
RTVSPost2010Prop56
140
1.0
102
RTVSPost2010PropOp56
 70
     1
102
RTVSPost2010Prop57
140
1.0
102
RTVSPost2010PropOp57
 70
     1
102
RTVSPropertyOp0
 70
     1
102
RTVSPropertyOp1
 70
     1
102
RTVSPropertyOp2
 70
     1
102
RTVSPropertyOp3
 70
     1
102
RTVSPropertyOp4
 70
     1
102
RTVSPropertyOp5
 70
     1
102
RTVSPropertyOp6
 70
     1
102
RTVSPropertyOp7
 70
     1
102
RTVSPropertyOp8
 70
     1
102
RTVSPropertyOp9
 70
     1
102
RTVSPropertyOp10
 70
     1
102
RTVSPropertyOp11
 70
     1
102
RTVSPropertyOp12
 70
     1
102
RTVSPropertyOp13
 70
     1
102
RTVSPropertyOp14
 70
     1
102
RTVSPropertyOp15
 70
     1
102
RTVSPropertyOp16
 70
     1
102
RTVSPropertyOp17
 70
     1
102
RTVSPropertyOp18
 70
     1
102
RTVSPropertyOp19
 70
     1
102
RTVSPropertyOp20
 70
     1
102
RTVSPropertyOp21
 70
     1
102
RTVSPropertyOp22
 70
     1
102
RTVSPropertyOp23
 70
     1
102
RTVSPropertyOp24
 70
     1
102
RTVSPropertyOp25
 70
     1
102
RTVSPropertyOp26
 70
     1
102
RTVSPropertyOp27
 70
     1
102
RTVSPropertyOp28
 70
     1
102
RTVSPropertyOp29
 70
     1
102
RTVSPropertyOp30
 70
     1
102
RTVSPropertyOp31
 70
     1
102
RTVSPropertyOp32
 70
     1
102
RTVSPropertyOp33
 70
     1
102
RTVSPropertyOp34
 70
     1
102
RTVSPropertyOp35
 70
     1
102
RTVSPropertyOp36
 70
     1
102
RTVSPropertyOp37
 70
     1
102
RTVSPropertyOp38
 70
     1
102
RTVSPropertyOp39
 70
     1
102
RTVSPropertyOp40
 70
     1
102
RTVSPropertyOp41
 70
     1
102
RTVSPropertyOp42
 70
     1
102
RTVSPropertyOp43
 70
     1
102
RTVSPropertyOp44
 70
     1
102
RTVSPropertyOp45
 70
     1
102
RTVSPropertyOp46
 70
     1
102
RTVSPropertyOp47
 70
     1
102
RTVSPropertyOp48
 70
     1
102
RTVSPropertyOp49
 70
     1
102
RTVSPropertyOp50
 70
     1
102
RTVSPropertyOp51
 70
     0
102
RTVSPropertyOp52
 70
     0
102
RTVSPropertyOp53
 70
     1
102
RTVSPropertyOp54
 70
     1
102
RTVSPropertyOp55
 70
     1
102
RTVSPropertyOp56
 70
     1
102
RTVSPropertyOp57
 70
     1
102
RTVSPropertyOp58
 70
     1
102
RTVSPropertyOp59
 70
     1
102
RTVSPropertyOp60
 70
     1
102
RTVSPropertyOp61
 70
     1
102
RTVSPropertyOp62
 70
     1
  0
XRECORD
  5
ABB0
102
{ACAD_REACTORS
330
ABAF
102
}
330
ABAF
100
AcDbXrecord
280
     1
102
RTVSPost2010Prop28
280
     0
102
RTVSPost2010PropOp28
 70
     1
102
RTVSPost2010Prop29
280
     1
102
RTVSPost2010PropOp29
 70
     1
102
RTVSPost2010Prop30
280
     1
102
RTVSPost2010PropOp30
 70
     1
102
RTVSPost2010Prop31
280
     0
102
RTVSPost2010PropOp31
 70
     1
102
RTVSPost2010Prop32
280
     0
102
RTVSPost2010PropOp32
 70
     1
102
RTVSPost2010Prop33
280
     0
102
RTVSPost2010PropOp33
 70
     1
102
RTVSPost2010Prop34
280
     0
102
RTVSPost2010PropOp34
 70
     1
102
RTVSPost2010Prop35
280
     0
102
RTVSPost2010PropOp35
 70
     1
102
RTVSPost2010Prop36
280
     0
102
RTVSPost2010PropOp36
 70
     1
102
RTVSPost2010Prop37
 90
       50
102
RTVSPost2010PropOp37
 70
     1
102
RTVSPost2010Prop38
140
0.0
102
RTVSPost2010PropOp38
 70
     1
102
RTVSPost2010Prop39
140
1.0
102
RTVSPost2010PropOp39
 70
     1
102
RTVSPost2010Prop40
 90
        0
102
RTVSPost2010PropOp40
 70
     1
102
RTVSPost2010Prop41ColorIndex
 90
       18
102
RTVSPost2010Prop41ColorRGB
 90
        0
102
RTVSPost2010PropOp41
 70
     1
102
RTVSPost2010Prop42
 90
       50
102
RTVSPost2010PropOp42
 70
     1
102
RTVSPost2010Prop43
 90
        3
102
RTVSPost2010PropOp43
 70
     1
102
RTVSPost2010Prop44ColorIndex
 90
        5
102
RTVSPost2010Prop44ColorRGB
 90
      255
102
RTVSPost2010PropOp44
 70
     1
102
RTVSPost2010Prop45
280
     0
102
RTVSPost2010PropOp45
 70
     1
102
RTVSPost2010Prop46
 90
       50
102
RTVSPost2010PropOp46
 70
     1
102
RTVSPost2010Prop47
 90
       50
102
RTVSPost2010PropOp47
 70
     1
102
RTVSPost2010Prop48
 90
       50
102
RTVSPost2010PropOp48
 70
     1
102
RTVSPost2010Prop49
280
     0
102
RTVSPost2010PropOp49
 70
     1
102
RTVSPost2010Prop50
 90
       50
102
RTVSPost2010PropOp50
 70
     1
102
RTVSPost2010Prop51ColorIndex
 90
      256
102
RTVSPost2010Prop51ColorRGB
 90
-16777216
102
RTVSPost2010PropOp51
 70
     0
102
RTVSPost2010Prop52
140
1.0
102
RTVSPost2010PropOp52
 70
     0
102
RTVSPost2010Prop53
 90
        2
102
RTVSPost2010PropOp53
 70
     1
102
RTVSPost2010Prop54
  1
strokes_ogs.tif
102
RTVSPost2010PropOp54
 70
     1
102
RTVSPost2010Prop55
280
     0
102
RTVSPost2010PropOp55
 70
     1
102
RTVSPost2010Prop56
140
1.0
102
RTVSPost2010PropOp56
 70
     1
102
RTVSPost2010Prop57
140
1.0
102
RTVSPost2010PropOp57
 70
     1
102
RTVSPropertyOp0
 70
     1
102
RTVSPropertyOp1
 70
     1
102
RTVSPropertyOp2
 70
     1
102
RTVSPropertyOp3
 70
     1
102
RTVSPropertyOp4
 70
     1
102
RTVSPropertyOp5
 70
     1
102
RTVSPropertyOp6
 70
     1
102
RTVSPropertyOp7
 70
     1
102
RTVSPropertyOp8
 70
     1
102
RTVSPropertyOp9
 70
     1
102
RTVSPropertyOp10
 70
     1
102
RTVSPropertyOp11
 70
     1
102
RTVSPropertyOp12
 70
     1
102
RTVSPropertyOp13
 70
     1
102
RTVSPropertyOp14
 70
     1
102
RTVSPropertyOp15
 70
     1
102
RTVSPropertyOp16
 70
     1
102
RTVSPropertyOp17
 70
     1
102
RTVSPropertyOp18
 70
     1
102
RTVSPropertyOp19
 70
     1
102
RTVSPropertyOp20
 70
     1
102
RTVSPropertyOp21
 70
     1
102
RTVSPropertyOp22
 70
     1
102
RTVSPropertyOp23
 70
     1
102
RTVSPropertyOp24
 70
     1
102
RTVSPropertyOp25
 70
     1
102
RTVSPropertyOp26
 70
     1
102
RTVSPropertyOp27
 70
     1
102
RTVSPropertyOp28
 70
     1
102
RTVSPropertyOp29
 70
     1
102
RTVSPropertyOp30
 70
     1
102
RTVSPropertyOp31
 70
     1
102
RTVSPropertyOp32
 70
     1
102
RTVSPropertyOp33
 70
     1
102
RTVSPropertyOp34
 70
     1
102
RTVSPropertyOp35
 70
     1
102
RTVSPropertyOp36
 70
     1
102
RTVSPropertyOp37
 70
     1
102
RTVSPropertyOp38
 70
     1
102
RTVSPropertyOp39
 70
     1
102
RTVSPropertyOp40
 70
     1
102
RTVSPropertyOp41
 70
     1
102
RTVSPropertyOp42
 70
     1
102
RTVSPropertyOp43
 70
     1
102
RTVSPropertyOp44
 70
     1
102
RTVSPropertyOp45
 70
     1
102
RTVSPropertyOp46
 70
     1
102
RTVSPropertyOp47
 70
     1
102
RTVSPropertyOp48
 70
     1
102
RTVSPropertyOp49
 70
     1
102
RTVSPropertyOp50
 70
     1
102
RTVSPropertyOp51
 70
     0
102
RTVSPropertyOp52
 70
     0
102
RTVSPropertyOp53
 70
     1
102
RTVSPropertyOp54
 70
     1
102
RTVSPropertyOp55
 70
     1
102
RTVSPropertyOp56
 70
     1
102
RTVSPropertyOp57
 70
     1
102
RTVSPropertyOp58
 70
     1
102
RTVSPropertyOp59
 70
     1
102
RTVSPropertyOp60
 70
     1
102
RTVSPropertyOp61
 70
     1
102
RTVSPropertyOp62
 70
     1
  0
ENDSEC
  0
EOF
