  0
SECTION
  2
HEADER
  9
$ACADVER
  1
AC1015
  9
$ACADMAINTVER
 70
    20
  9
$DWGCODEPAGE
  3
ANSI_932
  9
$INSBASE
 10
0.0
 20
0.0
 30
0.0
  9
$EXTMIN
 10
10.0
 20
9.999999999999998
 30
0.0
  9
$EXTMAX
 10
964.4026740000001
 20
784.849816
 30
0.0
  9
$LIMMIN
 10
0.0
 20
0.0
  9
$LIMMAX
 10
1227.6
 20
846.2999999999999
  9
$ORTHOMODE
 70
     1
  9
$REGENMODE
 70
     1
  9
$FILLMODE
 70
     1
  9
$QTEXTMODE
 70
     0
  9
$MIRRTEXT
 70
     1
  9
$LTSCALE
 40
20.0
  9
$ATTMODE
 70
     1
  9
$TEXTSIZE
 40
5.0
  9
$TRACEWID
 40
1.0
  9
$TEXTSTYLE
  7
STANDARD
  9
$CLAYER
  8
0
  9
$CELTYPE
  6
BYLAYER
  9
$CECOLOR
 62
   256
  9
$CELTSCALE
 40
1.0
  9
$DISPSILH
 70
     0
  9
$DIMSCALE
 40
1.0
  9
$DIMASZ
 40
3.0
  9
$DIMEXO
 40
1.0
  9
$DIMDLI
 40
10.0
  9
$DIMRND
 40
0.0
  9
$DIMDLE
 40
0.0
  9
$DIMEXE
 40
1.0
  9
$DIMTP
 40
0.0
  9
$DIMTM
 40
0.0
  9
$DIMTXT
 40
2.5
  9
$DIMCEN
 40
0.0
  9
$DIMTSZ
 40
0.0
  9
$DIMTOL
 70
     0
  9
$DIMLIM
 70
     0
  9
$DIMTIH
 70
     0
  9
$DIMTOH
 70
     0
  9
$DIMSE1
 70
     0
  9
$DIMSE2
 70
     0
  9
$DIMTAD
 70
     3
  9
$DIMZIN
 70
     8
  9
$DIMBLK
  1

  9
$DIMASO
 70
     1
  9
$DIMSHO
 70
     1
  9
$DIMPOST
  1

  9
$DIMAPOST
  1

  9
$DIMALT
 70
     0
  9
$DIMALTD
 70
     2
  9
$DIMALTF
 40
25.4
  9
$DIMLFAC
 40
1.0
  9
$DIMTOFL
 70
     1
  9
$DIMTVP
 40
0.0
  9
$DIMTIX
 70
     0
  9
$DIMSOXD
 70
     0
  9
$DIMSAH
 70
     1
  9
$DIMBLK1
  1

  9
$DIMBLK2
  1

  9
$DIMSTYLE
  2
STANDARD
  9
$DIMCLRD
 70
     0
  9
$DIMCLRE
 70
     0
  9
$DIMCLRT
 70
     0
  9
$DIMTFAC
 40
1.0
  9
$DIMGAP
 40
1.0
  9
$DIMJUST
 70
     0
  9
$DIMSD1
 70
     0
  9
$DIMSD2
 70
     0
  9
$DIMTOLJ
 70
     1
  9
$DIMTZIN
 70
     0
  9
$DIMALTZ
 70
     0
  9
$DIMALTTZ
 70
     0
  9
$DIMUPT
 70
     0
  9
$DIMDEC
 70
     4
  9
$DIMTDEC
 70
     4
  9
$DIMALTU
 70
     2
  9
$DIMALTTD
 70
     2
  9
$DIMTXSTY
  7
STANDARD
  9
$DIMAUNIT
 70
     0
  9
$DIMADEC
 70
     0
  9
$DIMALTRND
 40
0.0
  9
$DIMAZIN
 70
     0
  9
$DIMDSEP
 70
    46
  9
$DIMATFIT
 70
     3
  9
$DIMFRAC
 70
     0
  9
$DIMLDRBLK
  1

  9
$DIMLUNIT
 70
     2
  9
$DIMLWD
 70
    -2
  9
$DIMLWE
 70
    -2
  9
$DIMTMOVE
 70
     0
  9
$LUNITS
 70
     2
  9
$LUPREC
 70
     4
  9
$SKETCHINC
 40
1.0
  9
$FILLETRAD
 40
0.0
  9
$AUNITS
 70
     0
  9
$AUPREC
 70
     2
  9
$MENU
  1
.
  9
$ELEVATION
 40
0.0
  9
$PELEVATION
 40
0.0
  9
$THICKNESS
 40
0.0
  9
$LIMCHECK
 70
     0
  9
$CHAMFERA
 40
10.0
  9
$CHAMFERB
 40
10.0
  9
$CHAMFERC
 40
0.0
  9
$CHAMFERD
 40
0.0
  9
$SKPOLY
 70
     0
  9
$TDCREATE
 40
2451233.438789815
  9
$TDUCREATE
 40
2451233.063789815
  9
$TDUPDATE
 40
2457192.665361910
  9
$TDUUPDATE
 40
2457192.290361910
  9
$TDINDWG
 40
0.0000127431
  9
$TDUSRTIMER
 40
0.0000124190
  9
$USRTIMER
 70
     1
  9
$ANGBASE
 50
0.0
  9
$ANGDIR
 70
     0
  9
$PDMODE
 70
     0
  9
$PDSIZE
 40
0.0
  9
$PLINEWID
 40
0.0
  9
$SPLFRAME
 70
     0
  9
$SPLINETYPE
 70
     6
  9
$SPLINESEGS
 70
     8
  9
$HANDSEED
  5
128B0
  9
$SURFTAB1
 70
     6
  9
$SURFTAB2
 70
     6
  9
$SURFTYPE
 70
     6
  9
$SURFU
 70
     6
  9
$SURFV
 70
     6
  9
$UCSBASE
  2

  9
$UCSNAME
  2

  9
$UCSORG
 10
0.0
 20
0.0
 30
0.0
  9
$UCSXDIR
 10
1.0
 20
0.0
 30
0.0
  9
$UCSYDIR
 10
0.0
 20
1.0
 30
0.0
  9
$UCSORTHOREF
  2

  9
$UCSORTHOVIEW
 70
     0
  9
$UCSORGTOP
 10
0.0
 20
0.0
 30
0.0
  9
$UCSORGBOTTOM
 10
0.0
 20
0.0
 30
0.0
  9
$UCSORGLEFT
 10
0.0
 20
0.0
 30
0.0
  9
$UCSORGRIGHT
 10
0.0
 20
0.0
 30
0.0
  9
$UCSORGFRONT
 10
0.0
 20
0.0
 30
0.0
  9
$UCSORGBACK
 10
0.0
 20
0.0
 30
0.0
  9
$PUCSBASE
  2

  9
$PUCSNAME
  2

  9
$PUCSORG
 10
0.0
 20
0.0
 30
0.0
  9
$PUCSXDIR
 10
1.0
 20
0.0
 30
0.0
  9
$PUCSYDIR
 10
0.0
 20
1.0
 30
0.0
  9
$PUCSORTHOREF
  2

  9
$PUCSORTHOVIEW
 70
     0
  9
$PUCSORGTOP
 10
0.0
 20
0.0
 30
0.0
  9
$PUCSORGBOTTOM
 10
0.0
 20
0.0
 30
0.0
  9
$PUCSORGLEFT
 10
0.0
 20
0.0
 30
0.0
  9
$PUCSORGRIGHT
 10
0.0
 20
0.0
 30
0.0
  9
$PUCSORGFRONT
 10
0.0
 20
0.0
 30
0.0
  9
$PUCSORGBACK
 10
0.0
 20
0.0
 30
0.0
  9
$USERI1
 70
     0
  9
$USERI2
 70
     0
  9
$USERI3
 70
     0
  9
$USERI4
 70
     0
  9
$USERI5
 70
     0
  9
$USERR1
 40
0.0
  9
$USERR2
 40
0.0
  9
$USERR3
 40
0.0
  9
$USERR4
 40
0.0
  9
$USERR5
 40
0.0
  9
$WORLDVIEW
 70
     1
  9
$SHADEDGE
 70
     3
  9
$SHADEDIF
 70
    70
  9
$TILEMODE
 70
     1
  9
$MAXACTVP
 70
    16
  9
$PINSBASE
 10
0.0
 20
0.0
 30
0.0
  9
$PLIMCHECK
 70
     0
  9
$PEXTMIN
 10
1.000000000000000E+20
 20
1.000000000000000E+20
 30
1.000000000000000E+20
  9
$PEXTMAX
 10
-1.000000000000000E+20
 20
-1.000000000000000E+20
 30
-1.000000000000000E+20
  9
$PLIMMIN
 10
0.0
 20
0.0
  9
$PLIMMAX
 10
420.0
 20
297.0
  9
$UNITMODE
 70
     0
  9
$VISRETAIN
 70
     0
  9
$PLINEGEN
 70
     0
  9
$PSLTSCALE
 70
     0
  9
$TREEDEPTH
 70
  3020
  9
$CMLSTYLE
  2
STANDARD
  9
$CMLJUST
 70
     0
  9
$CMLSCALE
 40
1.0
  9
$PROXYGRAPHICS
 70
     1
  9
$MEASUREMENT
 70
     0
  9
$CELWEIGHT
370
    -1
  9
$ENDCAPS
280
     0
  9
$JOINSTYLE
280
     0
  9
$LWDISPLAY
290
     0
  9
$INSUNITS
 70
     0
  9
$HYPERLINKBASE
  1

  9
$STYLESHEET
  1

  9
$XEDIT
290
     1
  9
$CEPSNTYPE
380
     0
  9
$PSTYLEMODE
290
     1
  9
$FINGERPRINTGUID
  2
{9314A939-7EF8-4C26-B267-1EF8C04C0E1D}
  9
$VERSIONGUID
  2
{E97728FC-D5C1-42CE-85A2-30468657C8DA}
  9
$EXTNAMES
290
     1
  9
$PSVPSCALE
 40
0.0
  9
$OLESTARTUP
290
     0
  0
ENDSEC
  0
SECTION
  2
CLASSES
  0
CLASS
  1
ACDBDICTIONARYWDFLT
  2
AcDbDictionaryWithDefault
  3
ObjectDBX Classes
 90
        0
280
     0
281
     0
  0
CLASS
  1
ACDBPLACEHOLDER
  2
AcDbPlaceHolder
  3
ObjectDBX Classes
 90
        0
280
     0
281
     0
  0
CLASS
  1
LAYOUT
  2
AcDbLayout
  3
ObjectDBX Classes
 90
        0
280
     0
281
     0
  0
CLASS
  1
DICTIONARYVAR
  2
AcDbDictionaryVar
  3
ObjectDBX Classes
 90
        0
280
     0
281
     0
  0
CLASS
  1
MATERIAL
  2
AcDbMaterial
  3
ObjectDBX Classes
 90
     1153
280
     0
281
     0
  0
CLASS
  1
VISUALSTYLE
  2
AcDbVisualStyle
  3
ObjectDBX Classes
 90
     4095
280
     0
281
     0
  0
CLASS
  1
TABLESTYLE
  2
AcDbTableStyle
  3
ObjectDBX Classes
 90
     4095
280
     0
281
     0
  0
CLASS
  1
SCALE
  2
AcDbScale
  3
ObjectDBX Classes
 90
     1153
280
     0
281
     0
  0
CLASS
  1
MLEADERSTYLE
  2
AcDbMLeaderStyle
  3
ACDB_MLEADERSTYLE_CLASS
 90
     4095
280
     0
281
     0
  0
CLASS
  1
ACDBSECTIONVIEWSTYLE
  2
AcDbSectionViewStyle
  3
ObjectDBX Classes
 90
     1025
280
     0
281
     0
  0
CLASS
  1
ACDBDETAILVIEWSTYLE
  2
AcDbDetailViewStyle
  3
ObjectDBX Classes
 90
     1025
280
     0
281
     0
  0
CLASS
  1
CELLSTYLEMAP
  2
AcDbCellStyleMap
  3
ObjectDBX Classes
 90
     1152
280
     0
281
     0
  0
ENDSEC
  0
SECTION
  2
TABLES
  0
TABLE
  2
VPORT
  5
1248A
330
0
100
AcDbSymbolTable
 70
     1
  0
VPORT
  5
127F9
330
1248A
100
AcDbSymbolTableRecord
100
AcDbViewportTableRecord
  2
*ACTIVE
 70
     0
 10
0.0
 20
0.0
 11
1.0
 21
1.0
 12
721.9163753113232
 22
397.4198269221811
 13
0.0
 23
0.0
 14
10.0
 24
10.0
 15
10.0
 25
10.0
 16
0.0
 26
0.0
 36
1.0
 17
0.0
 27
0.0
 37
0.0
 40
783.5418881585337
 41
1.899603698811096
 42
50.0
 43
0.0
 44
0.0
 50
0.0
 51
0.0
 71
     0
 72
   100
 73
     1
 74
     0
 75
     0
 76
     0
 77
     0
 78
     0
281
     0
 65
     1
110
0.0
120
0.0
130
0.0
111
1.0
121
0.0
131
0.0
112
0.0
122
1.0
132
0.0
 79
     0
146
0.0
1001
ACAD_NAV_VCDISPLAY
1070
     3
  0
ENDTAB
  0
TABLE
  2
LTYPE
  5
12487
330
0
100
AcDbSymbolTable
 70
     4
  0
LTYPE
  5
12495
330
12487
100
AcDbSymbolTableRecord
100
AcDbLinetypeTableRecord
  2
BYBLOCK
 70
     0
  3

 72
    65
 73
     0
 40
0.0
  0
LTYPE
  5
12496
330
12487
100
AcDbSymbolTableRecord
100
AcDbLinetypeTableRecord
  2
BYLAYER
 70
     0
  3

 72
    65
 73
     0
 40
0.0
  0
LTYPE
  5
12497
330
12487
100
AcDbSymbolTableRecord
100
AcDbLinetypeTableRecord
  2
CONTINUOUS
 70
     0
  3
Solid line
 72
    65
 73
     0
 40
0.0
  0
LTYPE
  5
124A5
330
12487
100
AcDbSymbolTableRecord
100
AcDbLinetypeTableRecord
  2
DASHED
 70
     0
  3
__ __ __ __ __ __ __ __ __ __ __ __ __ __ __ __
 72
    65
 73
     2
 40
0.75
 49
0.5
 74
     0
 49
-0.25
 74
     0
  0
LTYPE
  5
124A6
330
12487
100
AcDbSymbolTableRecord
100
AcDbLinetypeTableRecord
  2
CENTER
 70
     0
  3
____ _ ____ _ ____ _ ____ _ ____ _ ____ _ ____ 
 72
    65
 73
     4
 40
2.0
 49
1.25
 74
     0
 49
-0.25
 74
     0
 49
0.25
 74
     0
 49
-0.25
 74
     0
  0
LTYPE
  5
124A7
330
12487
100
AcDbSymbolTableRecord
100
AcDbLinetypeTableRecord
  2
PHANTOM
 70
     0
  3
______  __  __  ______  __  __  ______  __  __ 
 72
    65
 73
     6
 40
2.5
 49
1.25
 74
     0
 49
-0.25
 74
     0
 49
0.25
 74
     0
 49
-0.25
 74
     0
 49
0.25
 74
     0
 49
-0.25
 74
     0
  0
ENDTAB
  0
TABLE
  2
LAYER
  5
12484
330
0
100
AcDbSymbolTable
 70
     8
  0
LAYER
  5
12492
102
{ACAD_XDICTIONARY
360
12854
102
}
330
12484
100
AcDbSymbolTableRecord
100
AcDbLayerTableRecord
  2
0
 70
     0
 62
     7
  6
CONTINUOUS
370
    -3
390
12802
  0
LAYER
  5
124A8
102
{ACAD_XDICTIONARY
360
12856
102
}
330
12484
100
AcDbSymbolTableRecord
100
AcDbLayerTableRecord
  2
4
 70
     0
 62
     1
  6
CENTER
370
    -3
390
12802
  0
LAYER
  5
124A9
102
{ACAD_XDICTIONARY
360
12858
102
}
330
12484
100
AcDbSymbolTableRecord
100
AcDbLayerTableRecord
  2
5
 70
     0
 62
     6
  6
PHANTOM
370
    -3
390
12802
  0
LAYER
  5
124AA
102
{ACAD_XDICTIONARY
360
1285A
102
}
330
12484
100
AcDbSymbolTableRecord
100
AcDbLayerTableRecord
  2
1
 70
     0
 62
     7
  6
CONTINUOUS
370
    -3
390
12802
  0
LAYER
  5
124AB
102
{ACAD_XDICTIONARY
360
1285C
102
}
330
12484
100
AcDbSymbolTableRecord
100
AcDbLayerTableRecord
  2
2
 70
     0
 62
     4
  6
CONTINUOUS
370
    -3
390
12802
  0
LAYER
  5
124AC
102
{ACAD_XDICTIONARY
360
1285E
102
}
330
12484
100
AcDbSymbolTableRecord
100
AcDbLayerTableRecord
  2
3
 70
     0
 62
     2
  6
DASHED
370
    -3
390
12802
  0
LAYER
  5
124AD
102
{ACAD_XDICTIONARY
360
12860
102
}
330
12484
100
AcDbSymbolTableRecord
100
AcDbLayerTableRecord
  2
6
 70
     0
 62
     5
  6
CONTINUOUS
370
    -3
390
12802
  0
LAYER
  5
124AE
102
{ACAD_XDICTIONARY
360
12862
102
}
330
12484
100
AcDbSymbolTableRecord
100
AcDbLayerTableRecord
  2
7
 70
     0
 62
     3
  6
CONTINUOUS
370
    -3
390
12802
  0
ENDTAB
  0
TABLE
  2
STYLE
  5
12485
330
0
100
AcDbSymbolTable
 70
     1
  0
STYLE
  5
12493
330
12485
100
AcDbSymbolTableRecord
100
AcDbTextStyleTableRecord
  2
STANDARD
 70
     0
 40
0.0
 41
1.0
 50
0.0
 71
     0
 42
5.0
  3
txt
  4

  0
ENDTAB
  0
TABLE
  2
VIEW
  5
12488
330
0
100
AcDbSymbolTable
 70
     0
  0
ENDTAB
  0
TABLE
  2
UCS
  5
12489
330
0
100
AcDbSymbolTable
 70
     0
  0
ENDTAB
  0
TABLE
  2
APPID
  5
1248B
330
0
100
AcDbSymbolTable
 70
     3
  0
APPID
  5
12494
330
1248B
100
AcDbSymbolTableRecord
100
AcDbRegAppTableRecord
  2
ACAD
 70
     0
  0
APPID
  5
1286E
330
1248B
100
AcDbSymbolTableRecord
100
AcDbRegAppTableRecord
  2
ACAD_NAV_VCDISPLAY
 70
     0
  0
APPID
  5
128A7
330
1248B
100
AcDbSymbolTableRecord
100
AcDbRegAppTableRecord
  2
ACAD_MLEADERVER
 70
     0
  0
ENDTAB
  0
TABLE
  2
DIMSTYLE
  5
1248C
330
0
100
AcDbSymbolTable
 70
     1
100
AcDbDimStyleTable
 71
     0
  0
DIMSTYLE
105
124B0
330
1248C
100
AcDbSymbolTableRecord
100
AcDbDimStyleTableRecord
  2
STANDARD
 70
     0
 41
3.0
 42
1.0
 43
10.0
 44
1.0
 73
     0
 74
     0
 77
     3
 78
     8
140
2.5
141
0.0
147
1.0
172
     1
173
     1
284
     8
285
     8
286
     8
340
12493
  0
ENDTAB
  0
TABLE
  2
BLOCK_RECORD
  5
12483
330
0
100
AcDbSymbolTable
 70
     0
  0
BLOCK_RECORD
  5
124A0
102
{ACAD_XDICTIONARY
360
127FC
102
}
330
12483
100
AcDbSymbolTableRecord
100
AcDbBlockTableRecord
  2
*MODEL_SPACE
340
12850
  0
BLOCK_RECORD
  5
1249C
102
{ACAD_XDICTIONARY
360
127FA
102
}
330
12483
100
AcDbSymbolTableRecord
100
AcDbBlockTableRecord
  2
*PAPER_SPACE
340
12851
  0
ENDTAB
  0
ENDSEC
  0
SECTION
  2
BLOCKS
  0
BLOCK
  5
124A1
330
124A0
100
AcDbEntity
  8
0
100
AcDbBlockBegin
  2
*MODEL_SPACE
 70
     0
 10
0.0
 20
0.0
 30
0.0
  3
*MODEL_SPACE
  1

  0
ENDBLK
  5
124A2
330
124A0
100
AcDbEntity
  8
0
100
AcDbBlockEnd
  0
BLOCK
  5
1249D
330
1249C
100
AcDbEntity
 67
     1
  8
0
100
AcDbBlockBegin
  2
*PAPER_SPACE
 70
     0
 10
0.0
 20
0.0
 30
0.0
  3
*PAPER_SPACE
  1

  0
ENDBLK
  5
1249E
330
1249C
100
AcDbEntity
 67
     1
  8
0
100
AcDbBlockEnd
  0
ENDSEC
  0
SECTION
  2
ENTITIES
  0
TEXT
  5
124B8
330
124A0
100
AcDbEntity
  8
7
  6
Continuous
100
AcDbText
 10
10.0
 20
18.0
 30
0.0
 40
3.0
  1
TYPE No.TM-84-3
100
AcDbText
  0
TEXT
  5
124B9
330
124A0
100
AcDbEntity
  8
7
  6
Continuous
100
AcDbText
 10
10.0
 20
26.0
 30
0.0
 40
3.0
  1
CODE No.5123
100
AcDbText
  0
TEXT
  5
124BA
330
124A0
100
AcDbEntity
  8
1
  6
Continuous
100
AcDbText
 10
10.0
 20
10.0
 30
0.0
 40
1.399999999999999
  1
LAYER
100
AcDbText
  0
TEXT
  5
124BB
330
124A0
100
AcDbEntity
  8
1
  6
Continuous
100
AcDbText
 10
17.97951099999998
 20
10.04873699999998
 30
0.0
 40
1.399999999999999
  1
1
100
AcDbText
  0
TEXT
  5
124BC
330
124A0
100
AcDbEntity
  8
7
  6
Continuous
100
AcDbText
 10
29.97951099999999
 20
10.04873699999998
 30
0.0
 40
1.399999999999999
  1
7
100
AcDbText
  0
TEXT
  5
124BD
330
124A0
100
AcDbEntity
  8
4
  6
CENTER
100
AcDbText
 10
23.97951099999999
 20
10.04873699999998
 30
0.0
 40
1.399999999999999
  1
4
100
AcDbText
  0
TEXT
  5
124BE
330
124A0
100
AcDbEntity
  8
3
  6
DASHED
100
AcDbText
 10
21.979511
 20
10.04873699999998
 30
0.0
 40
1.399999999999999
  1
3
100
AcDbText
  0
TEXT
  5
124BF
330
124A0
100
AcDbEntity
  8
2
  6
Continuous
100
AcDbText
 10
19.97951099999999
 20
10.04873699999998
 30
0.0
 40
1.399999999999999
  1
2
100
AcDbText
  0
TEXT
  5
124C0
330
124A0
100
AcDbEntity
  8
6
  6
Continuous
100
AcDbText
 10
27.979511
 20
10.04873699999998
 30
0.0
 40
1.399999999999999
  1
6
100
AcDbText
  0
TEXT
  5
124C1
330
124A0
100
AcDbEntity
  8
5
  6
PHANTOM
100
AcDbText
 10
25.97951099999999
 20
10.04873699999998
 30
0.0
 40
1.399999999999999
  1
5
100
AcDbText
  0
LINE
  5
124C2
330
124A0
100
AcDbEntity
  8
1
  6
Continuous
100
AcDbLine
 10
448.882076
 20
554.849816
 30
0.0
 11
467.8820759999998
 21
554.849816
 31
0.0
  0
LINE
  5
124C3
330
124A0
100
AcDbEntity
  8
1
  6
Continuous
100
AcDbLine
 10
448.882076
 20
577.849816
 30
0.0
 11
495.882076
 21
577.849816
 31
0.0
  0
LINE
  5
124C4
330
124A0
100
AcDbEntity
  8
1
  6
Continuous
100
AcDbLine
 10
495.882076
 20
579.4498160000001
 30
0.0
 11
895.882076
 21
579.4498160000001
 31
0.0
  0
LINE
  5
124C5
330
124A0
100
AcDbEntity
  8
1
  6
Continuous
100
AcDbLine
 10
467.8820759999998
 20
553.249816
 30
0.0
 11
895.882076
 21
553.249816
 31
0.0
  0
LINE
  5
124C6
330
124A0
100
AcDbEntity
  8
1
  6
Continuous
100
AcDbLine
 10
895.882076
 20
553.249816
 30
0.0
 11
895.882076
 21
579.4498160000001
 31
0.0
  0
ARC
  5
124C7
330
124A0
100
AcDbEntity
  8
1
  6
Continuous
100
AcDbCircle
 10
448.882076
 20
574.849816
 30
0.0
 40
3.0
100
AcDbArc
 50
90.0
 51
180.0
  0
ARC
  5
124C8
330
124A0
100
AcDbEntity
  8
1
  6
Continuous
100
AcDbCircle
 10
448.882076
 20
557.849816
 30
0.0
 40
3.0
100
AcDbArc
 50
180.0
 51
270.0
  0
LINE
  5
124C9
330
124A0
100
AcDbEntity
  8
1
  6
Continuous
100
AcDbLine
 10
467.8820759999998
 20
553.249816
 30
0.0
 11
467.8820759999998
 21
554.849816
 31
0.0
  0
LINE
  5
124CA
330
124A0
100
AcDbEntity
  8
1
  6
Continuous
100
AcDbLine
 10
495.882076
 20
577.849816
 30
0.0
 11
495.882076
 21
579.4498160000001
 31
0.0
  0
LINE
  5
124CB
330
124A0
100
AcDbEntity
  8
4
  6
CENTER
100
AcDbLine
 10
440.882076
 20
566.349816
 30
0.0
 11
900.882076
 21
566.349816
 31
0.0
  0
ARC
  5
124CC
330
124A0
100
AcDbEntity
  8
1
  6
Continuous
100
AcDbCircle
 10
456.882076
 20
560.849816
 30
0.0
 40
11.0
100
AcDbArc
 50
210.751502
 51
326.944269
  0
LINE
  5
124CD
330
124A0
100
AcDbEntity
  8
4
  6
CENTER
100
AcDbLine
 10
470.882076
 20
560.849816
 30
0.0
 11
442.8820759999998
 21
560.849816
 31
0.0
  0
LINE
  5
124CE
330
124A0
100
AcDbEntity
  8
4
  6
CENTER
100
AcDbLine
 10
456.882076
 20
574.849816
 30
0.0
 11
456.882076
 21
546.849816
 31
0.0
  0
CIRCLE
  5
124CF
330
124A0
100
AcDbEntity
  8
1
  6
Continuous
100
AcDbCircle
 10
465.882076
 20
566.349816
 30
0.0
 40
2.0
  0
ARC
  5
124D0
330
124A0
100
AcDbEntity
  8
1
  6
Continuous
100
AcDbCircle
 10
456.882076
 20
560.849816
 30
0.0
 40
11.0
100
AcDbArc
 50
21.052718
 51
41.806413
  0
LINE
  5
124D1
330
124A0
100
AcDbEntity
  8
4
  6
CENTER
100
AcDbLine
 10
465.882076
 20
570.349816
 30
0.0
 11
465.882076
 21
562.349816
 31
0.0
  0
CIRCLE
  5
124D2
330
124A0
100
AcDbEntity
  8
1
  6
Continuous
100
AcDbCircle
 10
456.882076
 20
560.849816
 30
0.0
 40
3.649999999999999
  0
LINE
  5
124D3
330
124A0
100
AcDbEntity
  8
4
  6
CENTER
100
AcDbLine
 10
477.882076
 20
560.349816
 30
0.0
 11
477.882076
 21
572.349816
 31
0.0
  0
CIRCLE
  5
124D4
330
124A0
100
AcDbEntity
  8
1
  6
Continuous
100
AcDbCircle
 10
477.882076
 20
566.349816
 30
0.0
 40
3.0
  0
LINE
  5
124D5
330
124A0
100
AcDbEntity
  8
4
  6
CENTER
100
AcDbLine
 10
610.882076
 20
560.349816
 30
0.0
 11
610.882076
 21
572.349816
 31
0.0
  0
CIRCLE
  5
124D6
330
124A0
100
AcDbEntity
  8
1
  6
Continuous
100
AcDbCircle
 10
610.882076
 20
566.349816
 30
0.0
 40
3.0
  0
CIRCLE
  5
124D7
330
124A0
100
AcDbEntity
  8
1
  6
Continuous
100
AcDbCircle
 10
743.8820759999996
 20
566.349816
 30
0.0
 40
3.0
  0
LINE
  5
124D8
330
124A0
100
AcDbEntity
  8
4
  6
CENTER
100
AcDbLine
 10
743.8820759999996
 20
560.349816
 30
0.0
 11
743.8820759999996
 21
572.349816
 31
0.0
  0
LINE
  5
124D9
330
124A0
100
AcDbEntity
  8
4
  6
CENTER
100
AcDbLine
 10
876.882076
 20
560.349816
 30
0.0
 11
876.882076
 21
572.349816
 31
0.0
  0
CIRCLE
  5
124DA
330
124A0
100
AcDbEntity
  8
1
  6
Continuous
100
AcDbCircle
 10
876.882076
 20
566.349816
 30
0.0
 40
3.0
  0
LINE
  5
124DB
330
124A0
100
AcDbEntity
  8
4
  6
CENTER
100
AcDbLine
 10
861.882076
 20
561.849816
 30
0.0
 11
861.882076
 21
570.849816
 31
0.0
  0
CIRCLE
  5
124DC
330
124A0
100
AcDbEntity
  8
1
  6
Continuous
100
AcDbCircle
 10
861.882076
 20
566.349816
 30
0.0
 40
2.0
  0
LINE
  5
124DD
330
124A0
100
AcDbEntity
  8
1
  6
Continuous
100
AcDbLine
 10
35.4
 20
579.4498160000001
 30
0.0
 11
29.0
 21
579.4498160000001
 31
0.0
  0
LINE
  5
124DE
330
124A0
100
AcDbEntity
  8
1
  6
Continuous
100
AcDbLine
 10
37.0
 20
577.849816
 30
0.0
 11
29.0
 21
577.849816
 31
0.0
  0
LINE
  5
124DF
330
124A0
100
AcDbEntity
  8
1
  6
Continuous
100
AcDbLine
 10
37.0
 20
577.849816
 30
0.0
 11
37.0
 21
554.849816
 31
0.0
  0
LINE
  5
124E0
330
124A0
100
AcDbEntity
  8
1
  6
Continuous
100
AcDbLine
 10
37.0
 20
554.849816
 30
0.0
 11
34.39999999999999
 21
554.849816
 31
0.0
  0
LINE
  5
124E1
330
124A0
100
AcDbEntity
  8
1
  6
Continuous
100
AcDbLine
 10
35.4
 20
553.249816
 30
0.0
 11
34.39999999999999
 21
553.249816
 31
0.0
  0
LINE
  5
124E2
330
124A0
100
AcDbEntity
  8
1
  6
Continuous
100
AcDbLine
 10
29.0
 20
579.4498160000001
 30
0.0
 11
29.0
 21
577.849816
 31
0.0
  0
LINE
  5
124E3
330
124A0
100
AcDbEntity
  8
1
  6
Continuous
100
AcDbLine
 10
35.4
 20
577.849816
 30
0.0
 11
35.4
 21
554.849816
 31
0.0
  0
ARC
  5
124E4
330
124A0
100
AcDbEntity
  8
1
  6
Continuous
100
AcDbCircle
 10
35.4
 20
577.849816
 30
0.0
 40
1.6
100
AcDbArc
 50
0.0
 51
90.0
  0
ARC
  5
124E5
330
124A0
100
AcDbEntity
  8
1
  6
Continuous
100
AcDbCircle
 10
35.4
 20
554.849816
 30
0.0
 40
1.6
100
AcDbArc
 50
270.0
 51
0.0
  0
LINE
  5
124E6
330
124A0
100
AcDbEntity
  8
4
  6
CENTER
100
AcDbLine
 10
32.512867
 20
566.349816
 30
0.0
 11
39.43426999999999
 21
566.349816
 31
0.0
  0
LINE
  5
124E7
330
124A0
100
AcDbEntity
  8
1
  6
Continuous
100
AcDbLine
 10
34.6
 20
576.349816
 30
0.0
 11
34.6
 21
565.599816
 31
0.0
  0
LINE
  5
124E8
330
124A0
100
AcDbEntity
  8
1
  6
Continuous
100
AcDbLine
 10
27.6
 20
576.349816
 30
0.0
 11
27.6
 21
573.4498160000002
 31
0.0
  0
ARC
  5
124E9
330
124A0
100
AcDbEntity
  8
1
  6
Continuous
100
AcDbCircle
 10
34.1
 20
555.349816
 30
0.0
 40
0.5
100
AcDbArc
 50
306.8698979999999
 51
0.0
  0
LINE
  5
124EA
330
124A0
100
AcDbEntity
  8
1
  6
Continuous
100
AcDbLine
 10
26.6
 20
570.099816
 30
0.0
 11
26.6
 21
561.599816
 31
0.0
  0
LINE
  5
124EB
330
124A0
100
AcDbEntity
  8
1
  6
Continuous
100
AcDbLine
 10
27.1
 20
561.099816
 30
0.0
 11
27.1
 21
570.599816
 31
0.0
  0
LINE
  5
124EC
330
124A0
100
AcDbEntity
  8
1
  6
Continuous
100
AcDbLine
 10
27.1
 20
561.099816
 30
0.0
 11
26.6
 21
561.599816
 31
0.0
  0
LINE
  5
124ED
330
124A0
100
AcDbEntity
  8
1
  6
Continuous
100
AcDbLine
 10
27.1
 20
570.599816
 30
0.0
 11
26.6
 21
570.099816
 31
0.0
  0
LINE
  5
124EE
330
124A0
100
AcDbEntity
  8
1
  6
Continuous
100
AcDbLine
 10
27.1
 20
561.099816
 30
0.0
 11
27.4
 21
561.099816
 31
0.0
  0
LINE
  5
124EF
330
124A0
100
AcDbEntity
  8
1
  6
Continuous
100
AcDbLine
 10
27.1
 20
570.599816
 30
0.0
 11
27.4
 21
570.599816
 31
0.0
  0
LINE
  5
124F0
330
124A0
100
AcDbEntity
  8
1
  6
Continuous
100
AcDbLine
 10
34.1
 20
576.849816
 30
0.0
 11
28.1
 21
576.849816
 31
0.0
  0
ARC
  5
124F1
330
124A0
100
AcDbEntity
  8
1
  6
Continuous
100
AcDbCircle
 10
34.1
 20
576.349816
 30
0.0
 40
0.5
100
AcDbArc
 50
0.0
 51
90.0
  0
ARC
  5
124F2
330
124A0
100
AcDbEntity
  8
1
  6
Continuous
100
AcDbCircle
 10
28.1
 20
576.349816
 30
0.0
 40
0.5
100
AcDbArc
 50
90.0
 51
180.0
  0
LINE
  5
124F3
330
124A0
100
AcDbEntity
  8
4
  6
CENTER
100
AcDbLine
 10
39.591998
 20
560.849816
 30
0.0
 11
25.943987
 21
560.849816
 31
0.0
  0
LINE
  5
124F4
330
124A0
100
AcDbEntity
  8
1
  6
Continuous
100
AcDbLine
 10
34.9
 20
556.099816
 30
0.0
 11
34.9
 21
565.599816
 31
0.0
  0
LINE
  5
124F5
330
124A0
100
AcDbEntity
  8
1
  6
Continuous
100
AcDbLine
 10
27.4
 20
571.349816
 30
0.0
 11
27.4
 21
550.349816
 31
0.0
  0
LINE
  5
124F6
330
124A0
100
AcDbEntity
  8
1
  6
Continuous
100
AcDbLine
 10
34.39999999999999
 20
571.349816
 30
0.0
 11
34.39999999999999
 21
550.349816
 31
0.0
  0
ARC
  5
124F7
330
124A0
100
AcDbEntity
  8
1
  6
Continuous
100
AcDbCircle
 10
33.9
 20
550.349816
 30
0.0
 40
0.5
100
AcDbArc
 50
270.0
 51
0.0
  0
LINE
  5
124F8
330
124A0
100
AcDbEntity
  8
1
  6
Continuous
100
AcDbLine
 10
34.9
 20
556.099816
 30
0.0
 11
34.39999999999999
 21
556.099816
 31
0.0
  0
LINE
  5
124F9
330
124A0
100
AcDbEntity
  8
1
  6
Continuous
100
AcDbLine
 10
27.9
 20
549.849816
 30
0.0
 11
33.9
 21
549.849816
 31
0.0
  0
ARC
  5
124FA
330
124A0
100
AcDbEntity
  8
1
  6
Continuous
100
AcDbCircle
 10
27.9
 20
550.349816
 30
0.0
 40
0.5
100
AcDbArc
 50
180.0
 51
270.0
  0
LINE
  5
124FB
330
124A0
100
AcDbEntity
  8
1
  6
Continuous
100
AcDbLine
 10
34.9
 20
556.099816
 30
0.0
 11
35.4
 21
556.599816
 31
0.0
  0
ARC
  5
124FC
330
124A0
100
AcDbEntity
  8
1
  6
Continuous
100
AcDbCircle
 10
33.9
 20
571.349816
 30
0.0
 40
0.5
100
AcDbArc
 50
0.0
 51
90.0
  0
LINE
  5
124FD
330
124A0
100
AcDbEntity
  8
1
  6
Continuous
100
AcDbLine
 10
34.9
 20
565.599816
 30
0.0
 11
34.39999999999999
 21
565.599816
 31
0.0
  0
LINE
  5
124FE
330
124A0
100
AcDbEntity
  8
1
  6
Continuous
100
AcDbLine
 10
26.6
 20
571.849816
 30
0.0
 11
33.9
 21
571.849816
 31
0.0
  0
ARC
  5
124FF
330
124A0
100
AcDbEntity
  8
1
  6
Continuous
100
AcDbCircle
 10
27.9
 20
571.349816
 30
0.0
 40
0.5
100
AcDbArc
 50
90.0
 51
180.0
  0
LINE
  5
12500
330
124A0
100
AcDbEntity
  8
1
  6
Continuous
100
AcDbLine
 10
34.9
 20
565.599816
 30
0.0
 11
35.4
 21
565.099816
 31
0.0
  0
LINE
  5
12501
330
124A0
100
AcDbEntity
  8
1
  6
Continuous
100
AcDbLine
 10
37.7
 20
564.499816
 30
0.0
 11
37.7
 21
557.199816
 31
0.0
  0
LINE
  5
12502
330
124A0
100
AcDbEntity
  8
1
  6
Continuous
100
AcDbLine
 10
37.7
 20
564.499816
 30
0.0
 11
37.0
 21
563.7998159999997
 31
0.0
  0
LINE
  5
12503
330
124A0
100
AcDbEntity
  8
1
  6
Continuous
100
AcDbLine
 10
37.7
 20
557.199816
 30
0.0
 11
37.0
 21
557.899816
 31
0.0
  0
LINE
  5
12504
330
124A0
100
AcDbEntity
  8
1
  6
Continuous
100
AcDbLine
 10
25.0
 20
551.849816
 30
0.0
 11
26.6
 21
551.849816
 31
0.0
  0
LINE
  5
12505
330
124A0
100
AcDbEntity
  8
1
  6
Continuous
100
AcDbLine
 10
26.6
 20
573.4498160000002
 30
0.0
 11
33.0
 21
573.4498160000002
 31
0.0
  0
LINE
  5
12506
330
124A0
100
AcDbEntity
  8
1
  6
Continuous
100
AcDbLine
 10
25.0
 20
571.849816
 30
0.0
 11
25.0
 21
551.849816
 31
0.0
  0
LINE
  5
12507
330
124A0
100
AcDbEntity
  8
1
  6
Continuous
100
AcDbLine
 10
26.6
 20
571.849816
 30
0.0
 11
26.6
 21
551.849816
 31
0.0
  0
LINE
  5
12508
330
124A0
100
AcDbEntity
  8
4
  6
CENTER
100
AcDbLine
 10
22.36147799999999
 20
561.849816
 30
0.0
 11
29.28288099999999
 21
561.849816
 31
0.0
  0
LINE
  5
12509
330
124A0
100
AcDbEntity
  8
1
  6
Continuous
100
AcDbLine
 10
33.0
 20
573.4498160000002
 30
0.0
 11
33.0
 21
571.849816
 31
0.0
  0
ARC
  5
1250A
330
124A0
100
AcDbEntity
  8
1
  6
Continuous
100
AcDbCircle
 10
26.6
 20
571.849816
 30
0.0
 40
1.6
100
AcDbArc
 50
90.0
 51
180.0
  0
LINE
  5
1250B
330
124A0
100
AcDbEntity
  8
4
  6
CENTER
100
AcDbLine
 10
22.36147799999999
 20
565.849816
 30
0.0
 11
36.169351
 21
565.849816
 31
0.0
  0
LINE
  5
1250C
330
124A0
100
AcDbEntity
  8
1
  6
Continuous
100
AcDbLine
 10
24.3
 20
569.4998159999999
 30
0.0
 11
24.3
 21
562.199816
 31
0.0
  0
LINE
  5
1250D
330
124A0
100
AcDbEntity
  8
1
  6
Continuous
100
AcDbLine
 10
24.3
 20
569.4998159999999
 30
0.0
 11
25.0
 21
568.7998159999997
 31
0.0
  0
LINE
  5
1250E
330
124A0
100
AcDbEntity
  8
1
  6
Continuous
100
AcDbLine
 10
24.3
 20
562.199816
 30
0.0
 11
25.0
 21
562.899816
 31
0.0
  0
LINE
  5
1250F
330
124A0
100
AcDbEntity
  8
1
  6
Continuous
100
AcDbLine
 10
34.6
 20
556.099816
 30
0.0
 11
34.6
 21
555.349816
 31
0.0
  0
LINE
  5
12510
330
124A0
100
AcDbEntity
  8
1
  6
Continuous
100
AcDbLine
 10
27.6
 20
571.849816
 30
0.0
 11
27.6
 21
571.7498159999998
 31
0.0
  0
LINE
  5
12511
330
124A0
100
AcDbEntity
  8
1
  6
Continuous
100
AcDbLine
 10
949.764152
 20
577.849816
 30
0.0
 11
949.764152
 21
554.849816
 31
0.0
  0
LINE
  5
12512
330
124A0
100
AcDbEntity
  8
1
  6
Continuous
100
AcDbLine
 10
951.364152
 20
577.849816
 30
0.0
 11
951.364152
 21
554.849816
 31
0.0
  0
LINE
  5
12513
330
124A0
100
AcDbEntity
  8
1
  6
Continuous
100
AcDbLine
 10
959.3641520000003
 20
571.349816
 30
0.0
 11
959.3641520000003
 21
570.599816
 31
0.0
  0
LINE
  5
12514
330
124A0
100
AcDbEntity
  8
1
  6
Continuous
100
AcDbLine
 10
952.3641519999999
 20
554.949816
 30
0.0
 11
952.3641519999999
 21
554.849816
 31
0.0
  0
LINE
  5
12515
330
124A0
100
AcDbEntity
  8
1
  6
Continuous
100
AcDbLine
 10
960.1641519999999
 20
571.849816
 30
0.0
 11
960.1641519999999
 21
551.849816
 31
0.0
  0
LINE
  5
12516
330
124A0
100
AcDbEntity
  8
1
  6
Continuous
100
AcDbLine
 10
961.7641519999999
 20
571.849816
 30
0.0
 11
961.7641519999999
 21
551.849816
 31
0.0
  0
LINE
  5
12517
330
124A0
100
AcDbEntity
  8
1
  6
Continuous
100
AcDbLine
 10
962.4641519999999
 20
569.4998159999999
 30
0.0
 11
962.4641519999999
 21
562.199816
 31
0.0
  0
LINE
  5
12518
330
124A0
100
AcDbEntity
  8
1
  6
Continuous
100
AcDbLine
 10
959.664152
 20
561.099816
 30
0.0
 11
959.664152
 21
570.599816
 31
0.0
  0
LINE
  5
12519
330
124A0
100
AcDbEntity
  8
1
  6
Continuous
100
AcDbLine
 10
960.1641519999999
 20
570.099816
 30
0.0
 11
960.1641519999999
 21
561.599816
 31
0.0
  0
LINE
  5
1251A
330
124A0
100
AcDbEntity
  8
1
  6
Continuous
100
AcDbLine
 10
952.1641519999999
 20
576.349816
 30
0.0
 11
952.1641519999999
 21
555.349816
 31
0.0
  0
LINE
  5
1251B
330
124A0
100
AcDbEntity
  8
4
  6
CENTER
100
AcDbLine
 10
964.4026740000001
 20
561.849816
 30
0.0
 11
957.4812709999999
 21
561.849816
 31
0.0
  0
LINE
  5
1251C
330
124A0
100
AcDbEntity
  8
1
  6
Continuous
100
AcDbLine
 10
958.8641519999999
 20
549.849816
 30
0.0
 11
952.864152
 21
549.849816
 31
0.0
  0
LINE
  5
1251D
330
124A0
100
AcDbEntity
  8
4
  6
CENTER
100
AcDbLine
 10
964.4026740000001
 20
565.849816
 30
0.0
 11
950.5948009999999
 21
565.849816
 31
0.0
  0
LINE
  5
1251E
330
124A0
100
AcDbEntity
  8
4
  6
CENTER
100
AcDbLine
 10
947.1721539999997
 20
560.849816
 30
0.0
 11
960.820166
 21
560.849816
 31
0.0
  0
ARC
  5
1251F
330
124A0
100
AcDbEntity
  8
1
  6
Continuous
100
AcDbCircle
 10
958.8641519999999
 20
550.349816
 30
0.0
 40
0.5
100
AcDbArc
 50
270.0
 51
0.0
  0
LINE
  5
12520
330
124A0
100
AcDbEntity
  8
1
  6
Continuous
100
AcDbLine
 10
961.7641519999999
 20
551.849816
 30
0.0
 11
960.1641519999999
 21
551.849816
 31
0.0
  0
LINE
  5
12521
330
124A0
100
AcDbEntity
  8
1
  6
Continuous
100
AcDbLine
 10
962.4641519999999
 20
562.199816
 30
0.0
 11
961.7641519999999
 21
562.899816
 31
0.0
  0
LINE
  5
12522
330
124A0
100
AcDbEntity
  8
1
  6
Continuous
100
AcDbLine
 10
959.664152
 20
561.099816
 30
0.0
 11
960.1641519999999
 21
561.599816
 31
0.0
  0
LINE
  5
12523
330
124A0
100
AcDbEntity
  8
1
  6
Continuous
100
AcDbLine
 10
959.664152
 20
561.099816
 30
0.0
 11
959.1641519999999
 21
561.099816
 31
0.0
  0
ARC
  5
12524
330
124A0
100
AcDbEntity
  8
1
  6
Continuous
100
AcDbCircle
 10
951.364152
 20
554.849816
 30
0.0
 40
1.6
100
AcDbArc
 50
180.0
 51
270.0
  0
LINE
  5
12525
330
124A0
100
AcDbEntity
  8
1
  6
Continuous
100
AcDbLine
 10
951.864152
 20
556.099816
 30
0.0
 11
951.864152
 21
565.599816
 31
0.0
  0
ARC
  5
12526
330
124A0
100
AcDbEntity
  8
1
  6
Continuous
100
AcDbCircle
 10
952.864152
 20
550.349816
 30
0.0
 40
0.5
100
AcDbArc
 50
180.0
 51
270.0
  0
LINE
  5
12527
330
124A0
100
AcDbEntity
  8
1
  6
Continuous
100
AcDbLine
 10
951.864152
 20
556.099816
 30
0.0
 11
952.1641519999999
 21
556.099816
 31
0.0
  0
LINE
  5
12528
330
124A0
100
AcDbEntity
  8
1
  6
Continuous
100
AcDbLine
 10
951.864152
 20
556.099816
 30
0.0
 11
951.364152
 21
556.599816
 31
0.0
  0
LINE
  5
12529
330
124A0
100
AcDbEntity
  8
1
  6
Continuous
100
AcDbLine
 10
951.864152
 20
565.599816
 30
0.0
 11
952.1641519999999
 21
565.599816
 31
0.0
  0
LINE
  5
1252A
330
124A0
100
AcDbEntity
  8
1
  6
Continuous
100
AcDbLine
 10
951.864152
 20
565.599816
 30
0.0
 11
951.364152
 21
565.099816
 31
0.0
  0
LINE
  5
1252B
330
124A0
100
AcDbEntity
  8
1
  6
Continuous
100
AcDbLine
 10
951.364152
 20
554.849816
 30
0.0
 11
958.6641519999997
 21
554.849816
 31
0.0
  0
LINE
  5
1252C
330
124A0
100
AcDbEntity
  8
1
  6
Continuous
100
AcDbLine
 10
951.364152
 20
553.249816
 30
0.0
 11
957.764152
 21
553.249816
 31
0.0
  0
LINE
  5
1252D
330
124A0
100
AcDbEntity
  8
1
  6
Continuous
100
AcDbLine
 10
949.0641519999996
 20
564.499816
 30
0.0
 11
949.764152
 21
563.7998159999997
 31
0.0
  0
LINE
  5
1252E
330
124A0
100
AcDbEntity
  8
1
  6
Continuous
100
AcDbLine
 10
949.0641519999996
 20
557.199816
 30
0.0
 11
949.764152
 21
557.899816
 31
0.0
  0
LINE
  5
1252F
330
124A0
100
AcDbEntity
  8
1
  6
Continuous
100
AcDbLine
 10
949.0641519999996
 20
564.499816
 30
0.0
 11
949.0641519999996
 21
557.199816
 31
0.0
  0
LINE
  5
12530
330
124A0
100
AcDbEntity
  8
1
  6
Continuous
100
AcDbLine
 10
961.7641519999999
 20
571.849816
 30
0.0
 11
959.1641519999999
 21
571.849816
 31
0.0
  0
LINE
  5
12531
330
124A0
100
AcDbEntity
  8
1
  6
Continuous
100
AcDbLine
 10
960.1641519999999
 20
573.4498160000002
 30
0.0
 11
959.1641519999999
 21
573.4498160000002
 31
0.0
  0
LINE
  5
12532
330
124A0
100
AcDbEntity
  8
1
  6
Continuous
100
AcDbLine
 10
952.664152
 20
576.849816
 30
0.0
 11
958.6641519999997
 21
576.849816
 31
0.0
  0
ARC
  5
12533
330
124A0
100
AcDbEntity
  8
1
  6
Continuous
100
AcDbCircle
 10
958.8641519999999
 20
571.349816
 30
0.0
 40
0.5
100
AcDbArc
 50
0.0
 51
53.130102
  0
ARC
  5
12534
330
124A0
100
AcDbEntity
  8
1
  6
Continuous
100
AcDbCircle
 10
960.1641519999999
 20
571.849816
 30
0.0
 40
1.6
100
AcDbArc
 50
0.0
 51
90.0
  0
LINE
  5
12535
330
124A0
100
AcDbEntity
  8
1
  6
Continuous
100
AcDbLine
 10
962.4641519999999
 20
569.4998159999999
 30
0.0
 11
961.7641519999999
 21
568.7998159999997
 31
0.0
  0
LINE
  5
12536
330
124A0
100
AcDbEntity
  8
1
  6
Continuous
100
AcDbLine
 10
959.664152
 20
570.599816
 30
0.0
 11
960.1641519999999
 21
570.099816
 31
0.0
  0
ARC
  5
12537
330
124A0
100
AcDbEntity
  8
1
  6
Continuous
100
AcDbCircle
 10
958.6641519999997
 20
576.349816
 30
0.0
 40
0.5
100
AcDbArc
 50
0.0
 51
90.0
  0
LINE
  5
12538
330
124A0
100
AcDbEntity
  8
1
  6
Continuous
100
AcDbLine
 10
959.1641519999999
 20
576.349816
 30
0.0
 11
959.1641519999999
 21
555.349816
 31
0.0
  0
LINE
  5
12539
330
124A0
100
AcDbEntity
  8
1
  6
Continuous
100
AcDbLine
 10
959.664152
 20
570.599816
 30
0.0
 11
959.1641519999999
 21
570.599816
 31
0.0
  0
ARC
  5
1253A
330
124A0
100
AcDbEntity
  8
1
  6
Continuous
100
AcDbCircle
 10
951.364152
 20
577.849816
 30
0.0
 40
1.6
100
AcDbArc
 50
90.0
 51
180.0
  0
ARC
  5
1253B
330
124A0
100
AcDbEntity
  8
1
  6
Continuous
100
AcDbCircle
 10
952.664152
 20
576.349816
 30
0.0
 40
0.5
100
AcDbArc
 50
90.0
 51
180.0
  0
LINE
  5
1253C
330
124A0
100
AcDbEntity
  8
4
  6
CENTER
100
AcDbLine
 10
954.2512850000001
 20
566.349816
 30
0.0
 11
947.329882
 21
566.349816
 31
0.0
  0
LINE
  5
1253D
330
124A0
100
AcDbEntity
  8
1
  6
Continuous
100
AcDbLine
 10
957.764152
 20
579.4498160000001
 30
0.0
 11
957.764152
 21
577.849816
 31
0.0
  0
LINE
  5
1253E
330
124A0
100
AcDbEntity
  8
1
  6
Continuous
100
AcDbLine
 10
951.364152
 20
579.4498160000001
 30
0.0
 11
957.764152
 21
579.4498160000001
 31
0.0
  0
LINE
  5
1253F
330
124A0
100
AcDbEntity
  8
1
  6
Continuous
100
AcDbLine
 10
951.364152
 20
577.849816
 30
0.0
 11
957.764152
 21
577.849816
 31
0.0
  0
LINE
  5
12540
330
124A0
100
AcDbEntity
  8
1
  6
Continuous
100
AcDbLine
 10
957.764152
 20
553.249816
 30
0.0
 11
957.764152
 21
554.849816
 31
0.0
  0
ARC
  5
12541
330
124A0
100
AcDbEntity
  8
1
  6
Continuous
100
AcDbCircle
 10
952.664152
 20
555.349816
 30
0.0
 40
0.5
100
AcDbArc
 50
180.0
 51
270.0
  0
ARC
  5
12542
330
124A0
100
AcDbEntity
  8
1
  6
Continuous
100
AcDbCircle
 10
958.6641519999997
 20
555.349816
 30
0.0
 40
0.5
100
AcDbArc
 50
270.0
 51
0.0
  0
LINE
  5
12543
330
124A0
100
AcDbEntity
  8
1
  6
Continuous
100
AcDbLine
 10
952.3641519999999
 20
553.249816
 30
0.0
 11
952.3641519999999
 21
550.349816
 31
0.0
  0
LINE
  5
12544
330
124A0
100
AcDbEntity
  8
1
  6
Continuous
100
AcDbLine
 10
959.3641520000003
 20
561.099816
 30
0.0
 11
959.3641520000003
 21
550.349816
 31
0.0
  0
LINE
  5
12545
330
124A0
100
AcDbEntity
  8
1
  6
Continuous
100
AcDbLine
 10
892.882076
 20
667.849816
 30
0.0
 11
498.882076
 21
667.849816
 31
0.0
  0
LINE
  5
12546
330
124A0
100
AcDbEntity
  8
1
  6
Continuous
100
AcDbLine
 10
895.882076
 20
659.849816
 30
0.0
 11
445.882076
 21
659.849816
 31
0.0
  0
LINE
  5
12547
330
124A0
100
AcDbEntity
  8
1
  6
Continuous
100
AcDbLine
 10
445.882076
 20
659.849816
 30
0.0
 11
445.882076
 21
661.4498160000001
 31
0.0
  0
LINE
  5
12548
330
124A0
100
AcDbEntity
  8
1
  6
Continuous
100
AcDbLine
 10
495.882076
 20
659.849816
 30
0.0
 11
495.882076
 21
664.849816
 31
0.0
  0
LINE
  5
12549
330
124A0
100
AcDbEntity
  8
1
  6
Continuous
100
AcDbLine
 10
495.882076
 20
661.4498160000001
 30
0.0
 11
445.882076
 21
661.4498160000001
 31
0.0
  0
ARC
  5
1254A
330
124A0
100
AcDbEntity
  8
1
  6
Continuous
100
AcDbCircle
 10
498.882076
 20
664.849816
 30
0.0
 40
3.0
100
AcDbArc
 50
90.0
 51
180.0
  0
LINE
  5
1254B
330
124A0
100
AcDbEntity
  8
1
  6
Continuous
100
AcDbLine
 10
895.882076
 20
659.849816
 30
0.0
 11
895.882076
 21
664.849816
 31
0.0
  0
ARC
  5
1254C
330
124A0
100
AcDbEntity
  8
1
  6
Continuous
100
AcDbCircle
 10
892.882076
 20
664.849816
 30
0.0
 40
3.0
100
AcDbArc
 50
0.0
 51
90.0
  0
LINE
  5
1254D
330
124A0
100
AcDbEntity
  8
1
  6
Continuous
100
AcDbLine
 10
467.8820759999998
 20
661.4498160000001
 30
0.0
 11
467.8820759999998
 21
663.849816
 31
0.0
  0
LINE
  5
1254E
330
124A0
100
AcDbEntity
  8
4
  6
CENTER
100
AcDbLine
 10
456.882076
 20
673.2695859999997
 30
0.0
 11
456.882076
 21
655.349816
 31
0.0
  0
ARC
  5
1254F
330
124A0
100
AcDbEntity
  8
1
  6
Continuous
100
AcDbCircle
 10
467.3820759999999
 20
662.9498160000001
 30
0.0
 40
0.5
100
AcDbArc
 50
270.0
 51
0.0
  0
LINE
  5
12550
330
124A0
100
AcDbEntity
  8
1
  6
Continuous
100
AcDbLine
 10
467.3820759999999
 20
662.4498160000001
 30
0.0
 11
446.3820759999999
 21
662.4498160000001
 31
0.0
  0
ARC
  5
12551
330
124A0
100
AcDbEntity
  8
1
  6
Continuous
100
AcDbCircle
 10
446.3820759999999
 20
662.9498160000001
 30
0.0
 40
0.5
100
AcDbArc
 50
180.0
 51
270.0
  0
LINE
  5
12552
330
124A0
100
AcDbEntity
  8
1
  6
Continuous
100
AcDbLine
 10
452.132076
 20
661.9498160000001
 30
0.0
 11
452.6320759999999
 21
661.4498160000001
 31
0.0
  0
LINE
  5
12553
330
124A0
100
AcDbEntity
  8
1
  6
Continuous
100
AcDbLine
 10
452.132076
 20
661.9498160000001
 30
0.0
 11
452.132076
 21
662.4498160000001
 31
0.0
  0
LINE
  5
12554
330
124A0
100
AcDbEntity
  8
1
  6
Continuous
100
AcDbLine
 10
461.6320759999998
 20
661.9498160000001
 30
0.0
 11
461.1320759999999
 21
661.4498160000001
 31
0.0
  0
LINE
  5
12555
330
124A0
100
AcDbEntity
  8
1
  6
Continuous
100
AcDbLine
 10
461.6320759999998
 20
661.9498160000001
 30
0.0
 11
461.6320759999998
 21
662.4498160000001
 31
0.0
  0
LINE
  5
12556
330
124A0
100
AcDbEntity
  8
1
  6
Continuous
100
AcDbLine
 10
452.132076
 20
661.9498160000001
 30
0.0
 11
461.6320759999998
 21
661.9498160000001
 31
0.0
  0
LINE
  5
12557
330
124A0
100
AcDbEntity
  8
1
  6
Continuous
100
AcDbLine
 10
460.5320759999998
 20
659.149816
 30
0.0
 11
453.2320759999998
 21
659.149816
 31
0.0
  0
LINE
  5
12558
330
124A0
100
AcDbEntity
  8
1
  6
Continuous
100
AcDbLine
 10
453.2320759999998
 20
659.149816
 30
0.0
 11
453.9320759999998
 21
659.849816
 31
0.0
  0
LINE
  5
12559
330
124A0
100
AcDbEntity
  8
1
  6
Continuous
100
AcDbLine
 10
460.5320759999998
 20
659.149816
 30
0.0
 11
459.832076
 21
659.849816
 31
0.0
  0
LINE
  5
1255A
330
124A0
100
AcDbEntity
  8
1
  6
Continuous
100
AcDbLine
 10
445.882076
 20
662.9498160000001
 30
0.0
 11
445.882076
 21
663.849816
 31
0.0
  0
LINE
  5
1255B
330
124A0
100
AcDbEntity
  8
4
  6
CENTER
100
AcDbLine
 10
465.882076
 20
664.562335
 30
0.0
 11
465.882076
 21
656.562335
 31
0.0
  0
LINE
  5
1255C
330
124A0
100
AcDbEntity
  8
4
  6
CENTER
100
AcDbLine
 10
477.882076
 20
664.562335
 30
0.0
 11
477.882076
 21
656.562335
 31
0.0
  0
LINE
  5
1255D
330
124A0
100
AcDbEntity
  8
4
  6
CENTER
100
AcDbLine
 10
610.882076
 20
664.562335
 30
0.0
 11
610.882076
 21
656.562335
 31
0.0
  0
LINE
  5
1255E
330
124A0
100
AcDbEntity
  8
4
  6
CENTER
100
AcDbLine
 10
743.8820759999996
 20
664.562335
 30
0.0
 11
743.8820759999996
 21
656.562335
 31
0.0
  0
LINE
  5
1255F
330
124A0
100
AcDbEntity
  8
4
  6
CENTER
100
AcDbLine
 10
876.882076
 20
664.562335
 30
0.0
 11
876.882076
 21
656.562335
 31
0.0
  0
LINE
  5
12560
330
124A0
100
AcDbEntity
  8
4
  6
CENTER
100
AcDbLine
 10
861.882076
 20
664.562335
 30
0.0
 11
861.882076
 21
656.562335
 31
0.0
  0
LINE
  5
12561
330
124A0
100
AcDbEntity
  8
1
  6
Continuous
100
AcDbLine
 10
495.882076
 20
752.249816
 30
0.0
 11
895.882076
 21
752.249816
 31
0.0
  0
LINE
  5
12562
330
124A0
100
AcDbEntity
  8
3
  6
DASHED
100
AcDbLine
 10
467.8820759999998
 20
778.449816
 30
0.0
 11
540.419792
 21
778.449816
 31
0.0
  0
LINE
  5
12563
330
124A0
100
AcDbEntity
  8
4
  6
CENTER
100
AcDbLine
 10
85.882076
 20
769.849816
 30
0.0
 11
545.882076
 21
769.849816
 31
0.0
  0
LINE
  5
12564
330
124A0
100
AcDbEntity
  8
4
  6
CENTER
100
AcDbLine
 10
440.882076
 20
765.349816
 30
0.0
 11
900.882076
 21
765.349816
 31
0.0
  0
LINE
  5
12565
330
124A0
100
AcDbEntity
  8
3
  6
DASHED
100
AcDbLine
 10
445.882076
 20
776.849816
 30
0.0
 11
445.882076
 21
758.249816
 31
0.0
  0
LINE
  5
12566
330
124A0
100
AcDbEntity
  8
4
  6
CENTER
100
AcDbLine
 10
743.8820759999996
 20
771.349816
 30
0.0
 11
743.8820759999996
 21
759.349816
 31
0.0
  0
LINE
  5
12567
330
124A0
100
AcDbEntity
  8
4
  6
CENTER
100
AcDbLine
 10
610.882076
 20
771.349816
 30
0.0
 11
610.882076
 21
759.349816
 31
0.0
  0
LINE
  5
12568
330
124A0
100
AcDbEntity
  8
4
  6
CENTER
100
AcDbLine
 10
477.882076
 20
771.349816
 30
0.0
 11
477.882076
 21
759.349816
 31
0.0
  0
LINE
  5
12569
330
124A0
100
AcDbEntity
  8
4
  6
CENTER
100
AcDbLine
 10
465.882076
 20
761.349816
 30
0.0
 11
465.882076
 21
769.349816
 31
0.0
  0
LINE
  5
1256A
330
124A0
100
AcDbEntity
  8
4
  6
CENTER
100
AcDbLine
 10
456.882076
 20
756.849816
 30
0.0
 11
456.882076
 21
784.849816
 31
0.0
  0
ARC
  5
1256B
330
124A0
100
AcDbEntity
  8
1
  6
Continuous
100
AcDbCircle
 10
456.882076
 20
770.849816
 30
0.0
 40
11.0
100
AcDbArc
 50
54.903199
 51
125.096801
  0
LINE
  5
1256C
330
124A0
100
AcDbEntity
  8
4
  6
CENTER
100
AcDbLine
 10
470.882076
 20
770.849816
 30
0.0
 11
442.8820759999998
 21
770.849816
 31
0.0
  0
ARC
  5
1256D
330
124A0
100
AcDbEntity
  8
1
  6
Continuous
100
AcDbCircle
 10
448.882076
 20
756.849816
 30
0.0
 40
3.0
100
AcDbArc
 50
180.0
 51
270.0
  0
LINE
  5
1256E
330
124A0
100
AcDbEntity
  8
1
  6
Continuous
100
AcDbLine
 10
495.882076
 20
753.849816
 30
0.0
 11
495.882076
 21
752.249816
 31
0.0
  0
LINE
  5
1256F
330
124A0
100
AcDbEntity
  8
1
  6
Continuous
100
AcDbLine
 10
895.882076
 20
778.449816
 30
0.0
 11
895.882076
 21
752.249816
 31
0.0
  0
LINE
  5
12570
330
124A0
100
AcDbEntity
  8
4
  6
CENTER
100
AcDbLine
 10
861.882076
 20
769.849816
 30
0.0
 11
861.882076
 21
760.849816
 31
0.0
  0
LINE
  5
12571
330
124A0
100
AcDbEntity
  8
4
  6
CENTER
100
AcDbLine
 10
876.882076
 20
771.349816
 30
0.0
 11
876.882076
 21
759.349816
 31
0.0
  0
LINE
  5
12572
330
124A0
100
AcDbEntity
  8
1
  6
Continuous
100
AcDbLine
 10
448.882076
 20
753.849816
 30
0.0
 11
895.882076
 21
753.849816
 31
0.0
  0
LINE
  5
12573
330
124A0
100
AcDbEntity
  8
1
  6
Continuous
100
AcDbLine
 10
93.88207599999999
 20
779.849816
 30
0.0
 11
537.8820759999999
 21
779.849816
 31
0.0
  0
ARC
  5
12574
330
124A0
100
AcDbEntity
  8
1
  6
Continuous
100
AcDbCircle
 10
93.88207599999999
 20
776.849816
 30
0.0
 40
3.0
100
AcDbArc
 50
90.0
 51
180.0
  0
LINE
  5
12575
330
124A0
100
AcDbEntity
  8
1
  6
Continuous
100
AcDbLine
 10
90.882076
 20
776.849816
 30
0.0
 11
90.882076
 21
758.249816
 31
0.0
  0
LINE
  5
12576
330
124A0
100
AcDbEntity
  8
1
  6
Continuous
100
AcDbLine
 10
90.882076
 20
758.249816
 30
0.0
 11
459.8820759999998
 21
758.249816
 31
0.0
  0
LINE
  5
12577
330
124A0
100
AcDbEntity
  8
1
  6
Continuous
100
AcDbLine
 10
459.8820759999998
 20
760.249816
 30
0.0
 11
473.882076
 21
760.249816
 31
0.0
  0
LINE
  5
12578
330
124A0
100
AcDbEntity
  8
1
  6
Continuous
100
AcDbLine
 10
459.8820759999998
 20
758.249816
 30
0.0
 11
459.8820759999998
 21
760.249816
 31
0.0
  0
LINE
  5
12579
330
124A0
100
AcDbEntity
  8
1
  6
Continuous
100
AcDbLine
 10
460.7056059999998
 20
760.249816
 30
0.0
 11
459.8820759999998
 21
759.849816
 31
0.0
  0
LINE
  5
1257A
330
124A0
100
AcDbEntity
  8
1
  6
Continuous
100
AcDbLine
 10
463.999723
 20
760.249816
 30
0.0
 11
459.8820759999998
 21
758.249816
 31
0.0
  0
LINE
  5
1257B
330
124A0
100
AcDbEntity
  8
1
  6
Continuous
100
AcDbLine
 10
473.882076
 20
758.249816
 30
0.0
 11
473.882076
 21
760.249816
 31
0.0
  0
LINE
  5
1257C
330
124A0
100
AcDbEntity
  8
1
  6
Continuous
100
AcDbLine
 10
473.058547
 20
760.249816
 30
0.0
 11
473.882076
 21
759.849816
 31
0.0
  0
LINE
  5
1257D
330
124A0
100
AcDbEntity
  8
1
  6
Continuous
100
AcDbLine
 10
469.764429
 20
760.249816
 30
0.0
 11
473.882076
 21
758.249816
 31
0.0
  0
LINE
  5
1257E
330
124A0
100
AcDbEntity
  8
1
  6
Continuous
100
AcDbLine
 10
473.882076
 20
758.249816
 30
0.0
 11
518.8820759999998
 21
758.249816
 31
0.0
  0
LINE
  5
1257F
330
124A0
100
AcDbEntity
  8
1
  6
Continuous
100
AcDbLine
 10
518.8820759999998
 20
759.849816
 30
0.0
 11
537.8820759999999
 21
759.849816
 31
0.0
  0
LINE
  5
12580
330
124A0
100
AcDbEntity
  8
1
  6
Continuous
100
AcDbLine
 10
518.8820759999998
 20
759.849816
 30
0.0
 11
518.8820759999998
 21
758.249816
 31
0.0
  0
ARC
  5
12581
330
124A0
100
AcDbEntity
  8
1
  6
Continuous
100
AcDbCircle
 10
537.8820759999999
 20
762.849816
 30
0.0
 40
3.0
100
AcDbArc
 50
270.0
 51
0.0
  0
ARC
  5
12582
330
124A0
100
AcDbEntity
  8
1
  6
Continuous
100
AcDbCircle
 10
537.8820759999999
 20
776.849816
 30
0.0
 40
3.0
100
AcDbArc
 50
0.0
 51
90.0
  0
ARC
  5
12583
330
124A0
100
AcDbEntity
  8
1
  6
Continuous
100
AcDbCircle
 10
529.8820759999999
 20
765.849816
 30
0.0
 40
11.0
100
AcDbArc
 50
213.0557309999999
 51
329.2484979999999
  0
CIRCLE
  5
12584
330
124A0
100
AcDbEntity
  8
1
  6
Continuous
100
AcDbCircle
 10
529.8820759999999
 20
765.849816
 30
0.0
 40
3.649999999999999
  0
LINE
  5
12585
330
124A0
100
AcDbEntity
  8
4
  6
CENTER
100
AcDbLine
 10
516.1179279999998
 20
765.849816
 30
0.0
 11
543.8024429999997
 21
765.849816
 31
0.0
  0
LINE
  5
12586
330
124A0
100
AcDbEntity
  8
4
  6
CENTER
100
AcDbLine
 10
529.8820759999999
 20
775.5502759999997
 30
0.0
 11
529.8820759999999
 21
756.149356
 31
0.0
  0
CIRCLE
  5
12587
330
124A0
100
AcDbEntity
  8
1
  6
Continuous
100
AcDbCircle
 10
520.882076
 20
769.849816
 30
0.0
 40
2.0
  0
LINE
  5
12588
330
124A0
100
AcDbEntity
  8
4
  6
CENTER
100
AcDbLine
 10
520.882076
 20
774.349816
 30
0.0
 11
520.882076
 21
765.349816
 31
0.0
  0
LINE
  5
12589
330
124A0
100
AcDbEntity
  8
4
  6
CENTER
100
AcDbLine
 10
508.8820759999999
 20
775.849816
 30
0.0
 11
508.8820759999999
 21
763.849816
 31
0.0
  0
CIRCLE
  5
1258A
330
124A0
100
AcDbEntity
  8
1
  6
Continuous
100
AcDbCircle
 10
508.8820759999999
 20
769.849816
 30
0.0
 40
3.0
  0
LINE
  5
1258B
330
124A0
100
AcDbEntity
  8
4
  6
CENTER
100
AcDbLine
 10
375.8820759999999
 20
775.849816
 30
0.0
 11
375.8820759999999
 21
763.849816
 31
0.0
  0
CIRCLE
  5
1258C
330
124A0
100
AcDbEntity
  8
1
  6
Continuous
100
AcDbCircle
 10
375.8820759999999
 20
769.849816
 30
0.0
 40
3.0
  0
LINE
  5
1258D
330
124A0
100
AcDbEntity
  8
4
  6
CENTER
100
AcDbLine
 10
242.8820759999999
 20
775.849816
 30
0.0
 11
242.8820759999999
 21
763.849816
 31
0.0
  0
CIRCLE
  5
1258E
330
124A0
100
AcDbEntity
  8
1
  6
Continuous
100
AcDbCircle
 10
242.8820759999999
 20
769.849816
 30
0.0
 40
3.0
  0
CIRCLE
  5
1258F
330
124A0
100
AcDbEntity
  8
1
  6
Continuous
100
AcDbCircle
 10
109.8820759999999
 20
769.849816
 30
0.0
 40
3.0
  0
LINE
  5
12590
330
124A0
100
AcDbEntity
  8
4
  6
CENTER
100
AcDbLine
 10
109.8820759999999
 20
775.849816
 30
0.0
 11
109.8820759999999
 21
763.849816
 31
0.0
  0
CIRCLE
  5
12591
330
124A0
100
AcDbEntity
  8
1
  6
Continuous
100
AcDbCircle
 10
124.882076
 20
769.849816
 30
0.0
 40
2.0
  0
LINE
  5
12592
330
124A0
100
AcDbEntity
  8
4
  6
CENTER
100
AcDbLine
 10
124.882076
 20
765.849816
 30
0.0
 11
124.882076
 21
773.849816
 31
0.0
  0
LINE
  5
12593
330
124A0
100
AcDbEntity
  8
1
  6
Continuous
100
AcDbLine
 10
540.882076
 20
776.849816
 30
0.0
 11
540.882076
 21
762.849816
 31
0.0
  0
LINE
  5
12594
330
124A0
100
AcDbEntity
  8
1
  6
Continuous
100
AcDbLine
 10
90.882076
 20
573.4498160000002
 30
0.0
 11
445.882076
 21
573.4498160000002
 31
0.0
  0
LINE
  5
12595
330
124A0
100
AcDbEntity
  8
1
  6
Continuous
100
AcDbLine
 10
93.88207599999999
 20
551.849816
 30
0.0
 11
450.5575209999998
 21
551.849816
 31
0.0
  0
CIRCLE
  5
12596
330
124A0
100
AcDbEntity
  8
1
  6
Continuous
100
AcDbCircle
 10
124.882076
 20
561.849816
 30
0.0
 40
2.0
  0
LINE
  5
12597
330
124A0
100
AcDbEntity
  8
1
  6
Continuous
100
AcDbLine
 10
90.882076
 20
554.849816
 30
0.0
 11
90.882076
 21
573.4498160000002
 31
0.0
  0
LINE
  5
12598
330
124A0
100
AcDbEntity
  8
4
  6
CENTER
100
AcDbLine
 10
124.882076
 20
565.849816
 30
0.0
 11
124.882076
 21
557.849816
 31
0.0
  0
ARC
  5
12599
330
124A0
100
AcDbEntity
  8
1
  6
Continuous
100
AcDbCircle
 10
93.88207599999999
 20
554.849816
 30
0.0
 40
3.0
100
AcDbArc
 50
180.0
 51
270.0
  0
CIRCLE
  5
1259A
330
124A0
100
AcDbEntity
  8
1
  6
Continuous
100
AcDbCircle
 10
109.8820759999999
 20
561.849816
 30
0.0
 40
3.0
  0
LINE
  5
1259B
330
124A0
100
AcDbEntity
  8
4
  6
CENTER
100
AcDbLine
 10
109.8820759999999
 20
555.849816
 30
0.0
 11
109.8820759999999
 21
567.849816
 31
0.0
  0
CIRCLE
  5
1259C
330
124A0
100
AcDbEntity
  8
1
  6
Continuous
100
AcDbCircle
 10
242.8820759999999
 20
561.849816
 30
0.0
 40
3.0
  0
LINE
  5
1259D
330
124A0
100
AcDbEntity
  8
4
  6
CENTER
100
AcDbLine
 10
242.8820759999999
 20
555.849816
 30
0.0
 11
242.8820759999999
 21
567.849816
 31
0.0
  0
CIRCLE
  5
1259E
330
124A0
100
AcDbEntity
  8
1
  6
Continuous
100
AcDbCircle
 10
375.8820759999999
 20
561.849816
 30
0.0
 40
3.0
  0
LINE
  5
1259F
330
124A0
100
AcDbEntity
  8
4
  6
CENTER
100
AcDbLine
 10
375.8820759999999
 20
555.849816
 30
0.0
 11
375.8820759999999
 21
567.849816
 31
0.0
  0
CIRCLE
  5
125A0
330
124A0
100
AcDbEntity
  8
1
  6
Continuous
100
AcDbCircle
 10
109.8820759999999
 20
561.849816
 30
0.0
 40
4.299999999999998
  0
CIRCLE
  5
125A1
330
124A0
100
AcDbEntity
  8
1
  6
Continuous
100
AcDbCircle
 10
242.8820759999999
 20
561.849816
 30
0.0
 40
4.299999999999998
  0
CIRCLE
  5
125A2
330
124A0
100
AcDbEntity
  8
1
  6
Continuous
100
AcDbCircle
 10
375.8820759999999
 20
561.849816
 30
0.0
 40
4.299999999999998
  0
LINE
  5
125A3
330
124A0
100
AcDbEntity
  8
1
  6
Continuous
100
AcDbLine
 10
90.882076
 20
571.849816
 30
0.0
 11
445.882076
 21
571.849816
 31
0.0
  0
LINE
  5
125A4
330
124A0
100
AcDbEntity
  8
1
  6
Continuous
100
AcDbLine
 10
445.882076
 20
758.249816
 30
0.0
 11
445.882076
 21
756.849816
 31
0.0
  0
LINE
  5
125A5
330
124A0
100
AcDbEntity
  8
3
  6
DASHED
100
AcDbLine
 10
467.8820759999998
 20
778.449816
 30
0.0
 11
467.8820759999998
 21
776.849816
 31
0.0
  0
LINE
  5
125A6
330
124A0
100
AcDbEntity
  8
3
  6
DASHED
100
AcDbLine
 10
445.882076
 20
776.849816
 30
0.0
 11
540.882076
 21
776.849816
 31
0.0
  0
LINE
  5
125A7
330
124A0
100
AcDbEntity
  8
1
  6
Continuous
100
AcDbLine
 10
540.419792
 20
778.449816
 30
0.0
 11
895.882076
 21
778.449816
 31
0.0
  0
LINE
  5
125A8
330
124A0
100
AcDbEntity
  8
1
  6
Continuous
100
AcDbLine
 10
540.882076
 20
776.849816
 30
0.0
 11
895.882076
 21
776.849816
 31
0.0
  0
CIRCLE
  5
125A9
330
124A0
100
AcDbEntity
  8
1
  6
Continuous
100
AcDbCircle
 10
861.882076
 20
765.349816
 30
0.0
 40
2.0
  0
CIRCLE
  5
125AA
330
124A0
100
AcDbEntity
  8
1
  6
Continuous
100
AcDbCircle
 10
876.882076
 20
765.349816
 30
0.0
 40
3.0
  0
CIRCLE
  5
125AB
330
124A0
100
AcDbEntity
  8
1
  6
Continuous
100
AcDbCircle
 10
876.882076
 20
765.349816
 30
0.0
 40
4.299999999999998
  0
CIRCLE
  5
125AC
330
124A0
100
AcDbEntity
  8
1
  6
Continuous
100
AcDbCircle
 10
743.8820759999996
 20
765.349816
 30
0.0
 40
4.299999999999998
  0
CIRCLE
  5
125AD
330
124A0
100
AcDbEntity
  8
1
  6
Continuous
100
AcDbCircle
 10
743.8820759999996
 20
765.349816
 30
0.0
 40
3.0
  0
CIRCLE
  5
125AE
330
124A0
100
AcDbEntity
  8
1
  6
Continuous
100
AcDbCircle
 10
610.882076
 20
765.349816
 30
0.0
 40
3.0
  0
CIRCLE
  5
125AF
330
124A0
100
AcDbEntity
  8
1
  6
Continuous
100
AcDbCircle
 10
610.882076
 20
765.349816
 30
0.0
 40
4.299999999999998
  0
LINE
  5
125B0
330
124A0
100
AcDbEntity
  8
1
  6
Continuous
100
AcDbLine
 10
540.882076
 20
671.849816
 30
0.0
 11
90.882076
 21
671.849816
 31
0.0
  0
LINE
  5
125B1
330
124A0
100
AcDbEntity
  8
1
  6
Continuous
100
AcDbLine
 10
540.882076
 20
670.249816
 30
0.0
 11
518.8820759999998
 21
670.249816
 31
0.0
  0
LINE
  5
125B2
330
124A0
100
AcDbEntity
  8
1
  6
Continuous
100
AcDbLine
 10
540.882076
 20
670.249816
 30
0.0
 11
540.882076
 21
671.849816
 31
0.0
  0
LINE
  5
125B3
330
124A0
100
AcDbEntity
  8
1
  6
Continuous
100
AcDbLine
 10
540.382076
 20
669.249816
 30
0.0
 11
519.382076
 21
669.249816
 31
0.0
  0
ARC
  5
125B4
330
124A0
100
AcDbEntity
  8
1
  6
Continuous
100
AcDbCircle
 10
540.382076
 20
668.749816
 30
0.0
 40
0.5
100
AcDbArc
 50
0.0
 51
90.0
  0
LINE
  5
125B5
330
124A0
100
AcDbEntity
  8
1
  6
Continuous
100
AcDbLine
 10
540.882076
 20
667.849816
 30
0.0
 11
540.882076
 21
668.749816
 31
0.0
  0
LINE
  5
125B6
330
124A0
100
AcDbEntity
  8
3
  6
DASHED
100
AcDbLine
 10
518.8820759999998
 20
666.849816
 30
0.0
 11
518.8820759999998
 21
667.849816
 31
0.0
  0
ARC
  5
125B7
330
124A0
100
AcDbEntity
  8
1
  6
Continuous
100
AcDbCircle
 10
519.382076
 20
668.749816
 30
0.0
 40
0.5
100
AcDbArc
 50
90.0
 51
180.0
  0
LINE
  5
125B8
330
124A0
100
AcDbEntity
  8
4
  6
CENTER
100
AcDbLine
 10
520.882076
 20
675.046399
 30
0.0
 11
520.882076
 21
667.046399
 31
0.0
  0
LINE
  5
125B9
330
124A0
100
AcDbEntity
  8
4
  6
CENTER
100
AcDbLine
 10
508.8820759999999
 20
675.046399
 30
0.0
 11
508.8820759999999
 21
667.046399
 31
0.0
  0
LINE
  5
125BA
330
124A0
100
AcDbEntity
  8
4
  6
CENTER
100
AcDbLine
 10
529.8820759999999
 20
658.395608
 30
0.0
 11
529.8820759999999
 21
676.349816
 31
0.0
  0
LINE
  5
125BB
330
124A0
100
AcDbEntity
  8
1
  6
Continuous
100
AcDbLine
 10
525.1320759999998
 20
669.749816
 30
0.0
 11
525.1320759999998
 21
669.249816
 31
0.0
  0
LINE
  5
125BC
330
124A0
100
AcDbEntity
  8
1
  6
Continuous
100
AcDbLine
 10
534.632076
 20
669.749816
 30
0.0
 11
534.632076
 21
669.249816
 31
0.0
  0
LINE
  5
125BD
330
124A0
100
AcDbEntity
  8
1
  6
Continuous
100
AcDbLine
 10
533.532076
 20
672.5498159999999
 30
0.0
 11
532.832076
 21
671.849816
 31
0.0
  0
LINE
  5
125BE
330
124A0
100
AcDbEntity
  8
1
  6
Continuous
100
AcDbLine
 10
526.232076
 20
672.5498159999999
 30
0.0
 11
526.9320759999999
 21
671.849816
 31
0.0
  0
LINE
  5
125BF
330
124A0
100
AcDbEntity
  8
1
  6
Continuous
100
AcDbLine
 10
533.532076
 20
672.5498159999999
 30
0.0
 11
526.232076
 21
672.5498159999999
 31
0.0
  0
LINE
  5
125C0
330
124A0
100
AcDbEntity
  8
1
  6
Continuous
100
AcDbLine
 10
525.1320759999998
 20
669.749816
 30
0.0
 11
534.632076
 21
669.749816
 31
0.0
  0
LINE
  5
125C1
330
124A0
100
AcDbEntity
  8
1
  6
Continuous
100
AcDbLine
 10
525.1320759999998
 20
669.749816
 30
0.0
 11
525.632076
 21
670.249816
 31
0.0
  0
LINE
  5
125C2
330
124A0
100
AcDbEntity
  8
1
  6
Continuous
100
AcDbLine
 10
534.632076
 20
669.749816
 30
0.0
 11
534.132076
 21
670.249816
 31
0.0
  0
LINE
  5
125C3
330
124A0
100
AcDbEntity
  8
1
  6
Continuous
100
AcDbLine
 10
466.882076
 20
669.849816
 30
0.0
 11
466.882076
 21
663.849816
 31
0.0
  0
LINE
  5
125C4
330
124A0
100
AcDbEntity
  8
1
  6
Continuous
100
AcDbLine
 10
459.8820759999998
 20
663.849816
 30
0.0
 11
459.8820759999998
 21
671.849816
 31
0.0
  0
LINE
  5
125C5
330
124A0
100
AcDbEntity
  8
1
  6
Continuous
100
AcDbLine
 10
473.882076
 20
663.849816
 30
0.0
 11
473.882076
 21
671.849816
 31
0.0
  0
LINE
  5
125C6
330
124A0
100
AcDbEntity
  8
4
  6
CENTER
100
AcDbLine
 10
466.882076
 20
663.296925
 30
0.0
 11
466.882076
 21
674.8831199999997
 31
0.0
  0
LINE
  5
125C7
330
124A0
100
AcDbEntity
  8
1
  6
Continuous
100
AcDbLine
 10
473.882076
 20
669.849816
 30
0.0
 11
459.8820759999998
 21
669.849816
 31
0.0
  0
LINE
  5
125C8
330
124A0
100
AcDbEntity
  8
1
  6
Continuous
100
AcDbLine
 10
473.882076
 20
670.249816
 30
0.0
 11
459.8820759999998
 21
670.249816
 31
0.0
  0
LINE
  5
125C9
330
124A0
100
AcDbEntity
  8
4
  6
CENTER
100
AcDbLine
 10
375.8820759999999
 20
675.046399
 30
0.0
 11
375.8820759999999
 21
667.046399
 31
0.0
  0
LINE
  5
125CA
330
124A0
100
AcDbEntity
  8
4
  6
CENTER
100
AcDbLine
 10
242.8820759999999
 20
675.046399
 30
0.0
 11
242.8820759999999
 21
667.046399
 31
0.0
  0
LINE
  5
125CB
330
124A0
100
AcDbEntity
  8
4
  6
CENTER
100
AcDbLine
 10
109.8820759999999
 20
675.046399
 30
0.0
 11
109.8820759999999
 21
667.046399
 31
0.0
  0
LINE
  5
125CC
330
124A0
100
AcDbEntity
  8
4
  6
CENTER
100
AcDbLine
 10
124.882076
 20
675.046399
 30
0.0
 11
124.882076
 21
667.046399
 31
0.0
  0
LINE
  5
125CD
330
124A0
100
AcDbEntity
  8
3
  6
DASHED
100
AcDbLine
 10
515.882076
 20
663.849816
 30
0.0
 11
495.882076
 21
663.849816
 31
0.0
  0
ARC
  5
125CE
330
124A0
100
AcDbEntity
  8
1
  6
Continuous
100
AcDbCircle
 10
93.88207599999999
 20
666.849816
 30
0.0
 40
3.0
100
AcDbArc
 50
180.0
 51
270.0
  0
LINE
  5
125CF
330
124A0
100
AcDbEntity
  8
1
  6
Continuous
100
AcDbLine
 10
90.882076
 20
666.849816
 30
0.0
 11
90.882076
 21
671.849816
 31
0.0
  0
ARC
  5
125D0
330
124A0
100
AcDbEntity
  8
3
  6
DASHED
100
AcDbCircle
 10
515.882076
 20
666.849816
 30
0.0
 40
3.0
100
AcDbArc
 50
270.0
 51
0.0
  0
LINE
  5
125D1
330
124A0
100
AcDbEntity
  8
1
  6
Continuous
100
AcDbLine
 10
518.8820759999998
 20
667.849816
 30
0.0
 11
518.8820759999998
 21
671.849816
 31
0.0
  0
LINE
  5
125D2
330
124A0
100
AcDbEntity
  8
1
  6
Continuous
100
AcDbLine
 10
495.882076
 20
663.849816
 30
0.0
 11
93.88207599999999
 21
663.849816
 31
0.0
  0
LINE
  5
125D3
330
124A0
100
AcDbEntity
  8
4
  6
CENTER
100
AcDbLine
 10
466.882076
 20
755.430289
 30
0.0
 11
466.882076
 21
764.095005
 31
0.0
  0
LINE
  5
125D4
330
124A0
100
AcDbEntity
  8
1
  6
Continuous
100
AcDbLine
 10
445.882076
 20
557.849816
 30
0.0
 11
445.882076
 21
574.849816
 31
0.0
  0
LINE
  5
125D5
330
124A0
100
AcDbEntity
  8
3
  6
DASHED
100
AcDbLine
 10
473.882076
 20
573.4498160000002
 30
0.0
 11
518.8820759999998
 21
573.4498160000002
 31
0.0
  0
LINE
  5
125D6
330
124A0
100
AcDbEntity
  8
3
  6
DASHED
100
AcDbLine
 10
459.8820759999998
 20
571.4498160000001
 30
0.0
 11
460.7056059999998
 21
571.4498160000001
 31
0.0
  0
LINE
  5
125D7
330
124A0
100
AcDbEntity
  8
3
  6
DASHED
100
AcDbLine
 10
459.8820759999998
 20
571.849816
 30
0.0
 11
459.8820759999998
 21
571.4498160000001
 31
0.0
  0
LINE
  5
125D8
330
124A0
100
AcDbEntity
  8
3
  6
DASHED
100
AcDbLine
 10
466.882076
 20
568.4498160000003
 30
0.0
 11
459.8820759999998
 21
571.849816
 31
0.0
  0
LINE
  5
125D9
330
124A0
100
AcDbEntity
  8
3
  6
DASHED
100
AcDbLine
 10
466.882076
 20
570.0498159999997
 30
0.0
 11
459.8820759999998
 21
573.4498160000002
 31
0.0
  0
LINE
  5
125DA
330
124A0
100
AcDbEntity
  8
3
  6
DASHED
100
AcDbLine
 10
473.882076
 20
571.849816
 30
0.0
 11
473.882076
 21
571.4498160000001
 31
0.0
  0
LINE
  5
125DB
330
124A0
100
AcDbEntity
  8
3
  6
DASHED
100
AcDbLine
 10
466.882076
 20
568.4498160000003
 30
0.0
 11
473.882076
 21
571.849816
 31
0.0
  0
LINE
  5
125DC
330
124A0
100
AcDbEntity
  8
3
  6
DASHED
100
AcDbLine
 10
466.882076
 20
570.0498159999997
 30
0.0
 11
473.882076
 21
573.4498160000002
 31
0.0
  0
LINE
  5
125DD
330
124A0
100
AcDbEntity
  8
3
  6
DASHED
100
AcDbLine
 10
518.8820759999998
 20
571.849816
 30
0.0
 11
518.8820759999998
 21
573.4498160000002
 31
0.0
  0
ARC
  5
125DE
330
124A0
100
AcDbEntity
  8
3
  6
DASHED
100
AcDbCircle
 10
537.8820759999999
 20
568.849816
 30
0.0
 40
3.0
100
AcDbArc
 50
0.0
 51
61.024143
  0
LINE
  5
125DF
330
124A0
100
AcDbEntity
  8
3
  6
DASHED
100
AcDbLine
 10
540.882076
 20
554.849816
 30
0.0
 11
540.882076
 21
568.849816
 31
0.0
  0
LINE
  5
125E0
330
124A0
100
AcDbEntity
  8
1
  6
Continuous
100
AcDbLine
 10
463.2066309999998
 20
551.849816
 30
0.0
 11
537.8820759999999
 21
551.849816
 31
0.0
  0
ARC
  5
125E1
330
124A0
100
AcDbEntity
  8
1
  6
Continuous
100
AcDbCircle
 10
537.8820759999999
 20
554.849816
 30
0.0
 40
3.0
100
AcDbArc
 50
270.0
 51
327.769047
  0
ARC
  5
125E2
330
124A0
100
AcDbEntity
  8
3
  6
DASHED
100
AcDbCircle
 10
537.8820759999999
 20
554.849816
 30
0.0
 40
3.0
100
AcDbArc
 50
327.769047
 51
0.0
  0
CIRCLE
  5
125E3
330
124A0
100
AcDbEntity
  8
3
  6
DASHED
100
AcDbCircle
 10
529.8820759999999
 20
565.849816
 30
0.0
 40
11.0
  0
LINE
  5
125E4
330
124A0
100
AcDbEntity
  8
3
  6
DASHED
100
AcDbLine
 10
445.882076
 20
573.4498160000002
 30
0.0
 11
459.8820759999998
 21
573.4498160000002
 31
0.0
  0
LINE
  5
125E5
330
124A0
100
AcDbEntity
  8
3
  6
DASHED
100
AcDbLine
 10
473.058547
 20
571.4498160000001
 30
0.0
 11
473.882076
 21
571.4498160000001
 31
0.0
  0
LINE
  5
125E6
330
124A0
100
AcDbEntity
  8
3
  6
DASHED
100
AcDbLine
 10
463.999723
 20
571.4498160000001
 30
0.0
 11
469.764429
 21
571.4498160000001
 31
0.0
  0
LINE
  5
125E7
330
124A0
100
AcDbEntity
  8
3
  6
DASHED
100
AcDbLine
 10
445.882076
 20
571.849816
 30
0.0
 11
459.8820759999998
 21
571.849816
 31
0.0
  0
LINE
  5
125E8
330
124A0
100
AcDbEntity
  8
3
  6
DASHED
100
AcDbLine
 10
473.882076
 20
571.849816
 30
0.0
 11
520.662532
 21
571.849816
 31
0.0
  0
LINE
  5
125E9
330
124A0
100
AcDbEntity
  8
4
  6
CENTER
100
AcDbLine
 10
529.8820759999999
 20
551.849816
 30
0.0
 11
529.8820759999999
 21
579.849816
 31
0.0
  0
LINE
  5
125EA
330
124A0
100
AcDbEntity
  8
1
  6
Continuous
100
AcDbLine
 10
895.882076
 20
471.4498159999997
 30
0.0
 11
445.882076
 21
471.4498159999997
 31
0.0
  0
LINE
  5
125EB
330
124A0
100
AcDbEntity
  8
1
  6
Continuous
100
AcDbLine
 10
892.882076
 20
463.4498159999998
 30
0.0
 11
470.882076
 21
463.4498159999998
 31
0.0
  0
LINE
  5
125EC
330
124A0
100
AcDbEntity
  8
1
  6
Continuous
100
AcDbLine
 10
445.882076
 20
467.4498159999997
 30
0.0
 11
93.88207599999999
 21
467.4498159999997
 31
0.0
  0
LINE
  5
125ED
330
124A0
100
AcDbEntity
  8
1
  6
Continuous
100
AcDbLine
 10
540.882076
 20
459.4498159999998
 30
0.0
 11
90.882076
 21
459.4498159999998
 31
0.0
  0
LINE
  5
125EE
330
124A0
100
AcDbEntity
  8
1
  6
Continuous
100
AcDbLine
 10
90.882076
 20
464.449816
 30
0.0
 11
90.882076
 21
459.4498159999998
 31
0.0
  0
ARC
  5
125EF
330
124A0
100
AcDbEntity
  8
1
  6
Continuous
100
AcDbCircle
 10
93.88207599999999
 20
464.449816
 30
0.0
 40
3.0
100
AcDbArc
 50
90.0
 51
180.0
  0
LINE
  5
125F0
330
124A0
100
AcDbEntity
  8
4
  6
CENTER
100
AcDbLine
 10
124.882076
 20
456.253233
 30
0.0
 11
124.882076
 21
464.253233
 31
0.0
  0
LINE
  5
125F1
330
124A0
100
AcDbEntity
  8
4
  6
CENTER
100
AcDbLine
 10
109.8820759999999
 20
456.253233
 30
0.0
 11
109.8820759999999
 21
464.253233
 31
0.0
  0
LINE
  5
125F2
330
124A0
100
AcDbEntity
  8
4
  6
CENTER
100
AcDbLine
 10
242.8820759999999
 20
456.253233
 30
0.0
 11
242.8820759999999
 21
464.253233
 31
0.0
  0
LINE
  5
125F3
330
124A0
100
AcDbEntity
  8
3
  6
DASHED
100
AcDbLine
 10
515.882076
 20
467.4498159999997
 30
0.0
 11
445.882076
 21
467.4498159999997
 31
0.0
  0
LINE
  5
125F4
330
124A0
100
AcDbEntity
  8
1
  6
Continuous
100
AcDbLine
 10
467.3820759999999
 20
468.8498159999999
 30
0.0
 11
446.3820759999999
 21
468.8498159999999
 31
0.0
  0
LINE
  5
125F5
330
124A0
100
AcDbEntity
  8
1
  6
Continuous
100
AcDbLine
 10
467.8820759999998
 20
469.8498159999998
 30
0.0
 11
445.882076
 21
469.8498159999998
 31
0.0
  0
LINE
  5
125F6
330
124A0
100
AcDbEntity
  8
4
  6
CENTER
100
AcDbLine
 10
375.8820759999999
 20
456.253233
 30
0.0
 11
375.8820759999999
 21
464.253233
 31
0.0
  0
LINE
  5
125F7
330
124A0
100
AcDbEntity
  8
1
  6
Continuous
100
AcDbLine
 10
445.882076
 20
468.349816
 30
0.0
 11
445.882076
 21
462.3498159999998
 31
0.0
  0
ARC
  5
125F8
330
124A0
100
AcDbEntity
  8
1
  6
Continuous
100
AcDbCircle
 10
446.3820759999999
 20
468.349816
 30
0.0
 40
0.5
100
AcDbArc
 50
90.0
 51
180.0
  0
LINE
  5
125F9
330
124A0
100
AcDbEntity
  8
1
  6
Continuous
100
AcDbLine
 10
445.882076
 20
471.4498159999997
 30
0.0
 11
445.882076
 21
469.8498159999998
 31
0.0
  0
LINE
  5
125FA
330
124A0
100
AcDbEntity
  8
1
  6
Continuous
100
AcDbLine
 10
466.882076
 20
461.449816
 30
0.0
 11
466.882076
 21
461.8498159999998
 31
0.0
  0
LINE
  5
125FB
330
124A0
100
AcDbEntity
  8
1
  6
Continuous
100
AcDbLine
 10
459.8820759999998
 20
461.8498159999998
 30
0.0
 11
459.8820759999998
 21
461.049816
 31
0.0
  0
LINE
  5
125FC
330
124A0
100
AcDbEntity
  8
3
  6
DASHED
100
AcDbLine
 10
473.882076
 20
467.4498159999997
 30
0.0
 11
473.882076
 21
463.4498159999998
 31
0.0
  0
LINE
  5
125FD
330
124A0
100
AcDbEntity
  8
4
  6
CENTER
100
AcDbLine
 10
466.882076
 20
468.002707
 30
0.0
 11
466.882076
 21
456.416512
 31
0.0
  0
LINE
  5
125FE
330
124A0
100
AcDbEntity
  8
4
  6
CENTER
100
AcDbLine
 10
476.8820759999998
 20
456.253233
 30
0.0
 11
476.8820759999998
 21
464.253233
 31
0.0
  0
LINE
  5
125FF
330
124A0
100
AcDbEntity
  8
4
  6
CENTER
100
AcDbLine
 10
461.882076
 20
456.253233
 30
0.0
 11
461.882076
 21
464.253233
 31
0.0
  0
LINE
  5
12600
330
124A0
100
AcDbEntity
  8
4
  6
CENTER
100
AcDbLine
 10
456.882076
 20
458.030046
 30
0.0
 11
456.882076
 21
475.9498159999998
 31
0.0
  0
LINE
  5
12601
330
124A0
100
AcDbEntity
  8
4
  6
CENTER
100
AcDbLine
 10
465.882076
 20
466.737296
 30
0.0
 11
465.882076
 21
474.7372959999998
 31
0.0
  0
LINE
  5
12602
330
124A0
100
AcDbEntity
  8
1
  6
Continuous
100
AcDbLine
 10
460.5320759999998
 20
472.149816
 30
0.0
 11
459.832076
 21
471.4498159999997
 31
0.0
  0
LINE
  5
12603
330
124A0
100
AcDbEntity
  8
1
  6
Continuous
100
AcDbLine
 10
453.2320759999998
 20
472.149816
 30
0.0
 11
453.9320759999998
 21
471.4498159999997
 31
0.0
  0
LINE
  5
12604
330
124A0
100
AcDbEntity
  8
1
  6
Continuous
100
AcDbLine
 10
460.5320759999998
 20
472.149816
 30
0.0
 11
453.2320759999998
 21
472.149816
 31
0.0
  0
LINE
  5
12605
330
124A0
100
AcDbEntity
  8
1
  6
Continuous
100
AcDbLine
 10
452.132076
 20
469.3498159999998
 30
0.0
 11
461.6320759999998
 21
469.3498159999998
 31
0.0
  0
LINE
  5
12606
330
124A0
100
AcDbEntity
  8
1
  6
Continuous
100
AcDbLine
 10
461.6320759999998
 20
469.3498159999998
 30
0.0
 11
461.6320759999998
 21
468.8498159999999
 31
0.0
  0
LINE
  5
12607
330
124A0
100
AcDbEntity
  8
1
  6
Continuous
100
AcDbLine
 10
461.6320759999998
 20
469.3498159999998
 30
0.0
 11
461.1320759999999
 21
469.8498159999998
 31
0.0
  0
LINE
  5
12608
330
124A0
100
AcDbEntity
  8
1
  6
Continuous
100
AcDbLine
 10
452.132076
 20
469.3498159999998
 30
0.0
 11
452.132076
 21
468.8498159999999
 31
0.0
  0
LINE
  5
12609
330
124A0
100
AcDbEntity
  8
1
  6
Continuous
100
AcDbLine
 10
452.132076
 20
469.3498159999998
 30
0.0
 11
452.6320759999999
 21
469.8498159999998
 31
0.0
  0
ARC
  5
1260A
330
124A0
100
AcDbEntity
  8
1
  6
Continuous
100
AcDbCircle
 10
467.3820759999999
 20
468.349816
 30
0.0
 40
0.5
100
AcDbArc
 50
0.0
 51
90.0
  0
LINE
  5
1260B
330
124A0
100
AcDbEntity
  8
1
  6
Continuous
100
AcDbLine
 10
467.8820759999998
 20
471.4498159999997
 30
0.0
 11
467.8820759999998
 21
462.3498159999998
 31
0.0
  0
LINE
  5
1260C
330
124A0
100
AcDbEntity
  8
4
  6
CENTER
100
AcDbLine
 10
477.882076
 20
466.737296
 30
0.0
 11
477.882076
 21
474.7372959999998
 31
0.0
  0
LINE
  5
1260D
330
124A0
100
AcDbEntity
  8
1
  6
Continuous
100
AcDbLine
 10
473.882076
 20
461.049816
 30
0.0
 11
459.8820759999998
 21
461.049816
 31
0.0
  0
LINE
  5
1260E
330
124A0
100
AcDbEntity
  8
1
  6
Continuous
100
AcDbLine
 10
473.882076
 20
461.449816
 30
0.0
 11
459.8820759999998
 21
461.449816
 31
0.0
  0
LINE
  5
1260F
330
124A0
100
AcDbEntity
  8
1
  6
Continuous
100
AcDbLine
 10
540.882076
 20
461.049816
 30
0.0
 11
90.882076
 21
461.049816
 31
0.0
  0
LINE
  5
12610
330
124A0
100
AcDbEntity
  8
1
  6
Continuous
100
AcDbLine
 10
540.382076
 20
462.049816
 30
0.0
 11
519.382076
 21
462.049816
 31
0.0
  0
LINE
  5
12611
330
124A0
100
AcDbEntity
  8
1
  6
Continuous
100
AcDbLine
 10
518.8820759999998
 20
463.4498159999998
 30
0.0
 11
518.8820759999998
 21
461.049816
 31
0.0
  0
LINE
  5
12612
330
124A0
100
AcDbEntity
  8
4
  6
CENTER
100
AcDbLine
 10
508.8820759999999
 20
456.253233
 30
0.0
 11
508.8820759999999
 21
464.253233
 31
0.0
  0
LINE
  5
12613
330
124A0
100
AcDbEntity
  8
4
  6
CENTER
100
AcDbLine
 10
520.882076
 20
456.253233
 30
0.0
 11
520.882076
 21
464.253233
 31
0.0
  0
LINE
  5
12614
330
124A0
100
AcDbEntity
  8
3
  6
DASHED
100
AcDbLine
 10
518.8820759999998
 20
464.449816
 30
0.0
 11
518.8820759999998
 21
463.4498159999998
 31
0.0
  0
ARC
  5
12615
330
124A0
100
AcDbEntity
  8
3
  6
DASHED
100
AcDbCircle
 10
515.882076
 20
464.449816
 30
0.0
 40
3.0
100
AcDbArc
 50
0.0
 51
90.0
  0
ARC
  5
12616
330
124A0
100
AcDbEntity
  8
1
  6
Continuous
100
AcDbCircle
 10
519.382076
 20
462.549816
 30
0.0
 40
0.5
100
AcDbArc
 50
180.0
 51
270.0
  0
LINE
  5
12617
330
124A0
100
AcDbEntity
  8
1
  6
Continuous
100
AcDbLine
 10
534.632076
 20
461.549816
 30
0.0
 11
534.632076
 21
462.049816
 31
0.0
  0
LINE
  5
12618
330
124A0
100
AcDbEntity
  8
1
  6
Continuous
100
AcDbLine
 10
525.1320759999998
 20
461.549816
 30
0.0
 11
525.1320759999998
 21
462.049816
 31
0.0
  0
LINE
  5
12619
330
124A0
100
AcDbEntity
  8
4
  6
CENTER
100
AcDbLine
 10
529.8820759999999
 20
472.904023
 30
0.0
 11
529.8820759999999
 21
454.9498159999997
 31
0.0
  0
LINE
  5
1261A
330
124A0
100
AcDbEntity
  8
1
  6
Continuous
100
AcDbLine
 10
540.882076
 20
463.4498159999998
 30
0.0
 11
540.882076
 21
462.549816
 31
0.0
  0
ARC
  5
1261B
330
124A0
100
AcDbEntity
  8
1
  6
Continuous
100
AcDbCircle
 10
540.382076
 20
462.549816
 30
0.0
 40
0.5
100
AcDbArc
 50
270.0
 51
0.0
  0
LINE
  5
1261C
330
124A0
100
AcDbEntity
  8
1
  6
Continuous
100
AcDbLine
 10
534.632076
 20
461.549816
 30
0.0
 11
534.132076
 21
461.049816
 31
0.0
  0
LINE
  5
1261D
330
124A0
100
AcDbEntity
  8
1
  6
Continuous
100
AcDbLine
 10
525.1320759999998
 20
461.549816
 30
0.0
 11
525.632076
 21
461.049816
 31
0.0
  0
LINE
  5
1261E
330
124A0
100
AcDbEntity
  8
1
  6
Continuous
100
AcDbLine
 10
525.1320759999998
 20
461.549816
 30
0.0
 11
534.632076
 21
461.549816
 31
0.0
  0
LINE
  5
1261F
330
124A0
100
AcDbEntity
  8
1
  6
Continuous
100
AcDbLine
 10
533.532076
 20
458.7498159999998
 30
0.0
 11
526.232076
 21
458.7498159999998
 31
0.0
  0
LINE
  5
12620
330
124A0
100
AcDbEntity
  8
1
  6
Continuous
100
AcDbLine
 10
526.232076
 20
458.7498159999998
 30
0.0
 11
526.9320759999999
 21
459.4498159999998
 31
0.0
  0
LINE
  5
12621
330
124A0
100
AcDbEntity
  8
1
  6
Continuous
100
AcDbLine
 10
533.532076
 20
458.7498159999998
 30
0.0
 11
532.832076
 21
459.4498159999998
 31
0.0
  0
LINE
  5
12622
330
124A0
100
AcDbEntity
  8
1
  6
Continuous
100
AcDbLine
 10
540.882076
 20
461.049816
 30
0.0
 11
540.882076
 21
459.4498159999998
 31
0.0
  0
LINE
  5
12623
330
124A0
100
AcDbEntity
  8
4
  6
CENTER
100
AcDbLine
 10
610.882076
 20
466.737296
 30
0.0
 11
610.882076
 21
474.7372959999998
 31
0.0
  0
LINE
  5
12624
330
124A0
100
AcDbEntity
  8
4
  6
CENTER
100
AcDbLine
 10
743.8820759999996
 20
466.737296
 30
0.0
 11
743.8820759999996
 21
474.7372959999998
 31
0.0
  0
LINE
  5
12625
330
124A0
100
AcDbEntity
  8
4
  6
CENTER
100
AcDbLine
 10
876.882076
 20
466.737296
 30
0.0
 11
876.882076
 21
474.7372959999998
 31
0.0
  0
LINE
  5
12626
330
124A0
100
AcDbEntity
  8
4
  6
CENTER
100
AcDbLine
 10
861.882076
 20
466.737296
 30
0.0
 11
861.882076
 21
474.7372959999998
 31
0.0
  0
LINE
  5
12627
330
124A0
100
AcDbEntity
  8
1
  6
Continuous
100
AcDbLine
 10
895.882076
 20
471.4498159999997
 30
0.0
 11
895.882076
 21
466.4498159999998
 31
0.0
  0
ARC
  5
12628
330
124A0
100
AcDbEntity
  8
1
  6
Continuous
100
AcDbCircle
 10
892.882076
 20
466.4498159999998
 30
0.0
 40
3.0
100
AcDbArc
 50
270.0
 51
0.0
  0
ARC
  5
12629
330
124A0
100
AcDbEntity
  8
1
  6
Continuous
100
AcDbCircle
 10
470.882076
 20
466.4498159999998
 30
0.0
 40
3.0
100
AcDbArc
 50
180.0
 51
270.0
  0
LINE
  5
1262A
330
124A0
100
AcDbEntity
  8
1
  6
Continuous
100
AcDbLine
 10
473.882076
 20
463.4498159999998
 30
0.0
 11
473.882076
 21
461.049816
 31
0.0
  0
LINE
  5
1262B
330
124A0
100
AcDbEntity
  8
1
  6
Continuous
100
AcDbLine
 10
467.3820759999999
 20
461.8498159999998
 30
0.0
 11
446.3820759999999
 21
461.8498159999998
 31
0.0
  0
ARC
  5
1262C
330
124A0
100
AcDbEntity
  8
1
  6
Continuous
100
AcDbCircle
 10
467.3820759999999
 20
462.3498159999998
 30
0.0
 40
0.5
100
AcDbArc
 50
270.0
 51
0.0
  0
ARC
  5
1262D
330
124A0
100
AcDbEntity
  8
1
  6
Continuous
100
AcDbCircle
 10
446.3820759999999
 20
462.3498159999998
 30
0.0
 40
0.5
100
AcDbArc
 50
180.0
 51
270.0
  0
ARC
  5
1262E
330
124A0
100
AcDbEntity
  8
3
  6
DASHED
100
AcDbCircle
 10
456.882076
 20
770.849816
 30
0.0
 40
11.0
100
AcDbArc
 50
125.096801
 51
54.903199
  0
ARC
  5
1262F
330
124A0
100
AcDbEntity
  8
3
  6
DASHED
100
AcDbCircle
 10
529.8820759999999
 20
765.849816
 30
0.0
 40
11.0
100
AcDbArc
 50
329.2484979999999
 51
213.0557309999999
  0
ARC
  5
12630
330
124A0
100
AcDbEntity
  8
3
  6
DASHED
100
AcDbCircle
 10
456.882076
 20
560.849816
 30
0.0
 40
11.0
100
AcDbArc
 50
326.944269
 51
21.052718
  0
ARC
  5
12631
330
124A0
100
AcDbEntity
  8
3
  6
DASHED
100
AcDbCircle
 10
456.882076
 20
560.849816
 30
0.0
 40
11.0
100
AcDbArc
 50
41.806413
 51
210.751502
  0
LINE
  5
12632
330
124A0
100
AcDbEntity
  8
4
  6
CENTER
100
AcDbLine
 10
520.882076
 20
566.349816
 30
0.0
 11
520.882076
 21
557.349816
 31
0.0
  0
LINE
  5
12633
330
124A0
100
AcDbEntity
  8
4
  6
CENTER
100
AcDbLine
 10
508.8820759999999
 20
567.849816
 30
0.0
 11
508.8820759999999
 21
555.849816
 31
0.0
  0
LINE
  5
12634
330
124A0
100
AcDbEntity
  8
4
  6
CENTER
100
AcDbLine
 10
543.78497
 20
565.849816
 30
0.0
 11
515.78497
 21
565.849816
 31
0.0
  0
LINE
  5
12635
330
124A0
100
AcDbEntity
  8
4
  6
CENTER
100
AcDbLine
 10
84.17394899999996
 20
561.849816
 30
0.0
 11
903.3546460000001
 21
561.849816
 31
0.0
  0
LINE
  5
12636
330
124A0
100
AcDbEntity
  8
1
  6
Continuous
100
AcDbLine
 10
495.882076
 20
334.2999999999999
 30
0.0
 11
895.882076
 21
334.2999999999999
 31
0.0
  0
LINE
  5
12637
330
124A0
100
AcDbEntity
  8
1
  6
Continuous
100
AcDbLine
 10
467.8820759999998
 20
360.4999999999998
 30
0.0
 11
895.882076
 21
360.4999999999998
 31
0.0
  0
LINE
  5
12638
330
124A0
100
AcDbEntity
  8
4
  6
CENTER
100
AcDbLine
 10
440.882076
 20
347.3999999999999
 30
0.0
 11
900.882076
 21
347.3999999999999
 31
0.0
  0
LINE
  5
12639
330
124A0
100
AcDbEntity
  8
4
  6
CENTER
100
AcDbLine
 10
84.17394899999996
 20
351.8999999999999
 30
0.0
 11
546.477576
 21
351.8999999999999
 31
0.0
  0
LINE
  5
1263A
330
124A0
100
AcDbEntity
  8
1
  6
Continuous
100
AcDbLine
 10
540.882076
 20
136.8999999999997
 30
0.0
 11
895.882076
 21
136.8999999999997
 31
0.0
  0
LINE
  5
1263B
330
124A0
100
AcDbEntity
  8
1
  6
Continuous
100
AcDbLine
 10
540.419792
 20
135.3
 30
0.0
 11
895.882076
 21
135.3
 31
0.0
  0
LINE
  5
1263C
330
124A0
100
AcDbEntity
  8
1
  6
Continuous
100
AcDbLine
 10
448.882076
 20
159.9
 30
0.0
 11
895.882076
 21
159.9
 31
0.0
  0
LINE
  5
1263D
330
124A0
100
AcDbEntity
  8
4
  6
CENTER
100
AcDbLine
 10
440.882076
 20
148.3999999999998
 30
0.0
 11
900.882076
 21
148.3999999999998
 31
0.0
  0
LINE
  5
1263E
330
124A0
100
AcDbEntity
  8
1
  6
Continuous
100
AcDbLine
 10
495.882076
 20
161.5
 30
0.0
 11
895.882076
 21
161.5
 31
0.0
  0
LINE
  5
1263F
330
124A0
100
AcDbEntity
  8
1
  6
Continuous
100
AcDbLine
 10
895.882076
 20
253.9
 30
0.0
 11
445.882076
 21
253.9
 31
0.0
  0
LINE
  5
12640
330
124A0
100
AcDbEntity
  8
1
  6
Continuous
100
AcDbLine
 10
892.882076
 20
245.9
 30
0.0
 11
498.882076
 21
245.9
 31
0.0
  0
LINE
  5
12641
330
124A0
100
AcDbEntity
  8
1
  6
Continuous
100
AcDbLine
 10
892.882076
 20
49.5
 30
0.0
 11
470.882076
 21
49.5
 31
0.0
  0
LINE
  5
12642
330
124A0
100
AcDbEntity
  8
1
  6
Continuous
100
AcDbLine
 10
895.882076
 20
41.5
 30
0.0
 11
445.882076
 21
41.5
 31
0.0
  0
LINE
  5
12643
330
124A0
100
AcDbEntity
  8
1
  6
Continuous
100
AcDbLine
 10
90.882076
 20
340.3
 30
0.0
 11
445.882076
 21
340.3
 31
0.0
  0
LINE
  5
12644
330
124A0
100
AcDbEntity
  8
1
  6
Continuous
100
AcDbLine
 10
90.882076
 20
341.9
 30
0.0
 11
445.882076
 21
341.9
 31
0.0
  0
LINE
  5
12645
330
124A0
100
AcDbEntity
  8
1
  6
Continuous
100
AcDbLine
 10
93.88207599999999
 20
361.8999999999999
 30
0.0
 11
450.5575209999998
 21
361.8999999999999
 31
0.0
  0
LINE
  5
12646
330
124A0
100
AcDbEntity
  8
1
  6
Continuous
100
AcDbLine
 10
540.882076
 20
51.9
 30
0.0
 11
90.882076
 21
51.9
 31
0.0
  0
LINE
  5
12647
330
124A0
100
AcDbEntity
  8
1
  6
Continuous
100
AcDbLine
 10
540.882076
 20
53.5
 30
0.0
 11
90.882076
 21
53.5
 31
0.0
  0
LINE
  5
12648
330
124A0
100
AcDbEntity
  8
1
  6
Continuous
100
AcDbLine
 10
445.882076
 20
45.49999999999999
 30
0.0
 11
93.88207599999999
 21
45.49999999999999
 31
0.0
  0
ARC
  5
12649
330
124A0
100
AcDbEntity
  8
1
  6
Continuous
100
AcDbCircle
 10
93.88207599999999
 20
48.5
 30
0.0
 40
3.0
100
AcDbArc
 50
180.0
 51
270.0
  0
LINE
  5
1264A
330
124A0
100
AcDbEntity
  8
1
  6
Continuous
100
AcDbLine
 10
90.882076
 20
48.5
 30
0.0
 11
90.882076
 21
53.5
 31
0.0
  0
LINE
  5
1264B
330
124A0
100
AcDbEntity
  8
4
  6
CENTER
100
AcDbLine
 10
109.8820759999999
 20
56.696583
 30
0.0
 11
109.8820759999999
 21
48.69658300000001
 31
0.0
  0
LINE
  5
1264C
330
124A0
100
AcDbEntity
  8
4
  6
CENTER
100
AcDbLine
 10
124.882076
 20
56.696583
 30
0.0
 11
124.882076
 21
48.69658300000001
 31
0.0
  0
LINE
  5
1264D
330
124A0
100
AcDbEntity
  8
1
  6
Continuous
100
AcDbLine
 10
25.0
 20
159.9
 30
0.0
 11
25.0
 21
136.8999999999997
 31
0.0
  0
LINE
  5
1264E
330
124A0
100
AcDbEntity
  8
1
  6
Continuous
100
AcDbLine
 10
26.6
 20
159.9
 30
0.0
 11
26.6
 21
136.8999999999997
 31
0.0
  0
ARC
  5
1264F
330
124A0
100
AcDbEntity
  8
1
  6
Continuous
100
AcDbCircle
 10
27.9
 20
158.4
 30
0.0
 40
0.5
100
AcDbArc
 50
90.0
 51
180.0
  0
ARC
  5
12650
330
124A0
100
AcDbEntity
  8
1
  6
Continuous
100
AcDbCircle
 10
33.9
 20
158.4
 30
0.0
 40
0.5
100
AcDbArc
 50
0.0
 51
90.0
  0
LINE
  5
12651
330
124A0
100
AcDbEntity
  8
1
  6
Continuous
100
AcDbLine
 10
25.0
 20
136.8999999999997
 30
0.0
 11
27.6
 21
136.8999999999997
 31
0.0
  0
LINE
  5
12652
330
124A0
100
AcDbEntity
  8
1
  6
Continuous
100
AcDbLine
 10
26.6
 20
135.3
 30
0.0
 11
27.6
 21
135.3
 31
0.0
  0
ARC
  5
12653
330
124A0
100
AcDbEntity
  8
1
  6
Continuous
100
AcDbCircle
 10
26.6
 20
136.8999999999997
 30
0.0
 40
1.6
100
AcDbArc
 50
180.0
 51
270.0
  0
LINE
  5
12654
330
124A0
100
AcDbEntity
  8
4
  6
CENTER
100
AcDbLine
 10
29.487133
 20
148.3999999999998
 30
0.0
 11
22.56572999999999
 21
148.3999999999998
 31
0.0
  0
LINE
  5
12655
330
124A0
100
AcDbEntity
  8
1
  6
Continuous
100
AcDbLine
 10
27.4
 20
158.4
 30
0.0
 11
27.4
 21
147.65
 31
0.0
  0
LINE
  5
12656
330
124A0
100
AcDbEntity
  8
1
  6
Continuous
100
AcDbLine
 10
34.39999999999999
 20
158.4
 30
0.0
 11
34.39999999999999
 21
155.4999999999998
 31
0.0
  0
ARC
  5
12657
330
124A0
100
AcDbEntity
  8
1
  6
Continuous
100
AcDbCircle
 10
27.9
 20
137.4
 30
0.0
 40
0.5
100
AcDbArc
 50
180.0
 51
233.130102
  0
LINE
  5
12658
330
124A0
100
AcDbEntity
  8
1
  6
Continuous
100
AcDbLine
 10
35.4
 20
152.15
 30
0.0
 11
35.4
 21
143.65
 31
0.0
  0
LINE
  5
12659
330
124A0
100
AcDbEntity
  8
1
  6
Continuous
100
AcDbLine
 10
34.9
 20
143.1499999999998
 30
0.0
 11
34.9
 21
152.65
 31
0.0
  0
LINE
  5
1265A
330
124A0
100
AcDbEntity
  8
1
  6
Continuous
100
AcDbLine
 10
34.9
 20
143.1499999999998
 30
0.0
 11
35.4
 21
143.65
 31
0.0
  0
LINE
  5
1265B
330
124A0
100
AcDbEntity
  8
1
  6
Continuous
100
AcDbLine
 10
34.9
 20
152.65
 30
0.0
 11
35.4
 21
152.15
 31
0.0
  0
LINE
  5
1265C
330
124A0
100
AcDbEntity
  8
1
  6
Continuous
100
AcDbLine
 10
34.9
 20
143.1499999999998
 30
0.0
 11
34.6
 21
143.1499999999998
 31
0.0
  0
LINE
  5
1265D
330
124A0
100
AcDbEntity
  8
1
  6
Continuous
100
AcDbLine
 10
34.9
 20
152.65
 30
0.0
 11
34.6
 21
152.65
 31
0.0
  0
LINE
  5
1265E
330
124A0
100
AcDbEntity
  8
1
  6
Continuous
100
AcDbLine
 10
27.9
 20
158.9
 30
0.0
 11
33.9
 21
158.9
 31
0.0
  0
LINE
  5
1265F
330
124A0
100
AcDbEntity
  8
4
  6
CENTER
100
AcDbLine
 10
22.408002
 20
142.9
 30
0.0
 11
36.056013
 21
142.9
 31
0.0
  0
LINE
  5
12660
330
124A0
100
AcDbEntity
  8
1
  6
Continuous
100
AcDbLine
 10
27.1
 20
138.15
 30
0.0
 11
27.1
 21
147.65
 31
0.0
  0
LINE
  5
12661
330
124A0
100
AcDbEntity
  8
1
  6
Continuous
100
AcDbLine
 10
27.1
 20
138.15
 30
0.0
 11
27.6
 21
138.15
 31
0.0
  0
LINE
  5
12662
330
124A0
100
AcDbEntity
  8
1
  6
Continuous
100
AcDbLine
 10
27.1
 20
138.15
 30
0.0
 11
26.6
 21
138.65
 31
0.0
  0
ARC
  5
12663
330
124A0
100
AcDbEntity
  8
1
  6
Continuous
100
AcDbCircle
 10
28.1
 20
153.3999999999998
 30
0.0
 40
0.5
100
AcDbArc
 50
90.0
 51
180.0
  0
LINE
  5
12664
330
124A0
100
AcDbEntity
  8
1
  6
Continuous
100
AcDbLine
 10
27.1
 20
147.65
 30
0.0
 11
27.6
 21
147.65
 31
0.0
  0
LINE
  5
12665
330
124A0
100
AcDbEntity
  8
1
  6
Continuous
100
AcDbLine
 10
35.4
 20
153.9
 30
0.0
 11
28.1
 21
153.9
 31
0.0
  0
ARC
  5
12666
330
124A0
100
AcDbEntity
  8
1
  6
Continuous
100
AcDbCircle
 10
34.1
 20
153.3999999999998
 30
0.0
 40
0.5
100
AcDbArc
 50
0.0
 51
90.0
  0
LINE
  5
12667
330
124A0
100
AcDbEntity
  8
1
  6
Continuous
100
AcDbLine
 10
27.1
 20
147.65
 30
0.0
 11
26.6
 21
147.1499999999998
 31
0.0
  0
LINE
  5
12668
330
124A0
100
AcDbEntity
  8
1
  6
Continuous
100
AcDbLine
 10
24.3
 20
146.55
 30
0.0
 11
24.3
 21
139.25
 31
0.0
  0
LINE
  5
12669
330
124A0
100
AcDbEntity
  8
1
  6
Continuous
100
AcDbLine
 10
24.3
 20
146.55
 30
0.0
 11
25.0
 21
145.8499999999999
 31
0.0
  0
LINE
  5
1266A
330
124A0
100
AcDbEntity
  8
1
  6
Continuous
100
AcDbLine
 10
24.3
 20
139.25
 30
0.0
 11
25.0
 21
139.9499999999999
 31
0.0
  0
LINE
  5
1266B
330
124A0
100
AcDbEntity
  8
1
  6
Continuous
100
AcDbLine
 10
37.0
 20
133.9
 30
0.0
 11
35.4
 21
133.9
 31
0.0
  0
LINE
  5
1266C
330
124A0
100
AcDbEntity
  8
1
  6
Continuous
100
AcDbLine
 10
35.4
 20
155.4999999999998
 30
0.0
 11
29.0
 21
155.4999999999998
 31
0.0
  0
LINE
  5
1266D
330
124A0
100
AcDbEntity
  8
1
  6
Continuous
100
AcDbLine
 10
37.0
 20
153.9
 30
0.0
 11
37.0
 21
133.9
 31
0.0
  0
LINE
  5
1266E
330
124A0
100
AcDbEntity
  8
1
  6
Continuous
100
AcDbLine
 10
35.4
 20
153.9
 30
0.0
 11
35.4
 21
133.9
 31
0.0
  0
LINE
  5
1266F
330
124A0
100
AcDbEntity
  8
4
  6
CENTER
100
AcDbLine
 10
39.63852199999998
 20
143.9
 30
0.0
 11
32.71711899999999
 21
143.9
 31
0.0
  0
LINE
  5
12670
330
124A0
100
AcDbEntity
  8
1
  6
Continuous
100
AcDbLine
 10
29.0
 20
155.4999999999998
 30
0.0
 11
29.0
 21
153.9
 31
0.0
  0
ARC
  5
12671
330
124A0
100
AcDbEntity
  8
1
  6
Continuous
100
AcDbCircle
 10
35.4
 20
153.9
 30
0.0
 40
1.6
100
AcDbArc
 50
0.0
 51
90.0
  0
LINE
  5
12672
330
124A0
100
AcDbEntity
  8
4
  6
CENTER
100
AcDbLine
 10
39.63852199999998
 20
147.9
 30
0.0
 11
25.830649
 21
147.9
 31
0.0
  0
LINE
  5
12673
330
124A0
100
AcDbEntity
  8
1
  6
Continuous
100
AcDbLine
 10
37.7
 20
151.55
 30
0.0
 11
37.7
 21
144.25
 31
0.0
  0
LINE
  5
12674
330
124A0
100
AcDbEntity
  8
1
  6
Continuous
100
AcDbLine
 10
37.7
 20
151.55
 30
0.0
 11
37.0
 21
150.8499999999999
 31
0.0
  0
LINE
  5
12675
330
124A0
100
AcDbEntity
  8
1
  6
Continuous
100
AcDbLine
 10
37.7
 20
144.25
 30
0.0
 11
37.0
 21
144.95
 31
0.0
  0
LINE
  5
12676
330
124A0
100
AcDbEntity
  8
1
  6
Continuous
100
AcDbLine
 10
27.4
 20
138.15
 30
0.0
 11
27.4
 21
137.4
 31
0.0
  0
LINE
  5
12677
330
124A0
100
AcDbEntity
  8
1
  6
Continuous
100
AcDbLine
 10
34.39999999999999
 20
153.9
 30
0.0
 11
34.39999999999999
 21
153.8
 31
0.0
  0
ARC
  5
12678
330
124A0
100
AcDbEntity
  8
1
  6
Continuous
100
AcDbCircle
 10
28.1
 20
132.4
 30
0.0
 40
0.5
100
AcDbArc
 50
180.0
 51
270.0
  0
LINE
  5
12679
330
124A0
100
AcDbEntity
  8
1
  6
Continuous
100
AcDbLine
 10
34.1
 20
131.9
 30
0.0
 11
28.1
 21
131.9
 31
0.0
  0
ARC
  5
1267A
330
124A0
100
AcDbEntity
  8
1
  6
Continuous
100
AcDbCircle
 10
34.1
 20
132.4
 30
0.0
 40
0.5
100
AcDbArc
 50
270.0
 51
0.0
  0
LINE
  5
1267B
330
124A0
100
AcDbEntity
  8
1
  6
Continuous
100
AcDbLine
 10
34.6
 20
153.3999999999998
 30
0.0
 11
34.6
 21
132.4
 31
0.0
  0
LINE
  5
1267C
330
124A0
100
AcDbEntity
  8
1
  6
Continuous
100
AcDbLine
 10
27.6
 20
153.3999999999998
 30
0.0
 11
27.6
 21
132.4
 31
0.0
  0
LINE
  5
1267D
330
124A0
100
AcDbEntity
  8
1
  6
Continuous
100
AcDbLine
 10
26.6
 20
161.5
 30
0.0
 11
33.0
 21
161.5
 31
0.0
  0
LINE
  5
1267E
330
124A0
100
AcDbEntity
  8
1
  6
Continuous
100
AcDbLine
 10
25.0
 20
159.9
 30
0.0
 11
33.0
 21
159.9
 31
0.0
  0
LINE
  5
1267F
330
124A0
100
AcDbEntity
  8
1
  6
Continuous
100
AcDbLine
 10
33.0
 20
161.5
 30
0.0
 11
33.0
 21
159.9
 31
0.0
  0
ARC
  5
12680
330
124A0
100
AcDbEntity
  8
1
  6
Continuous
100
AcDbCircle
 10
26.6
 20
159.9
 30
0.0
 40
1.6
100
AcDbArc
 50
90.0
 51
180.0
  0
LINE
  5
12681
330
124A0
100
AcDbEntity
  8
1
  6
Continuous
100
AcDbLine
 10
90.882076
 20
358.8999999999999
 30
0.0
 11
90.882076
 21
340.3
 31
0.0
  0
ARC
  5
12682
330
124A0
100
AcDbEntity
  8
1
  6
Continuous
100
AcDbCircle
 10
93.88207599999999
 20
358.8999999999999
 30
0.0
 40
3.0
100
AcDbArc
 50
90.0
 51
180.0
  0
CIRCLE
  5
12683
330
124A0
100
AcDbEntity
  8
1
  6
Continuous
100
AcDbCircle
 10
124.882076
 20
351.8999999999999
 30
0.0
 40
2.0
  0
CIRCLE
  5
12684
330
124A0
100
AcDbEntity
  8
1
  6
Continuous
100
AcDbCircle
 10
109.8820759999999
 20
351.8999999999999
 30
0.0
 40
3.0
  0
LINE
  5
12685
330
124A0
100
AcDbEntity
  8
4
  6
CENTER
100
AcDbLine
 10
109.8820759999999
 20
357.8999999999999
 30
0.0
 11
109.8820759999999
 21
345.8999999999999
 31
0.0
  0
CIRCLE
  5
12686
330
124A0
100
AcDbEntity
  8
1
  6
Continuous
100
AcDbCircle
 10
109.8820759999999
 20
351.8999999999999
 30
0.0
 40
4.299999999999998
  0
LINE
  5
12687
330
124A0
100
AcDbEntity
  8
4
  6
CENTER
100
AcDbLine
 10
124.882076
 20
347.8999999999999
 30
0.0
 11
124.882076
 21
355.8999999999999
 31
0.0
  0
LINE
  5
12688
330
124A0
100
AcDbEntity
  8
4
  6
CENTER
100
AcDbLine
 10
242.8820759999999
 20
56.696583
 30
0.0
 11
242.8820759999999
 21
48.69658300000001
 31
0.0
  0
CIRCLE
  5
12689
330
124A0
100
AcDbEntity
  8
1
  6
Continuous
100
AcDbCircle
 10
242.8820759999999
 20
351.8999999999999
 30
0.0
 40
3.0
  0
CIRCLE
  5
1268A
330
124A0
100
AcDbEntity
  8
1
  6
Continuous
100
AcDbCircle
 10
242.8820759999999
 20
351.8999999999999
 30
0.0
 40
4.299999999999998
  0
LINE
  5
1268B
330
124A0
100
AcDbEntity
  8
4
  6
CENTER
100
AcDbLine
 10
242.8820759999999
 20
357.8999999999999
 30
0.0
 11
242.8820759999999
 21
345.8999999999999
 31
0.0
  0
LINE
  5
1268C
330
124A0
100
AcDbEntity
  8
3
  6
DASHED
100
AcDbLine
 10
473.882076
 20
340.3
 30
0.0
 11
521.9297179999998
 21
340.3
 31
0.0
  0
LINE
  5
1268D
330
124A0
100
AcDbEntity
  8
1
  6
Continuous
100
AcDbLine
 10
463.2066309999998
 20
361.8999999999999
 30
0.0
 11
537.8820759999999
 21
361.8999999999999
 31
0.0
  0
LINE
  5
1268E
330
124A0
100
AcDbEntity
  8
3
  6
DASHED
100
AcDbLine
 10
473.882076
 20
341.9
 30
0.0
 11
518.8820759999998
 21
341.9
 31
0.0
  0
LINE
  5
1268F
330
124A0
100
AcDbEntity
  8
3
  6
DASHED
100
AcDbLine
 10
515.882076
 20
45.49999999999999
 30
0.0
 11
445.882076
 21
45.49999999999999
 31
0.0
  0
LINE
  5
12690
330
124A0
100
AcDbEntity
  8
4
  6
CENTER
100
AcDbLine
 10
477.882076
 20
46.21251899999999
 30
0.0
 11
477.882076
 21
38.212519
 31
0.0
  0
LINE
  5
12691
330
124A0
100
AcDbEntity
  8
1
  6
Continuous
100
AcDbLine
 10
467.8820759999998
 20
41.5
 30
0.0
 11
467.8820759999998
 21
50.6
 31
0.0
  0
LINE
  5
12692
330
124A0
100
AcDbEntity
  8
4
  6
CENTER
100
AcDbLine
 10
465.882076
 20
46.21251899999999
 30
0.0
 11
465.882076
 21
38.212519
 31
0.0
  0
LINE
  5
12693
330
124A0
100
AcDbEntity
  8
4
  6
CENTER
100
AcDbLine
 10
456.882076
 20
54.91976999999999
 30
0.0
 11
456.882076
 21
37.0
 31
0.0
  0
LINE
  5
12694
330
124A0
100
AcDbEntity
  8
1
  6
Continuous
100
AcDbLine
 10
445.882076
 20
44.59999999999999
 30
0.0
 11
445.882076
 21
50.6
 31
0.0
  0
LINE
  5
12695
330
124A0
100
AcDbEntity
  8
1
  6
Continuous
100
AcDbLine
 10
467.3820759999999
 20
51.1
 30
0.0
 11
446.3820759999999
 21
51.1
 31
0.0
  0
LINE
  5
12696
330
124A0
100
AcDbEntity
  8
4
  6
CENTER
100
AcDbLine
 10
375.8820759999999
 20
56.696583
 30
0.0
 11
375.8820759999999
 21
48.69658300000001
 31
0.0
  0
ARC
  5
12697
330
124A0
100
AcDbEntity
  8
1
  6
Continuous
100
AcDbCircle
 10
446.3820759999999
 20
50.6
 30
0.0
 40
0.5
100
AcDbArc
 50
90.0
 51
180.0
  0
ARC
  5
12698
330
124A0
100
AcDbEntity
  8
1
  6
Continuous
100
AcDbCircle
 10
467.3820759999999
 20
50.6
 30
0.0
 40
0.5
100
AcDbArc
 50
0.0
 51
90.0
  0
LINE
  5
12699
330
124A0
100
AcDbEntity
  8
1
  6
Continuous
100
AcDbLine
 10
473.882076
 20
49.5
 30
0.0
 11
473.882076
 21
51.9
 31
0.0
  0
ARC
  5
1269A
330
124A0
100
AcDbEntity
  8
1
  6
Continuous
100
AcDbCircle
 10
470.882076
 20
46.5
 30
0.0
 40
3.0
100
AcDbArc
 50
90.0
 51
180.0
  0
LINE
  5
1269B
330
124A0
100
AcDbEntity
  8
1
  6
Continuous
100
AcDbLine
 10
473.882076
 20
51.5
 30
0.0
 11
459.8820759999998
 21
51.5
 31
0.0
  0
LINE
  5
1269C
330
124A0
100
AcDbEntity
  8
1
  6
Continuous
100
AcDbLine
 10
473.882076
 20
51.9
 30
0.0
 11
459.8820759999998
 21
51.9
 31
0.0
  0
LINE
  5
1269D
330
124A0
100
AcDbEntity
  8
4
  6
CENTER
100
AcDbLine
 10
461.882076
 20
56.696583
 30
0.0
 11
461.882076
 21
48.69658300000001
 31
0.0
  0
LINE
  5
1269E
330
124A0
100
AcDbEntity
  8
4
  6
CENTER
100
AcDbLine
 10
466.882076
 20
44.947109
 30
0.0
 11
466.882076
 21
56.533304
 31
0.0
  0
LINE
  5
1269F
330
124A0
100
AcDbEntity
  8
3
  6
DASHED
100
AcDbLine
 10
473.882076
 20
45.49999999999999
 30
0.0
 11
473.882076
 21
49.5
 31
0.0
  0
LINE
  5
126A0
330
124A0
100
AcDbEntity
  8
1
  6
Continuous
100
AcDbLine
 10
459.8820759999998
 20
51.1
 30
0.0
 11
459.8820759999998
 21
51.9
 31
0.0
  0
LINE
  5
126A1
330
124A0
100
AcDbEntity
  8
1
  6
Continuous
100
AcDbLine
 10
466.882076
 20
51.5
 30
0.0
 11
466.882076
 21
51.1
 31
0.0
  0
LINE
  5
126A2
330
124A0
100
AcDbEntity
  8
4
  6
CENTER
100
AcDbLine
 10
476.8820759999998
 20
56.696583
 30
0.0
 11
476.8820759999998
 21
48.69658300000001
 31
0.0
  0
LINE
  5
126A3
330
124A0
100
AcDbEntity
  8
1
  6
Continuous
100
AcDbLine
 10
467.8820759999998
 20
43.1
 30
0.0
 11
445.882076
 21
43.1
 31
0.0
  0
LINE
  5
126A4
330
124A0
100
AcDbEntity
  8
1
  6
Continuous
100
AcDbLine
 10
467.3820759999999
 20
44.1
 30
0.0
 11
446.3820759999999
 21
44.1
 31
0.0
  0
LINE
  5
126A5
330
124A0
100
AcDbEntity
  8
1
  6
Continuous
100
AcDbLine
 10
445.882076
 20
41.5
 30
0.0
 11
445.882076
 21
43.1
 31
0.0
  0
ARC
  5
126A6
330
124A0
100
AcDbEntity
  8
1
  6
Continuous
100
AcDbCircle
 10
446.3820759999999
 20
44.59999999999999
 30
0.0
 40
0.5
100
AcDbArc
 50
180.0
 51
270.0
  0
ARC
  5
126A7
330
124A0
100
AcDbEntity
  8
1
  6
Continuous
100
AcDbCircle
 10
467.3820759999999
 20
44.59999999999999
 30
0.0
 40
0.5
100
AcDbArc
 50
270.0
 51
0.0
  0
LINE
  5
126A8
330
124A0
100
AcDbEntity
  8
1
  6
Continuous
100
AcDbLine
 10
452.132076
 20
43.6
 30
0.0
 11
452.6320759999999
 21
43.1
 31
0.0
  0
LINE
  5
126A9
330
124A0
100
AcDbEntity
  8
1
  6
Continuous
100
AcDbLine
 10
452.132076
 20
43.6
 30
0.0
 11
452.132076
 21
44.1
 31
0.0
  0
LINE
  5
126AA
330
124A0
100
AcDbEntity
  8
1
  6
Continuous
100
AcDbLine
 10
461.6320759999998
 20
43.6
 30
0.0
 11
461.1320759999999
 21
43.1
 31
0.0
  0
LINE
  5
126AB
330
124A0
100
AcDbEntity
  8
1
  6
Continuous
100
AcDbLine
 10
461.6320759999998
 20
43.6
 30
0.0
 11
461.6320759999998
 21
44.1
 31
0.0
  0
LINE
  5
126AC
330
124A0
100
AcDbEntity
  8
1
  6
Continuous
100
AcDbLine
 10
452.132076
 20
43.6
 30
0.0
 11
461.6320759999998
 21
43.6
 31
0.0
  0
LINE
  5
126AD
330
124A0
100
AcDbEntity
  8
1
  6
Continuous
100
AcDbLine
 10
460.5320759999998
 20
40.8
 30
0.0
 11
453.2320759999998
 21
40.8
 31
0.0
  0
LINE
  5
126AE
330
124A0
100
AcDbEntity
  8
1
  6
Continuous
100
AcDbLine
 10
453.2320759999998
 20
40.8
 30
0.0
 11
453.9320759999998
 21
41.5
 31
0.0
  0
LINE
  5
126AF
330
124A0
100
AcDbEntity
  8
1
  6
Continuous
100
AcDbLine
 10
460.5320759999998
 20
40.8
 30
0.0
 11
459.832076
 21
41.5
 31
0.0
  0
ARC
  5
126B0
330
124A0
100
AcDbEntity
  8
1
  6
Continuous
100
AcDbCircle
 10
448.882076
 20
338.8999999999999
 30
0.0
 40
3.0
100
AcDbArc
 50
180.0
 51
270.0
  0
ARC
  5
126B1
330
124A0
100
AcDbEntity
  8
1
  6
Continuous
100
AcDbCircle
 10
448.882076
 20
355.8999999999999
 30
0.0
 40
3.0
100
AcDbArc
 50
90.0
 51
180.0
  0
LINE
  5
126B2
330
124A0
100
AcDbEntity
  8
4
  6
CENTER
100
AcDbLine
 10
470.882076
 20
352.8999999999999
 30
0.0
 11
442.8820759999998
 21
352.8999999999999
 31
0.0
  0
LINE
  5
126B3
330
124A0
100
AcDbEntity
  8
3
  6
DASHED
100
AcDbLine
 10
445.882076
 20
340.3
 30
0.0
 11
459.8820759999998
 21
340.3
 31
0.0
  0
LINE
  5
126B4
330
124A0
100
AcDbEntity
  8
3
  6
DASHED
100
AcDbLine
 10
445.882076
 20
341.9
 30
0.0
 11
459.8820759999998
 21
341.9
 31
0.0
  0
ARC
  5
126B5
330
124A0
100
AcDbEntity
  8
3
  6
DASHED
100
AcDbCircle
 10
456.882076
 20
352.8999999999999
 30
0.0
 40
11.0
100
AcDbArc
 50
149.248498
 51
318.1935870000001
  0
ARC
  5
126B6
330
124A0
100
AcDbEntity
  8
1
  6
Continuous
100
AcDbCircle
 10
456.882076
 20
352.8999999999999
 30
0.0
 40
11.0
100
AcDbArc
 50
33.055731
 51
149.248498
  0
CIRCLE
  5
126B7
330
124A0
100
AcDbEntity
  8
1
  6
Continuous
100
AcDbCircle
 10
375.8820759999999
 20
351.8999999999999
 30
0.0
 40
3.0
  0
LINE
  5
126B8
330
124A0
100
AcDbEntity
  8
4
  6
CENTER
100
AcDbLine
 10
375.8820759999999
 20
357.8999999999999
 30
0.0
 11
375.8820759999999
 21
345.8999999999999
 31
0.0
  0
CIRCLE
  5
126B9
330
124A0
100
AcDbEntity
  8
1
  6
Continuous
100
AcDbCircle
 10
375.8820759999999
 20
351.8999999999999
 30
0.0
 40
4.299999999999998
  0
LINE
  5
126BA
330
124A0
100
AcDbEntity
  8
1
  6
Continuous
100
AcDbLine
 10
445.882076
 20
355.8999999999999
 30
0.0
 11
445.882076
 21
338.8999999999999
 31
0.0
  0
CIRCLE
  5
126BB
330
124A0
100
AcDbEntity
  8
1
  6
Continuous
100
AcDbCircle
 10
477.882076
 20
347.3999999999999
 30
0.0
 40
3.0
  0
LINE
  5
126BC
330
124A0
100
AcDbEntity
  8
1
  6
Continuous
100
AcDbLine
 10
448.882076
 20
358.8999999999999
 30
0.0
 11
467.8820759999998
 21
358.8999999999999
 31
0.0
  0
LINE
  5
126BD
330
124A0
100
AcDbEntity
  8
1
  6
Continuous
100
AcDbLine
 10
467.8820759999998
 20
360.4999999999998
 30
0.0
 11
467.8820759999998
 21
358.8999999999999
 31
0.0
  0
CIRCLE
  5
126BE
330
124A0
100
AcDbEntity
  8
1
  6
Continuous
100
AcDbCircle
 10
465.882076
 20
347.3999999999999
 30
0.0
 40
2.0
  0
ARC
  5
126BF
330
124A0
100
AcDbEntity
  8
1
  6
Continuous
100
AcDbCircle
 10
456.882076
 20
352.8999999999999
 30
0.0
 40
11.0
100
AcDbArc
 50
318.1935870000001
 51
338.9472819999999
  0
LINE
  5
126C0
330
124A0
100
AcDbEntity
  8
4
  6
CENTER
100
AcDbLine
 10
465.882076
 20
343.3999999999999
 30
0.0
 11
465.882076
 21
351.3999999999999
 31
0.0
  0
CIRCLE
  5
126C1
330
124A0
100
AcDbEntity
  8
1
  6
Continuous
100
AcDbCircle
 10
456.882076
 20
352.8999999999999
 30
0.0
 40
3.649999999999999
  0
LINE
  5
126C2
330
124A0
100
AcDbEntity
  8
3
  6
DASHED
100
AcDbLine
 10
459.8820759999998
 20
342.3
 30
0.0
 11
460.7056059999998
 21
342.3
 31
0.0
  0
LINE
  5
126C3
330
124A0
100
AcDbEntity
  8
3
  6
DASHED
100
AcDbLine
 10
459.8820759999998
 20
341.9
 30
0.0
 11
459.8820759999998
 21
342.3
 31
0.0
  0
LINE
  5
126C4
330
124A0
100
AcDbEntity
  8
3
  6
DASHED
100
AcDbLine
 10
466.882076
 20
345.3
 30
0.0
 11
459.8820759999998
 21
341.9
 31
0.0
  0
LINE
  5
126C5
330
124A0
100
AcDbEntity
  8
3
  6
DASHED
100
AcDbLine
 10
466.882076
 20
343.6999999999999
 30
0.0
 11
459.8820759999998
 21
340.3
 31
0.0
  0
LINE
  5
126C6
330
124A0
100
AcDbEntity
  8
3
  6
DASHED
100
AcDbLine
 10
473.882076
 20
341.9
 30
0.0
 11
473.882076
 21
342.3
 31
0.0
  0
LINE
  5
126C7
330
124A0
100
AcDbEntity
  8
3
  6
DASHED
100
AcDbLine
 10
466.882076
 20
345.3
 30
0.0
 11
473.882076
 21
341.9
 31
0.0
  0
LINE
  5
126C8
330
124A0
100
AcDbEntity
  8
3
  6
DASHED
100
AcDbLine
 10
466.882076
 20
343.6999999999999
 30
0.0
 11
473.882076
 21
340.3
 31
0.0
  0
LINE
  5
126C9
330
124A0
100
AcDbEntity
  8
3
  6
DASHED
100
AcDbLine
 10
473.058547
 20
342.3
 30
0.0
 11
473.882076
 21
342.3
 31
0.0
  0
LINE
  5
126CA
330
124A0
100
AcDbEntity
  8
3
  6
DASHED
100
AcDbLine
 10
463.999723
 20
342.3
 30
0.0
 11
469.764429
 21
342.3
 31
0.0
  0
ARC
  5
126CB
330
124A0
100
AcDbEntity
  8
3
  6
DASHED
100
AcDbCircle
 10
456.882076
 20
352.8999999999999
 30
0.0
 40
11.0
100
AcDbArc
 50
338.9472819999999
 51
33.055731
  0
LINE
  5
126CC
330
124A0
100
AcDbEntity
  8
4
  6
CENTER
100
AcDbLine
 10
456.882076
 20
338.8999999999999
 30
0.0
 11
456.882076
 21
366.9
 31
0.0
  0
LINE
  5
126CD
330
124A0
100
AcDbEntity
  8
4
  6
CENTER
100
AcDbLine
 10
477.882076
 20
353.3999999999999
 30
0.0
 11
477.882076
 21
341.3999999999999
 31
0.0
  0
LINE
  5
126CE
330
124A0
100
AcDbEntity
  8
1
  6
Continuous
100
AcDbLine
 10
448.882076
 20
335.8999999999999
 30
0.0
 11
495.882076
 21
335.8999999999999
 31
0.0
  0
LINE
  5
126CF
330
124A0
100
AcDbEntity
  8
1
  6
Continuous
100
AcDbLine
 10
495.882076
 20
335.8999999999999
 30
0.0
 11
495.882076
 21
334.2999999999999
 31
0.0
  0
LINE
  5
126D0
330
124A0
100
AcDbEntity
  8
4
  6
CENTER
100
AcDbLine
 10
610.882076
 20
46.21251899999999
 30
0.0
 11
610.882076
 21
38.212519
 31
0.0
  0
LINE
  5
126D1
330
124A0
100
AcDbEntity
  8
4
  6
CENTER
100
AcDbLine
 10
529.8820759999999
 20
40.04579299999997
 30
0.0
 11
529.8820759999999
 21
58.0
 31
0.0
  0
ARC
  5
126D2
330
124A0
100
AcDbEntity
  8
3
  6
DASHED
100
AcDbCircle
 10
515.882076
 20
48.5
 30
0.0
 40
3.0
100
AcDbArc
 50
270.0
 51
0.0
  0
LINE
  5
126D3
330
124A0
100
AcDbEntity
  8
1
  6
Continuous
100
AcDbLine
 10
540.382076
 20
50.89999999999999
 30
0.0
 11
519.382076
 21
50.89999999999999
 31
0.0
  0
LINE
  5
126D4
330
124A0
100
AcDbEntity
  8
1
  6
Continuous
100
AcDbLine
 10
518.8820759999998
 20
49.5
 30
0.0
 11
518.8820759999998
 21
51.9
 31
0.0
  0
ARC
  5
126D5
330
124A0
100
AcDbEntity
  8
1
  6
Continuous
100
AcDbCircle
 10
519.382076
 20
50.4
 30
0.0
 40
0.5
100
AcDbArc
 50
90.0
 51
180.0
  0
LINE
  5
126D6
330
124A0
100
AcDbEntity
  8
3
  6
DASHED
100
AcDbLine
 10
518.8820759999998
 20
48.5
 30
0.0
 11
518.8820759999998
 21
49.5
 31
0.0
  0
LINE
  5
126D7
330
124A0
100
AcDbEntity
  8
4
  6
CENTER
100
AcDbLine
 10
520.882076
 20
56.696583
 30
0.0
 11
520.882076
 21
48.69658300000001
 31
0.0
  0
LINE
  5
126D8
330
124A0
100
AcDbEntity
  8
4
  6
CENTER
100
AcDbLine
 10
508.8820759999999
 20
56.696583
 30
0.0
 11
508.8820759999999
 21
48.69658300000001
 31
0.0
  0
LINE
  5
126D9
330
124A0
100
AcDbEntity
  8
1
  6
Continuous
100
AcDbLine
 10
540.882076
 20
51.9
 30
0.0
 11
540.882076
 21
53.5
 31
0.0
  0
LINE
  5
126DA
330
124A0
100
AcDbEntity
  8
1
  6
Continuous
100
AcDbLine
 10
533.532076
 20
54.2
 30
0.0
 11
532.832076
 21
53.5
 31
0.0
  0
LINE
  5
126DB
330
124A0
100
AcDbEntity
  8
1
  6
Continuous
100
AcDbLine
 10
526.232076
 20
54.2
 30
0.0
 11
526.9320759999999
 21
53.5
 31
0.0
  0
LINE
  5
126DC
330
124A0
100
AcDbEntity
  8
1
  6
Continuous
100
AcDbLine
 10
533.532076
 20
54.2
 30
0.0
 11
526.232076
 21
54.2
 31
0.0
  0
LINE
  5
126DD
330
124A0
100
AcDbEntity
  8
1
  6
Continuous
100
AcDbLine
 10
525.1320759999998
 20
51.4
 30
0.0
 11
534.632076
 21
51.4
 31
0.0
  0
LINE
  5
126DE
330
124A0
100
AcDbEntity
  8
1
  6
Continuous
100
AcDbLine
 10
525.1320759999998
 20
51.4
 30
0.0
 11
525.632076
 21
51.9
 31
0.0
  0
LINE
  5
126DF
330
124A0
100
AcDbEntity
  8
1
  6
Continuous
100
AcDbLine
 10
534.632076
 20
51.4
 30
0.0
 11
534.132076
 21
51.9
 31
0.0
  0
ARC
  5
126E0
330
124A0
100
AcDbEntity
  8
1
  6
Continuous
100
AcDbCircle
 10
540.382076
 20
50.4
 30
0.0
 40
0.5
100
AcDbArc
 50
0.0
 51
90.0
  0
LINE
  5
126E1
330
124A0
100
AcDbEntity
  8
1
  6
Continuous
100
AcDbLine
 10
540.882076
 20
49.5
 30
0.0
 11
540.882076
 21
50.4
 31
0.0
  0
LINE
  5
126E2
330
124A0
100
AcDbEntity
  8
1
  6
Continuous
100
AcDbLine
 10
525.1320759999998
 20
51.4
 30
0.0
 11
525.1320759999998
 21
50.89999999999999
 31
0.0
  0
LINE
  5
126E3
330
124A0
100
AcDbEntity
  8
1
  6
Continuous
100
AcDbLine
 10
534.632076
 20
51.4
 30
0.0
 11
534.632076
 21
50.89999999999999
 31
0.0
  0
CIRCLE
  5
126E4
330
124A0
100
AcDbEntity
  8
3
  6
DASHED
100
AcDbCircle
 10
529.8820759999999
 20
347.8999999999999
 30
0.0
 40
11.0
  0
LINE
  5
126E5
330
124A0
100
AcDbEntity
  8
4
  6
CENTER
100
AcDbLine
 10
543.78497
 20
347.8999999999999
 30
0.0
 11
515.78497
 21
347.8999999999999
 31
0.0
  0
LINE
  5
126E6
330
124A0
100
AcDbEntity
  8
3
  6
DASHED
100
AcDbLine
 10
518.8820759999998
 20
341.9
 30
0.0
 11
518.8820759999998
 21
340.3
 31
0.0
  0
LINE
  5
126E7
330
124A0
100
AcDbEntity
  8
4
  6
CENTER
100
AcDbLine
 10
520.882076
 20
347.3999999999999
 30
0.0
 11
520.882076
 21
356.4
 31
0.0
  0
LINE
  5
126E8
330
124A0
100
AcDbEntity
  8
4
  6
CENTER
100
AcDbLine
 10
508.8820759999999
 20
345.8999999999999
 30
0.0
 11
508.8820759999999
 21
357.8999999999999
 31
0.0
  0
LINE
  5
126E9
330
124A0
100
AcDbEntity
  8
4
  6
CENTER
100
AcDbLine
 10
529.8820759999999
 20
361.8999999999999
 30
0.0
 11
529.8820759999999
 21
333.8999999999999
 31
0.0
  0
ARC
  5
126EA
330
124A0
100
AcDbEntity
  8
3
  6
DASHED
100
AcDbCircle
 10
537.8820759999999
 20
344.8999999999998
 30
0.0
 40
3.0
100
AcDbArc
 50
298.9758569999999
 51
0.0
  0
LINE
  5
126EB
330
124A0
100
AcDbEntity
  8
3
  6
DASHED
100
AcDbLine
 10
540.882076
 20
358.8999999999999
 30
0.0
 11
540.882076
 21
344.8999999999998
 31
0.0
  0
ARC
  5
126EC
330
124A0
100
AcDbEntity
  8
1
  6
Continuous
100
AcDbCircle
 10
537.8820759999999
 20
358.8999999999999
 30
0.0
 40
3.0
100
AcDbArc
 50
32.230953
 51
90.0
  0
ARC
  5
126ED
330
124A0
100
AcDbEntity
  8
3
  6
DASHED
100
AcDbCircle
 10
537.8820759999999
 20
358.8999999999999
 30
0.0
 40
3.0
100
AcDbArc
 50
0.0
 51
32.230953
  0
LINE
  5
126EE
330
124A0
100
AcDbEntity
  8
4
  6
CENTER
100
AcDbLine
 10
610.882076
 20
353.3999999999999
 30
0.0
 11
610.882076
 21
341.3999999999999
 31
0.0
  0
CIRCLE
  5
126EF
330
124A0
100
AcDbEntity
  8
1
  6
Continuous
100
AcDbCircle
 10
610.882076
 20
347.3999999999999
 30
0.0
 40
3.0
  0
LINE
  5
126F0
330
124A0
100
AcDbEntity
  8
4
  6
CENTER
100
AcDbLine
 10
85.882076
 20
143.9
 30
0.0
 11
900.959098
 21
143.9
 31
0.0
  0
LINE
  5
126F1
330
124A0
100
AcDbEntity
  8
1
  6
Continuous
100
AcDbLine
 10
90.882076
 20
155.4999999999998
 30
0.0
 11
459.8820759999998
 21
155.4999999999998
 31
0.0
  0
LINE
  5
126F2
330
124A0
100
AcDbEntity
  8
1
  6
Continuous
100
AcDbLine
 10
93.88207599999999
 20
133.9
 30
0.0
 11
537.8820759999999
 21
133.9
 31
0.0
  0
LINE
  5
126F3
330
124A0
100
AcDbEntity
  8
1
  6
Continuous
100
AcDbLine
 10
495.882076
 20
249.9
 30
0.0
 11
93.88207599999999
 21
249.9
 31
0.0
  0
LINE
  5
126F4
330
124A0
100
AcDbEntity
  8
1
  6
Continuous
100
AcDbLine
 10
540.882076
 20
241.9
 30
0.0
 11
90.882076
 21
241.9
 31
0.0
  0
LINE
  5
126F5
330
124A0
100
AcDbEntity
  8
1
  6
Continuous
100
AcDbLine
 10
90.882076
 20
136.8999999999997
 30
0.0
 11
90.882076
 21
155.4999999999998
 31
0.0
  0
LINE
  5
126F6
330
124A0
100
AcDbEntity
  8
1
  6
Continuous
100
AcDbLine
 10
90.882076
 20
246.9
 30
0.0
 11
90.882076
 21
241.9
 31
0.0
  0
ARC
  5
126F7
330
124A0
100
AcDbEntity
  8
1
  6
Continuous
100
AcDbCircle
 10
93.88207599999999
 20
246.9
 30
0.0
 40
3.0
100
AcDbArc
 50
90.0
 51
180.0
  0
LINE
  5
126F8
330
124A0
100
AcDbEntity
  8
4
  6
CENTER
100
AcDbLine
 10
109.8820759999999
 20
238.703417
 30
0.0
 11
109.8820759999999
 21
246.703417
 31
0.0
  0
LINE
  5
126F9
330
124A0
100
AcDbEntity
  8
4
  6
CENTER
100
AcDbLine
 10
124.882076
 20
238.703417
 30
0.0
 11
124.882076
 21
246.703417
 31
0.0
  0
ARC
  5
126FA
330
124A0
100
AcDbEntity
  8
1
  6
Continuous
100
AcDbCircle
 10
93.88207599999999
 20
136.8999999999997
 30
0.0
 40
3.0
100
AcDbArc
 50
180.0
 51
270.0
  0
CIRCLE
  5
126FB
330
124A0
100
AcDbEntity
  8
1
  6
Continuous
100
AcDbCircle
 10
124.882076
 20
143.9
 30
0.0
 40
2.0
  0
LINE
  5
126FC
330
124A0
100
AcDbEntity
  8
4
  6
CENTER
100
AcDbLine
 10
109.8820759999999
 20
137.9
 30
0.0
 11
109.8820759999999
 21
149.9
 31
0.0
  0
CIRCLE
  5
126FD
330
124A0
100
AcDbEntity
  8
1
  6
Continuous
100
AcDbCircle
 10
109.8820759999999
 20
143.9
 30
0.0
 40
3.0
  0
LINE
  5
126FE
330
124A0
100
AcDbEntity
  8
4
  6
CENTER
100
AcDbLine
 10
124.882076
 20
147.9
 30
0.0
 11
124.882076
 21
139.9
 31
0.0
  0
LINE
  5
126FF
330
124A0
100
AcDbEntity
  8
4
  6
CENTER
100
AcDbLine
 10
242.8820759999999
 20
238.703417
 30
0.0
 11
242.8820759999999
 21
246.703417
 31
0.0
  0
CIRCLE
  5
12700
330
124A0
100
AcDbEntity
  8
1
  6
Continuous
100
AcDbCircle
 10
242.8820759999999
 20
143.9
 30
0.0
 40
3.0
  0
LINE
  5
12701
330
124A0
100
AcDbEntity
  8
4
  6
CENTER
100
AcDbLine
 10
242.8820759999999
 20
137.9
 30
0.0
 11
242.8820759999999
 21
149.9
 31
0.0
  0
LINE
  5
12702
330
124A0
100
AcDbEntity
  8
3
  6
DASHED
100
AcDbLine
 10
445.882076
 20
136.8999999999997
 30
0.0
 11
540.882076
 21
136.8999999999997
 31
0.0
  0
LINE
  5
12703
330
124A0
100
AcDbEntity
  8
1
  6
Continuous
100
AcDbLine
 10
473.882076
 20
155.4999999999998
 30
0.0
 11
518.8820759999998
 21
155.4999999999998
 31
0.0
  0
LINE
  5
12704
330
124A0
100
AcDbEntity
  8
3
  6
DASHED
100
AcDbLine
 10
467.8820759999998
 20
135.3
 30
0.0
 11
540.419792
 21
135.3
 31
0.0
  0
LINE
  5
12705
330
124A0
100
AcDbEntity
  8
3
  6
DASHED
100
AcDbLine
 10
515.882076
 20
249.9
 30
0.0
 11
495.882076
 21
249.9
 31
0.0
  0
LINE
  5
12706
330
124A0
100
AcDbEntity
  8
4
  6
CENTER
100
AcDbLine
 10
466.882076
 20
158.319526
 30
0.0
 11
466.882076
 21
149.65481
 31
0.0
  0
LINE
  5
12707
330
124A0
100
AcDbEntity
  8
1
  6
Continuous
100
AcDbLine
 10
469.764429
 20
153.5
 30
0.0
 11
473.882076
 21
155.4999999999998
 31
0.0
  0
LINE
  5
12708
330
124A0
100
AcDbEntity
  8
1
  6
Continuous
100
AcDbLine
 10
473.882076
 20
155.4999999999998
 30
0.0
 11
473.882076
 21
153.5
 31
0.0
  0
LINE
  5
12709
330
124A0
100
AcDbEntity
  8
1
  6
Continuous
100
AcDbLine
 10
463.999723
 20
153.5
 30
0.0
 11
459.8820759999998
 21
155.4999999999998
 31
0.0
  0
LINE
  5
1270A
330
124A0
100
AcDbEntity
  8
1
  6
Continuous
100
AcDbLine
 10
459.8820759999998
 20
155.4999999999998
 30
0.0
 11
459.8820759999998
 21
153.5
 31
0.0
  0
LINE
  5
1270B
330
124A0
100
AcDbEntity
  8
4
  6
CENTER
100
AcDbLine
 10
456.882076
 20
156.9
 30
0.0
 11
456.882076
 21
128.9
 31
0.0
  0
LINE
  5
1270C
330
124A0
100
AcDbEntity
  8
3
  6
DASHED
100
AcDbLine
 10
445.882076
 20
136.8999999999997
 30
0.0
 11
445.882076
 21
155.4999999999998
 31
0.0
  0
LINE
  5
1270D
330
124A0
100
AcDbEntity
  8
1
  6
Continuous
100
AcDbLine
 10
467.3820759999999
 20
251.3
 30
0.0
 11
446.3820759999999
 21
251.3
 31
0.0
  0
LINE
  5
1270E
330
124A0
100
AcDbEntity
  8
1
  6
Continuous
100
AcDbLine
 10
495.882076
 20
252.3
 30
0.0
 11
445.882076
 21
252.3
 31
0.0
  0
LINE
  5
1270F
330
124A0
100
AcDbEntity
  8
4
  6
CENTER
100
AcDbLine
 10
375.8820759999999
 20
238.703417
 30
0.0
 11
375.8820759999999
 21
246.703417
 31
0.0
  0
LINE
  5
12710
330
124A0
100
AcDbEntity
  8
1
  6
Continuous
100
AcDbLine
 10
445.882076
 20
250.8
 30
0.0
 11
445.882076
 21
249.9
 31
0.0
  0
ARC
  5
12711
330
124A0
100
AcDbEntity
  8
1
  6
Continuous
100
AcDbCircle
 10
446.3820759999999
 20
250.8
 30
0.0
 40
0.5
100
AcDbArc
 50
90.0
 51
180.0
  0
LINE
  5
12712
330
124A0
100
AcDbEntity
  8
1
  6
Continuous
100
AcDbLine
 10
445.882076
 20
253.9
 30
0.0
 11
445.882076
 21
252.3
 31
0.0
  0
LINE
  5
12713
330
124A0
100
AcDbEntity
  8
4
  6
CENTER
100
AcDbLine
 10
466.882076
 20
250.4528909999999
 30
0.0
 11
466.882076
 21
238.866696
 31
0.0
  0
LINE
  5
12714
330
124A0
100
AcDbEntity
  8
1
  6
Continuous
100
AcDbLine
 10
473.882076
 20
249.9
 30
0.0
 11
473.882076
 21
241.9
 31
0.0
  0
LINE
  5
12715
330
124A0
100
AcDbEntity
  8
1
  6
Continuous
100
AcDbLine
 10
459.8820759999998
 20
249.9
 30
0.0
 11
459.8820759999998
 21
241.9
 31
0.0
  0
LINE
  5
12716
330
124A0
100
AcDbEntity
  8
1
  6
Continuous
100
AcDbLine
 10
466.882076
 20
243.9
 30
0.0
 11
466.882076
 21
249.9
 31
0.0
  0
LINE
  5
12717
330
124A0
100
AcDbEntity
  8
1
  6
Continuous
100
AcDbLine
 10
452.132076
 20
251.8
 30
0.0
 11
461.6320759999998
 21
251.8
 31
0.0
  0
LINE
  5
12718
330
124A0
100
AcDbEntity
  8
1
  6
Continuous
100
AcDbLine
 10
461.6320759999998
 20
251.8
 30
0.0
 11
461.6320759999998
 21
251.3
 31
0.0
  0
LINE
  5
12719
330
124A0
100
AcDbEntity
  8
1
  6
Continuous
100
AcDbLine
 10
461.6320759999998
 20
251.8
 30
0.0
 11
461.1320759999999
 21
252.3
 31
0.0
  0
LINE
  5
1271A
330
124A0
100
AcDbEntity
  8
1
  6
Continuous
100
AcDbLine
 10
452.132076
 20
251.8
 30
0.0
 11
452.132076
 21
251.3
 31
0.0
  0
LINE
  5
1271B
330
124A0
100
AcDbEntity
  8
1
  6
Continuous
100
AcDbLine
 10
452.132076
 20
251.8
 30
0.0
 11
452.6320759999999
 21
252.3
 31
0.0
  0
ARC
  5
1271C
330
124A0
100
AcDbEntity
  8
1
  6
Continuous
100
AcDbCircle
 10
467.3820759999999
 20
250.8
 30
0.0
 40
0.5
100
AcDbArc
 50
0.0
 51
90.0
  0
LINE
  5
1271D
330
124A0
100
AcDbEntity
  8
1
  6
Continuous
100
AcDbLine
 10
467.8820759999998
 20
252.3
 30
0.0
 11
467.8820759999998
 21
249.9
 31
0.0
  0
LINE
  5
1271E
330
124A0
100
AcDbEntity
  8
1
  6
Continuous
100
AcDbLine
 10
473.882076
 20
243.5
 30
0.0
 11
459.8820759999998
 21
243.5
 31
0.0
  0
LINE
  5
1271F
330
124A0
100
AcDbEntity
  8
1
  6
Continuous
100
AcDbLine
 10
473.882076
 20
243.9
 30
0.0
 11
459.8820759999998
 21
243.9
 31
0.0
  0
LINE
  5
12720
330
124A0
100
AcDbEntity
  8
1
  6
Continuous
100
AcDbLine
 10
460.5320759999998
 20
254.5999999999999
 30
0.0
 11
453.2320759999998
 21
254.5999999999999
 31
0.0
  0
LINE
  5
12721
330
124A0
100
AcDbEntity
  8
4
  6
CENTER
100
AcDbLine
 10
456.882076
 20
240.4802299999999
 30
0.0
 11
456.882076
 21
258.3999999999999
 31
0.0
  0
LINE
  5
12722
330
124A0
100
AcDbEntity
  8
4
  6
CENTER
100
AcDbLine
 10
465.882076
 20
249.187481
 30
0.0
 11
465.882076
 21
257.187481
 31
0.0
  0
LINE
  5
12723
330
124A0
100
AcDbEntity
  8
1
  6
Continuous
100
AcDbLine
 10
460.5320759999998
 20
254.5999999999999
 30
0.0
 11
459.832076
 21
253.9
 31
0.0
  0
LINE
  5
12724
330
124A0
100
AcDbEntity
  8
1
  6
Continuous
100
AcDbLine
 10
453.2320759999998
 20
254.5999999999999
 30
0.0
 11
453.9320759999998
 21
253.9
 31
0.0
  0
ARC
  5
12725
330
124A0
100
AcDbEntity
  8
1
  6
Continuous
100
AcDbCircle
 10
498.882076
 20
248.9
 30
0.0
 40
3.0
100
AcDbArc
 50
180.0
 51
270.0
  0
LINE
  5
12726
330
124A0
100
AcDbEntity
  8
1
  6
Continuous
100
AcDbLine
 10
495.882076
 20
253.9
 30
0.0
 11
495.882076
 21
248.9
 31
0.0
  0
LINE
  5
12727
330
124A0
100
AcDbEntity
  8
4
  6
CENTER
100
AcDbLine
 10
477.882076
 20
249.187481
 30
0.0
 11
477.882076
 21
257.187481
 31
0.0
  0
ARC
  5
12728
330
124A0
100
AcDbEntity
  8
1
  6
Continuous
100
AcDbCircle
 10
448.882076
 20
156.9
 30
0.0
 40
3.0
100
AcDbArc
 50
90.0
 51
180.0
  0
LINE
  5
12729
330
124A0
100
AcDbEntity
  8
1
  6
Continuous
100
AcDbLine
 10
445.882076
 20
155.4999999999998
 30
0.0
 11
445.882076
 21
156.9
 31
0.0
  0
LINE
  5
1272A
330
124A0
100
AcDbEntity
  8
1
  6
Continuous
100
AcDbLine
 10
495.882076
 20
159.9
 30
0.0
 11
495.882076
 21
161.5
 31
0.0
  0
LINE
  5
1272B
330
124A0
100
AcDbEntity
  8
4
  6
CENTER
100
AcDbLine
 10
470.882076
 20
142.9
 30
0.0
 11
442.8820759999998
 21
142.9
 31
0.0
  0
ARC
  5
1272C
330
124A0
100
AcDbEntity
  8
3
  6
DASHED
100
AcDbCircle
 10
456.882076
 20
142.9
 30
0.0
 40
11.0
100
AcDbArc
 50
305.096801
 51
234.9031990000001
  0
CIRCLE
  5
1272D
330
124A0
100
AcDbEntity
  8
1
  6
Continuous
100
AcDbCircle
 10
375.8820759999999
 20
143.9
 30
0.0
 40
3.0
  0
LINE
  5
1272E
330
124A0
100
AcDbEntity
  8
4
  6
CENTER
100
AcDbLine
 10
375.8820759999999
 20
137.9
 30
0.0
 11
375.8820759999999
 21
149.9
 31
0.0
  0
LINE
  5
1272F
330
124A0
100
AcDbEntity
  8
3
  6
DASHED
100
AcDbLine
 10
467.8820759999998
 20
135.3
 30
0.0
 11
467.8820759999998
 21
136.8999999999997
 31
0.0
  0
ARC
  5
12730
330
124A0
100
AcDbEntity
  8
1
  6
Continuous
100
AcDbCircle
 10
456.882076
 20
142.9
 30
0.0
 40
11.0
100
AcDbArc
 50
234.9031990000001
 51
305.096801
  0
LINE
  5
12731
330
124A0
100
AcDbEntity
  8
1
  6
Continuous
100
AcDbLine
 10
473.058547
 20
153.5
 30
0.0
 11
473.882076
 21
153.9
 31
0.0
  0
LINE
  5
12732
330
124A0
100
AcDbEntity
  8
1
  6
Continuous
100
AcDbLine
 10
460.7056059999998
 20
153.5
 30
0.0
 11
459.8820759999998
 21
153.9
 31
0.0
  0
LINE
  5
12733
330
124A0
100
AcDbEntity
  8
1
  6
Continuous
100
AcDbLine
 10
459.8820759999998
 20
153.5
 30
0.0
 11
473.882076
 21
153.5
 31
0.0
  0
LINE
  5
12734
330
124A0
100
AcDbEntity
  8
4
  6
CENTER
100
AcDbLine
 10
465.882076
 20
152.4
 30
0.0
 11
465.882076
 21
144.4
 31
0.0
  0
LINE
  5
12735
330
124A0
100
AcDbEntity
  8
4
  6
CENTER
100
AcDbLine
 10
477.882076
 20
142.4
 30
0.0
 11
477.882076
 21
154.4
 31
0.0
  0
LINE
  5
12736
330
124A0
100
AcDbEntity
  8
1
  6
Continuous
100
AcDbLine
 10
518.8820759999998
 20
153.9
 30
0.0
 11
518.8820759999998
 21
155.4999999999998
 31
0.0
  0
ARC
  5
12737
330
124A0
100
AcDbEntity
  8
1
  6
Continuous
100
AcDbCircle
 10
529.8820759999999
 20
147.9
 30
0.0
 40
11.0
100
AcDbArc
 50
30.75150199999999
 51
146.9442689999999
  0
ARC
  5
12738
330
124A0
100
AcDbEntity
  8
3
  6
DASHED
100
AcDbCircle
 10
529.8820759999999
 20
147.9
 30
0.0
 40
11.0
100
AcDbArc
 50
146.9442689999999
 51
30.75150199999999
  0
LINE
  5
12739
330
124A0
100
AcDbEntity
  8
4
  6
CENTER
100
AcDbLine
 10
529.8820759999999
 20
138.1995399999998
 30
0.0
 11
529.8820759999999
 21
157.60046
 31
0.0
  0
LINE
  5
1273A
330
124A0
100
AcDbEntity
  8
1
  6
Continuous
100
AcDbLine
 10
540.382076
 20
244.4999999999998
 30
0.0
 11
519.382076
 21
244.4999999999998
 31
0.0
  0
LINE
  5
1273B
330
124A0
100
AcDbEntity
  8
1
  6
Continuous
100
AcDbLine
 10
540.882076
 20
243.5
 30
0.0
 11
518.8820759999998
 21
243.5
 31
0.0
  0
LINE
  5
1273C
330
124A0
100
AcDbEntity
  8
1
  6
Continuous
100
AcDbLine
 10
518.8820759999998
 20
245.9
 30
0.0
 11
518.8820759999998
 21
241.9
 31
0.0
  0
LINE
  5
1273D
330
124A0
100
AcDbEntity
  8
4
  6
CENTER
100
AcDbLine
 10
508.8820759999999
 20
238.703417
 30
0.0
 11
508.8820759999999
 21
246.703417
 31
0.0
  0
LINE
  5
1273E
330
124A0
100
AcDbEntity
  8
4
  6
CENTER
100
AcDbLine
 10
520.882076
 20
238.703417
 30
0.0
 11
520.882076
 21
246.703417
 31
0.0
  0
ARC
  5
1273F
330
124A0
100
AcDbEntity
  8
3
  6
DASHED
100
AcDbCircle
 10
515.882076
 20
246.9
 30
0.0
 40
3.0
100
AcDbArc
 50
0.0
 51
90.0
  0
ARC
  5
12740
330
124A0
100
AcDbEntity
  8
1
  6
Continuous
100
AcDbCircle
 10
519.382076
 20
245.0
 30
0.0
 40
0.5
100
AcDbArc
 50
180.0
 51
270.0
  0
LINE
  5
12741
330
124A0
100
AcDbEntity
  8
3
  6
DASHED
100
AcDbLine
 10
518.8820759999998
 20
246.9
 30
0.0
 11
518.8820759999998
 21
245.9
 31
0.0
  0
LINE
  5
12742
330
124A0
100
AcDbEntity
  8
1
  6
Continuous
100
AcDbLine
 10
534.632076
 20
244.0
 30
0.0
 11
534.632076
 21
244.4999999999998
 31
0.0
  0
LINE
  5
12743
330
124A0
100
AcDbEntity
  8
1
  6
Continuous
100
AcDbLine
 10
525.1320759999998
 20
244.0
 30
0.0
 11
525.1320759999998
 21
244.4999999999998
 31
0.0
  0
LINE
  5
12744
330
124A0
100
AcDbEntity
  8
1
  6
Continuous
100
AcDbLine
 10
540.882076
 20
245.9
 30
0.0
 11
540.882076
 21
245.0
 31
0.0
  0
ARC
  5
12745
330
124A0
100
AcDbEntity
  8
1
  6
Continuous
100
AcDbCircle
 10
540.382076
 20
245.0
 30
0.0
 40
0.5
100
AcDbArc
 50
270.0
 51
0.0
  0
LINE
  5
12746
330
124A0
100
AcDbEntity
  8
1
  6
Continuous
100
AcDbLine
 10
534.632076
 20
244.0
 30
0.0
 11
534.132076
 21
243.5
 31
0.0
  0
LINE
  5
12747
330
124A0
100
AcDbEntity
  8
1
  6
Continuous
100
AcDbLine
 10
525.1320759999998
 20
244.0
 30
0.0
 11
525.632076
 21
243.5
 31
0.0
  0
LINE
  5
12748
330
124A0
100
AcDbEntity
  8
1
  6
Continuous
100
AcDbLine
 10
525.1320759999998
 20
244.0
 30
0.0
 11
534.632076
 21
244.0
 31
0.0
  0
LINE
  5
12749
330
124A0
100
AcDbEntity
  8
1
  6
Continuous
100
AcDbLine
 10
533.532076
 20
241.1999999999999
 30
0.0
 11
526.232076
 21
241.1999999999999
 31
0.0
  0
LINE
  5
1274A
330
124A0
100
AcDbEntity
  8
1
  6
Continuous
100
AcDbLine
 10
526.232076
 20
241.1999999999999
 30
0.0
 11
526.9320759999999
 21
241.9
 31
0.0
  0
LINE
  5
1274B
330
124A0
100
AcDbEntity
  8
1
  6
Continuous
100
AcDbLine
 10
533.532076
 20
241.1999999999999
 30
0.0
 11
532.832076
 21
241.9
 31
0.0
  0
LINE
  5
1274C
330
124A0
100
AcDbEntity
  8
1
  6
Continuous
100
AcDbLine
 10
540.882076
 20
243.5
 30
0.0
 11
540.882076
 21
241.9
 31
0.0
  0
LINE
  5
1274D
330
124A0
100
AcDbEntity
  8
4
  6
CENTER
100
AcDbLine
 10
529.8820759999999
 20
255.3542069999998
 30
0.0
 11
529.8820759999999
 21
237.4
 31
0.0
  0
LINE
  5
1274E
330
124A0
100
AcDbEntity
  8
4
  6
CENTER
100
AcDbLine
 10
610.882076
 20
249.187481
 30
0.0
 11
610.882076
 21
257.187481
 31
0.0
  0
LINE
  5
1274F
330
124A0
100
AcDbEntity
  8
4
  6
CENTER
100
AcDbLine
 10
516.1179279999998
 20
147.9
 30
0.0
 11
543.8024429999997
 21
147.9
 31
0.0
  0
LINE
  5
12750
330
124A0
100
AcDbEntity
  8
1
  6
Continuous
100
AcDbLine
 10
518.8820759999998
 20
153.9
 30
0.0
 11
537.8820759999999
 21
153.9
 31
0.0
  0
CIRCLE
  5
12751
330
124A0
100
AcDbEntity
  8
1
  6
Continuous
100
AcDbCircle
 10
508.8820759999999
 20
143.9
 30
0.0
 40
3.0
  0
LINE
  5
12752
330
124A0
100
AcDbEntity
  8
4
  6
CENTER
100
AcDbLine
 10
508.8820759999999
 20
137.9
 30
0.0
 11
508.8820759999999
 21
149.9
 31
0.0
  0
LINE
  5
12753
330
124A0
100
AcDbEntity
  8
4
  6
CENTER
100
AcDbLine
 10
520.882076
 20
139.4
 30
0.0
 11
520.882076
 21
148.3999999999998
 31
0.0
  0
CIRCLE
  5
12754
330
124A0
100
AcDbEntity
  8
1
  6
Continuous
100
AcDbCircle
 10
520.882076
 20
143.9
 30
0.0
 40
2.0
  0
ARC
  5
12755
330
124A0
100
AcDbEntity
  8
1
  6
Continuous
100
AcDbCircle
 10
537.8820759999999
 20
136.8999999999997
 30
0.0
 40
3.0
100
AcDbArc
 50
270.0
 51
0.0
  0
ARC
  5
12756
330
124A0
100
AcDbEntity
  8
1
  6
Continuous
100
AcDbCircle
 10
537.8820759999999
 20
150.9
 30
0.0
 40
3.0
100
AcDbArc
 50
0.0
 51
90.0
  0
LINE
  5
12757
330
124A0
100
AcDbEntity
  8
1
  6
Continuous
100
AcDbLine
 10
540.882076
 20
136.8999999999997
 30
0.0
 11
540.882076
 21
150.9
 31
0.0
  0
CIRCLE
  5
12758
330
124A0
100
AcDbEntity
  8
1
  6
Continuous
100
AcDbCircle
 10
529.8820759999999
 20
147.9
 30
0.0
 40
3.649999999999999
  0
CIRCLE
  5
12759
330
124A0
100
AcDbEntity
  8
1
  6
Continuous
100
AcDbCircle
 10
610.882076
 20
148.3999999999998
 30
0.0
 40
3.0
  0
CIRCLE
  5
1275A
330
124A0
100
AcDbEntity
  8
1
  6
Continuous
100
AcDbCircle
 10
610.882076
 20
148.3999999999998
 30
0.0
 40
4.299999999999998
  0
LINE
  5
1275B
330
124A0
100
AcDbEntity
  8
4
  6
CENTER
100
AcDbLine
 10
610.882076
 20
142.4
 30
0.0
 11
610.882076
 21
154.4
 31
0.0
  0
LINE
  5
1275C
330
124A0
100
AcDbEntity
  8
4
  6
CENTER
100
AcDbLine
 10
743.8820759999996
 20
46.21251899999999
 30
0.0
 11
743.8820759999996
 21
38.212519
 31
0.0
  0
CIRCLE
  5
1275D
330
124A0
100
AcDbEntity
  8
1
  6
Continuous
100
AcDbCircle
 10
743.8820759999996
 20
347.3999999999999
 30
0.0
 40
3.0
  0
LINE
  5
1275E
330
124A0
100
AcDbEntity
  8
4
  6
CENTER
100
AcDbLine
 10
743.8820759999996
 20
353.3999999999999
 30
0.0
 11
743.8820759999996
 21
341.3999999999999
 31
0.0
  0
LINE
  5
1275F
330
124A0
100
AcDbEntity
  8
4
  6
CENTER
100
AcDbLine
 10
876.882076
 20
46.21251899999999
 30
0.0
 11
876.882076
 21
38.212519
 31
0.0
  0
LINE
  5
12760
330
124A0
100
AcDbEntity
  8
1
  6
Continuous
100
AcDbLine
 10
895.882076
 20
41.5
 30
0.0
 11
895.882076
 21
46.5
 31
0.0
  0
LINE
  5
12761
330
124A0
100
AcDbEntity
  8
4
  6
CENTER
100
AcDbLine
 10
861.882076
 20
46.21251899999999
 30
0.0
 11
861.882076
 21
38.212519
 31
0.0
  0
ARC
  5
12762
330
124A0
100
AcDbEntity
  8
1
  6
Continuous
100
AcDbCircle
 10
892.882076
 20
46.5
 30
0.0
 40
3.0
100
AcDbArc
 50
0.0
 51
90.0
  0
CIRCLE
  5
12763
330
124A0
100
AcDbEntity
  8
1
  6
Continuous
100
AcDbCircle
 10
876.882076
 20
347.3999999999999
 30
0.0
 40
3.0
  0
LINE
  5
12764
330
124A0
100
AcDbEntity
  8
4
  6
CENTER
100
AcDbLine
 10
861.882076
 20
351.8999999999999
 30
0.0
 11
861.882076
 21
342.8999999999998
 31
0.0
  0
CIRCLE
  5
12765
330
124A0
100
AcDbEntity
  8
1
  6
Continuous
100
AcDbCircle
 10
861.882076
 20
347.3999999999999
 30
0.0
 40
2.0
  0
LINE
  5
12766
330
124A0
100
AcDbEntity
  8
1
  6
Continuous
100
AcDbLine
 10
895.882076
 20
360.4999999999998
 30
0.0
 11
895.882076
 21
334.2999999999999
 31
0.0
  0
LINE
  5
12767
330
124A0
100
AcDbEntity
  8
4
  6
CENTER
100
AcDbLine
 10
876.882076
 20
353.3999999999999
 30
0.0
 11
876.882076
 21
341.3999999999999
 31
0.0
  0
ARC
  5
12768
330
124A0
100
AcDbEntity
  8
1
  6
Continuous
100
AcDbCircle
 10
952.864152
 20
158.4
 30
0.0
 40
0.5
100
AcDbArc
 50
90.0
 51
180.0
  0
LINE
  5
12769
330
124A0
100
AcDbEntity
  8
1
  6
Continuous
100
AcDbLine
 10
961.7641519999999
 20
159.9
 30
0.0
 11
961.7641519999999
 21
136.8999999999997
 31
0.0
  0
LINE
  5
1276A
330
124A0
100
AcDbEntity
  8
1
  6
Continuous
100
AcDbLine
 10
960.1641519999999
 20
159.9
 30
0.0
 11
960.1641519999999
 21
136.8999999999997
 31
0.0
  0
ARC
  5
1276B
330
124A0
100
AcDbEntity
  8
1
  6
Continuous
100
AcDbCircle
 10
958.8641519999999
 20
158.4
 30
0.0
 40
0.5
100
AcDbArc
 50
0.0
 51
90.0
  0
LINE
  5
1276C
330
124A0
100
AcDbEntity
  8
4
  6
CENTER
100
AcDbLine
 10
947.1256300000003
 20
147.9
 30
0.0
 11
960.933503
 21
147.9
 31
0.0
  0
LINE
  5
1276D
330
124A0
100
AcDbEntity
  8
4
  6
CENTER
100
AcDbLine
 10
964.35615
 20
142.9
 30
0.0
 11
950.7081389999999
 21
142.9
 31
0.0
  0
LINE
  5
1276E
330
124A0
100
AcDbEntity
  8
1
  6
Continuous
100
AcDbLine
 10
960.1641519999999
 20
136.8999999999997
 30
0.0
 11
952.864152
 21
136.8999999999997
 31
0.0
  0
LINE
  5
1276F
330
124A0
100
AcDbEntity
  8
1
  6
Continuous
100
AcDbLine
 10
960.1641519999999
 20
135.3
 30
0.0
 11
953.7641519999999
 21
135.3
 31
0.0
  0
LINE
  5
12770
330
124A0
100
AcDbEntity
  8
1
  6
Continuous
100
AcDbLine
 10
958.8641519999999
 20
158.9
 30
0.0
 11
952.864152
 21
158.9
 31
0.0
  0
LINE
  5
12771
330
124A0
100
AcDbEntity
  8
1
  6
Continuous
100
AcDbLine
 10
952.664152
 20
131.9
 30
0.0
 11
958.6641519999997
 21
131.9
 31
0.0
  0
LINE
  5
12772
330
124A0
100
AcDbEntity
  8
1
  6
Continuous
100
AcDbLine
 10
959.1641519999999
 20
137.0
 30
0.0
 11
959.1641519999999
 21
136.8999999999997
 31
0.0
  0
LINE
  5
12773
330
124A0
100
AcDbEntity
  8
1
  6
Continuous
100
AcDbLine
 10
959.3641520000003
 20
158.4
 30
0.0
 11
959.3641520000003
 21
137.4
 31
0.0
  0
ARC
  5
12774
330
124A0
100
AcDbEntity
  8
1
  6
Continuous
100
AcDbCircle
 10
960.1641519999999
 20
136.8999999999997
 30
0.0
 40
1.6
100
AcDbArc
 50
270.0
 51
0.0
  0
LINE
  5
12775
330
124A0
100
AcDbEntity
  8
1
  6
Continuous
100
AcDbLine
 10
959.664152
 20
138.15
 30
0.0
 11
959.664152
 21
147.65
 31
0.0
  0
LINE
  5
12776
330
124A0
100
AcDbEntity
  8
1
  6
Continuous
100
AcDbLine
 10
959.664152
 20
138.15
 30
0.0
 11
959.3641520000003
 21
138.15
 31
0.0
  0
LINE
  5
12777
330
124A0
100
AcDbEntity
  8
1
  6
Continuous
100
AcDbLine
 10
959.664152
 20
138.15
 30
0.0
 11
960.1641519999999
 21
138.65
 31
0.0
  0
LINE
  5
12778
330
124A0
100
AcDbEntity
  8
1
  6
Continuous
100
AcDbLine
 10
959.664152
 20
147.65
 30
0.0
 11
959.3641520000003
 21
147.65
 31
0.0
  0
LINE
  5
12779
330
124A0
100
AcDbEntity
  8
1
  6
Continuous
100
AcDbLine
 10
959.664152
 20
147.65
 30
0.0
 11
960.1641519999999
 21
147.1499999999998
 31
0.0
  0
LINE
  5
1277A
330
124A0
100
AcDbEntity
  8
1
  6
Continuous
100
AcDbLine
 10
962.4641519999999
 20
146.55
 30
0.0
 11
961.7641519999999
 21
145.8499999999999
 31
0.0
  0
LINE
  5
1277B
330
124A0
100
AcDbEntity
  8
1
  6
Continuous
100
AcDbLine
 10
962.4641519999999
 20
139.25
 30
0.0
 11
961.7641519999999
 21
139.9499999999999
 31
0.0
  0
LINE
  5
1277C
330
124A0
100
AcDbEntity
  8
1
  6
Continuous
100
AcDbLine
 10
962.4641519999999
 20
146.55
 30
0.0
 11
962.4641519999999
 21
139.25
 31
0.0
  0
LINE
  5
1277D
330
124A0
100
AcDbEntity
  8
4
  6
CENTER
100
AcDbLine
 10
957.2770189999999
 20
148.3999999999998
 30
0.0
 11
964.1984220000001
 21
148.3999999999998
 31
0.0
  0
ARC
  5
1277E
330
124A0
100
AcDbEntity
  8
1
  6
Continuous
100
AcDbCircle
 10
958.8641519999999
 20
137.4
 30
0.0
 40
0.5
100
AcDbArc
 50
270.0
 51
0.0
  0
ARC
  5
1277F
330
124A0
100
AcDbEntity
  8
1
  6
Continuous
100
AcDbCircle
 10
958.6641519999997
 20
132.4
 30
0.0
 40
0.5
100
AcDbArc
 50
270.0
 51
0.0
  0
LINE
  5
12780
330
124A0
100
AcDbEntity
  8
1
  6
Continuous
100
AcDbLine
 10
959.1641519999999
 20
135.3
 30
0.0
 11
959.1641519999999
 21
132.4
 31
0.0
  0
LINE
  5
12781
330
124A0
100
AcDbEntity
  8
1
  6
Continuous
100
AcDbLine
 10
952.1641519999999
 20
153.3999999999998
 30
0.0
 11
952.1641519999999
 21
152.65
 31
0.0
  0
LINE
  5
12782
330
124A0
100
AcDbEntity
  8
1
  6
Continuous
100
AcDbLine
 10
951.364152
 20
153.9
 30
0.0
 11
951.364152
 21
133.9
 31
0.0
  0
LINE
  5
12783
330
124A0
100
AcDbEntity
  8
1
  6
Continuous
100
AcDbLine
 10
949.764152
 20
153.9
 30
0.0
 11
949.764152
 21
133.9
 31
0.0
  0
LINE
  5
12784
330
124A0
100
AcDbEntity
  8
1
  6
Continuous
100
AcDbLine
 10
949.0641519999996
 20
151.55
 30
0.0
 11
949.0641519999996
 21
144.25
 31
0.0
  0
LINE
  5
12785
330
124A0
100
AcDbEntity
  8
1
  6
Continuous
100
AcDbLine
 10
951.864152
 20
143.1499999999998
 30
0.0
 11
951.864152
 21
152.65
 31
0.0
  0
LINE
  5
12786
330
124A0
100
AcDbEntity
  8
1
  6
Continuous
100
AcDbLine
 10
951.364152
 20
152.15
 30
0.0
 11
951.364152
 21
143.65
 31
0.0
  0
LINE
  5
12787
330
124A0
100
AcDbEntity
  8
4
  6
CENTER
100
AcDbLine
 10
947.1256300000003
 20
143.9
 30
0.0
 11
954.0470330000001
 21
143.9
 31
0.0
  0
LINE
  5
12788
330
124A0
100
AcDbEntity
  8
1
  6
Continuous
100
AcDbLine
 10
949.764152
 20
133.9
 30
0.0
 11
951.364152
 21
133.9
 31
0.0
  0
LINE
  5
12789
330
124A0
100
AcDbEntity
  8
1
  6
Continuous
100
AcDbLine
 10
949.0641519999996
 20
144.25
 30
0.0
 11
949.764152
 21
144.95
 31
0.0
  0
LINE
  5
1278A
330
124A0
100
AcDbEntity
  8
1
  6
Continuous
100
AcDbLine
 10
951.864152
 20
143.1499999999998
 30
0.0
 11
951.364152
 21
143.65
 31
0.0
  0
LINE
  5
1278B
330
124A0
100
AcDbEntity
  8
1
  6
Continuous
100
AcDbLine
 10
951.864152
 20
143.1499999999998
 30
0.0
 11
952.3641519999999
 21
143.1499999999998
 31
0.0
  0
LINE
  5
1278C
330
124A0
100
AcDbEntity
  8
1
  6
Continuous
100
AcDbLine
 10
949.764152
 20
153.9
 30
0.0
 11
952.3641519999999
 21
153.9
 31
0.0
  0
LINE
  5
1278D
330
124A0
100
AcDbEntity
  8
1
  6
Continuous
100
AcDbLine
 10
951.364152
 20
155.4999999999998
 30
0.0
 11
952.3641519999999
 21
155.4999999999998
 31
0.0
  0
ARC
  5
1278E
330
124A0
100
AcDbEntity
  8
1
  6
Continuous
100
AcDbCircle
 10
952.664152
 20
153.3999999999998
 30
0.0
 40
0.5
100
AcDbArc
 50
126.869898
 51
180.0
  0
ARC
  5
1278F
330
124A0
100
AcDbEntity
  8
1
  6
Continuous
100
AcDbCircle
 10
951.364152
 20
153.9
 30
0.0
 40
1.6
100
AcDbArc
 50
90.0
 51
180.0
  0
LINE
  5
12790
330
124A0
100
AcDbEntity
  8
1
  6
Continuous
100
AcDbLine
 10
949.0641519999996
 20
151.55
 30
0.0
 11
949.764152
 21
150.8499999999999
 31
0.0
  0
LINE
  5
12791
330
124A0
100
AcDbEntity
  8
1
  6
Continuous
100
AcDbLine
 10
951.864152
 20
152.65
 30
0.0
 11
951.364152
 21
152.15
 31
0.0
  0
LINE
  5
12792
330
124A0
100
AcDbEntity
  8
1
  6
Continuous
100
AcDbLine
 10
952.3641519999999
 20
158.4
 30
0.0
 11
952.3641519999999
 21
137.4
 31
0.0
  0
LINE
  5
12793
330
124A0
100
AcDbEntity
  8
1
  6
Continuous
100
AcDbLine
 10
951.864152
 20
152.65
 30
0.0
 11
952.3641519999999
 21
152.65
 31
0.0
  0
LINE
  5
12794
330
124A0
100
AcDbEntity
  8
1
  6
Continuous
100
AcDbLine
 10
953.7641519999999
 20
135.3
 30
0.0
 11
953.7641519999999
 21
136.8999999999997
 31
0.0
  0
ARC
  5
12795
330
124A0
100
AcDbEntity
  8
1
  6
Continuous
100
AcDbCircle
 10
952.864152
 20
137.4
 30
0.0
 40
0.5
100
AcDbArc
 50
180.0
 51
270.0
  0
ARC
  5
12796
330
124A0
100
AcDbEntity
  8
1
  6
Continuous
100
AcDbCircle
 10
952.664152
 20
132.4
 30
0.0
 40
0.5
100
AcDbArc
 50
180.0
 51
270.0
  0
LINE
  5
12797
330
124A0
100
AcDbEntity
  8
1
  6
Continuous
100
AcDbLine
 10
952.1641519999999
 20
143.1499999999998
 30
0.0
 11
952.1641519999999
 21
132.4
 31
0.0
  0
LINE
  5
12798
330
124A0
100
AcDbEntity
  8
1
  6
Continuous
100
AcDbLine
 10
960.1641519999999
 20
161.5
 30
0.0
 11
953.7641519999999
 21
161.5
 31
0.0
  0
LINE
  5
12799
330
124A0
100
AcDbEntity
  8
1
  6
Continuous
100
AcDbLine
 10
960.1641519999999
 20
159.9
 30
0.0
 11
953.7641519999999
 21
159.9
 31
0.0
  0
ARC
  5
1279A
330
124A0
100
AcDbEntity
  8
1
  6
Continuous
100
AcDbCircle
 10
960.1641519999999
 20
159.9
 30
0.0
 40
1.6
100
AcDbArc
 50
0.0
 51
90.0
  0
LINE
  5
1279B
330
124A0
100
AcDbEntity
  8
1
  6
Continuous
100
AcDbLine
 10
953.7641519999999
 20
161.5
 30
0.0
 11
953.7641519999999
 21
159.9
 31
0.0
  0
LINE
  5
1279C
330
124A0
100
AcDbEntity
  8
4
  6
CENTER
100
AcDbLine
 10
743.8820759999996
 20
249.187481
 30
0.0
 11
743.8820759999996
 21
257.187481
 31
0.0
  0
CIRCLE
  5
1279D
330
124A0
100
AcDbEntity
  8
1
  6
Continuous
100
AcDbCircle
 10
743.8820759999996
 20
148.3999999999998
 30
0.0
 40
3.0
  0
CIRCLE
  5
1279E
330
124A0
100
AcDbEntity
  8
1
  6
Continuous
100
AcDbCircle
 10
743.8820759999996
 20
148.3999999999998
 30
0.0
 40
4.299999999999998
  0
LINE
  5
1279F
330
124A0
100
AcDbEntity
  8
4
  6
CENTER
100
AcDbLine
 10
743.8820759999996
 20
142.4
 30
0.0
 11
743.8820759999996
 21
154.4
 31
0.0
  0
LINE
  5
127A0
330
124A0
100
AcDbEntity
  8
1
  6
Continuous
100
AcDbLine
 10
895.882076
 20
135.3
 30
0.0
 11
895.882076
 21
161.5
 31
0.0
  0
LINE
  5
127A1
330
124A0
100
AcDbEntity
  8
4
  6
CENTER
100
AcDbLine
 10
861.882076
 20
249.187481
 30
0.0
 11
861.882076
 21
257.187481
 31
0.0
  0
ARC
  5
127A2
330
124A0
100
AcDbEntity
  8
1
  6
Continuous
100
AcDbCircle
 10
892.882076
 20
248.9
 30
0.0
 40
3.0
100
AcDbArc
 50
270.0
 51
0.0
  0
LINE
  5
127A3
330
124A0
100
AcDbEntity
  8
1
  6
Continuous
100
AcDbLine
 10
895.882076
 20
253.9
 30
0.0
 11
895.882076
 21
248.9
 31
0.0
  0
LINE
  5
127A4
330
124A0
100
AcDbEntity
  8
4
  6
CENTER
100
AcDbLine
 10
876.882076
 20
249.187481
 30
0.0
 11
876.882076
 21
257.187481
 31
0.0
  0
CIRCLE
  5
127A5
330
124A0
100
AcDbEntity
  8
1
  6
Continuous
100
AcDbCircle
 10
876.882076
 20
148.3999999999998
 30
0.0
 40
3.0
  0
CIRCLE
  5
127A6
330
124A0
100
AcDbEntity
  8
1
  6
Continuous
100
AcDbCircle
 10
876.882076
 20
148.3999999999998
 30
0.0
 40
4.299999999999998
  0
CIRCLE
  5
127A7
330
124A0
100
AcDbEntity
  8
1
  6
Continuous
100
AcDbCircle
 10
861.882076
 20
148.3999999999998
 30
0.0
 40
2.0
  0
LINE
  5
127A8
330
124A0
100
AcDbEntity
  8
4
  6
CENTER
100
AcDbLine
 10
861.882076
 20
143.9
 30
0.0
 11
861.882076
 21
152.9
 31
0.0
  0
LINE
  5
127A9
330
124A0
100
AcDbEntity
  8
4
  6
CENTER
100
AcDbLine
 10
876.882076
 20
142.4
 30
0.0
 11
876.882076
 21
154.4
 31
0.0
  0
LINE
  5
127AA
330
124A0
100
AcDbEntity
  8
5
  6
PHANTOM
100
AcDbLine
 10
463.176194
 20
571.849816
 30
0.0
 11
470.587958
 21
571.849816
 31
0.0
  0
LINE
  5
127AB
330
124A0
100
AcDbEntity
  8
5
  6
PHANTOM
100
AcDbLine
 10
537.8820759999999
 20
551.849816
 30
0.0
 11
892.882076
 21
551.849816
 31
0.0
  0
LINE
  5
127AC
330
124A0
100
AcDbEntity
  8
5
  6
PHANTOM
100
AcDbLine
 10
459.8820759999998
 20
573.4498160000002
 30
0.0
 11
473.882076
 21
573.4498160000002
 31
0.0
  0
LINE
  5
127AD
330
124A0
100
AcDbEntity
  8
5
  6
PHANTOM
100
AcDbLine
 10
445.882076
 20
554.849816
 30
0.0
 11
445.882076
 21
557.849816
 31
0.0
  0
ARC
  5
127AE
330
124A0
100
AcDbEntity
  8
5
  6
PHANTOM
100
AcDbCircle
 10
448.882076
 20
554.849816
 30
0.0
 40
3.0
100
AcDbArc
 50
180.0
 51
270.0
  0
LINE
  5
127AF
330
124A0
100
AcDbEntity
  8
4
  6
CENTER
100
AcDbLine
 10
479.8820759999999
 20
565.849816
 30
0.0
 11
479.8820759999999
 21
557.849816
 31
0.0
  0
CIRCLE
  5
127B0
330
124A0
100
AcDbEntity
  8
5
  6
PHANTOM
100
AcDbCircle
 10
479.8820759999999
 20
561.849816
 30
0.0
 40
2.0
  0
LINE
  5
127B1
330
124A0
100
AcDbEntity
  8
4
  6
CENTER
100
AcDbLine
 10
464.8820759999998
 20
555.849816
 30
0.0
 11
464.8820759999998
 21
567.849816
 31
0.0
  0
CIRCLE
  5
127B2
330
124A0
100
AcDbEntity
  8
5
  6
PHANTOM
100
AcDbCircle
 10
464.8820759999998
 20
561.849816
 30
0.0
 40
4.299999999999998
  0
CIRCLE
  5
127B3
330
124A0
100
AcDbEntity
  8
5
  6
PHANTOM
100
AcDbCircle
 10
464.8820759999998
 20
561.849816
 30
0.0
 40
3.0
  0
LINE
  5
127B4
330
124A0
100
AcDbEntity
  8
4
  6
CENTER
100
AcDbLine
 10
597.8820759999997
 20
555.849816
 30
0.0
 11
597.8820759999997
 21
567.849816
 31
0.0
  0
CIRCLE
  5
127B5
330
124A0
100
AcDbEntity
  8
5
  6
PHANTOM
100
AcDbCircle
 10
597.8820759999997
 20
561.849816
 30
0.0
 40
4.299999999999998
  0
CIRCLE
  5
127B6
330
124A0
100
AcDbEntity
  8
5
  6
PHANTOM
100
AcDbCircle
 10
597.8820759999997
 20
561.849816
 30
0.0
 40
3.0
  0
LINE
  5
127B7
330
124A0
100
AcDbEntity
  8
4
  6
CENTER
100
AcDbLine
 10
730.8820759999996
 20
555.849816
 30
0.0
 11
730.8820759999996
 21
567.849816
 31
0.0
  0
CIRCLE
  5
127B8
330
124A0
100
AcDbEntity
  8
5
  6
PHANTOM
100
AcDbCircle
 10
730.8820759999996
 20
561.849816
 30
0.0
 40
4.299999999999998
  0
CIRCLE
  5
127B9
330
124A0
100
AcDbEntity
  8
5
  6
PHANTOM
100
AcDbCircle
 10
730.8820759999996
 20
561.849816
 30
0.0
 40
3.0
  0
LINE
  5
127BA
330
124A0
100
AcDbEntity
  8
4
  6
CENTER
100
AcDbLine
 10
898.7849699999996
 20
565.849816
 30
0.0
 11
870.7849699999997
 21
565.849816
 31
0.0
  0
CIRCLE
  5
127BB
330
124A0
100
AcDbEntity
  8
5
  6
PHANTOM
100
AcDbCircle
 10
884.882076
 20
565.849816
 30
0.0
 40
11.0
  0
LINE
  5
127BC
330
124A0
100
AcDbEntity
  8
5
  6
PHANTOM
100
AcDbLine
 10
828.882076
 20
573.4498160000002
 30
0.0
 11
873.8820759999999
 21
573.4498160000002
 31
0.0
  0
LINE
  5
127BD
330
124A0
100
AcDbEntity
  8
5
  6
PHANTOM
100
AcDbLine
 10
828.882076
 20
571.849816
 30
0.0
 11
875.6625320000001
 21
571.849816
 31
0.0
  0
LINE
  5
127BE
330
124A0
100
AcDbEntity
  8
5
  6
PHANTOM
100
AcDbLine
 10
814.8820759999999
 20
571.4498160000001
 30
0.0
 11
815.705606
 21
571.4498160000001
 31
0.0
  0
LINE
  5
127BF
330
124A0
100
AcDbEntity
  8
5
  6
PHANTOM
100
AcDbLine
 10
814.8820759999999
 20
571.849816
 30
0.0
 11
814.8820759999999
 21
571.4498160000001
 31
0.0
  0
LINE
  5
127C0
330
124A0
100
AcDbEntity
  8
5
  6
PHANTOM
100
AcDbLine
 10
821.8820759999996
 20
568.4498160000003
 30
0.0
 11
814.8820759999999
 21
571.849816
 31
0.0
  0
LINE
  5
127C1
330
124A0
100
AcDbEntity
  8
5
  6
PHANTOM
100
AcDbLine
 10
821.8820759999996
 20
570.0498159999997
 30
0.0
 11
814.8820759999999
 21
573.4498160000002
 31
0.0
  0
LINE
  5
127C2
330
124A0
100
AcDbEntity
  8
5
  6
PHANTOM
100
AcDbLine
 10
828.882076
 20
571.849816
 30
0.0
 11
828.882076
 21
571.4498160000001
 31
0.0
  0
LINE
  5
127C3
330
124A0
100
AcDbEntity
  8
5
  6
PHANTOM
100
AcDbLine
 10
821.8820759999996
 20
568.4498160000003
 30
0.0
 11
828.882076
 21
571.849816
 31
0.0
  0
LINE
  5
127C4
330
124A0
100
AcDbEntity
  8
5
  6
PHANTOM
100
AcDbLine
 10
821.8820759999996
 20
570.0498159999997
 30
0.0
 11
828.882076
 21
573.4498160000002
 31
0.0
  0
LINE
  5
127C5
330
124A0
100
AcDbEntity
  8
5
  6
PHANTOM
100
AcDbLine
 10
828.058547
 20
571.4498160000001
 30
0.0
 11
828.882076
 21
571.4498160000001
 31
0.0
  0
LINE
  5
127C6
330
124A0
100
AcDbEntity
  8
5
  6
PHANTOM
100
AcDbLine
 10
818.9997229999999
 20
571.4498160000001
 30
0.0
 11
824.7644289999996
 21
571.4498160000001
 31
0.0
  0
LINE
  5
127C7
330
124A0
100
AcDbEntity
  8
4
  6
CENTER
100
AcDbLine
 10
863.8820759999999
 20
567.849816
 30
0.0
 11
863.8820759999999
 21
555.849816
 31
0.0
  0
LINE
  5
127C8
330
124A0
100
AcDbEntity
  8
4
  6
CENTER
100
AcDbLine
 10
875.882076
 20
566.349816
 30
0.0
 11
875.882076
 21
557.349816
 31
0.0
  0
LINE
  5
127C9
330
124A0
100
AcDbEntity
  8
5
  6
PHANTOM
100
AcDbLine
 10
873.8820759999999
 20
571.849816
 30
0.0
 11
873.8820759999999
 21
573.4498160000002
 31
0.0
  0
ARC
  5
127CA
330
124A0
100
AcDbEntity
  8
5
  6
PHANTOM
100
AcDbCircle
 10
892.882076
 20
568.849816
 30
0.0
 40
3.0
100
AcDbArc
 50
0.0
 51
61.024143
  0
ARC
  5
127CB
330
124A0
100
AcDbEntity
  8
5
  6
PHANTOM
100
AcDbCircle
 10
892.882076
 20
554.849816
 30
0.0
 40
3.0
100
AcDbArc
 50
270.0
 51
0.0
  0
LINE
  5
127CC
330
124A0
100
AcDbEntity
  8
4
  6
CENTER
100
AcDbLine
 10
884.882076
 20
551.849816
 30
0.0
 11
884.882076
 21
579.849816
 31
0.0
  0
ARC
  5
127CD
330
124A0
100
AcDbEntity
  8
5
  6
PHANTOM
100
AcDbCircle
 10
875.882076
 20
561.849816
 30
0.0
 40
2.0
100
AcDbArc
 50
144.471448
 51
263.45353
  0
CIRCLE
  5
127CE
330
124A0
100
AcDbEntity
  8
5
  6
PHANTOM
100
AcDbCircle
 10
863.8820759999999
 20
561.849816
 30
0.0
 40
4.299999999999998
  0
CIRCLE
  5
127CF
330
124A0
100
AcDbEntity
  8
5
  6
PHANTOM
100
AcDbCircle
 10
863.8820759999999
 20
561.849816
 30
0.0
 40
3.0
  0
LINE
  5
127D0
330
124A0
100
AcDbEntity
  8
5
  6
PHANTOM
100
AcDbLine
 10
539.101621
 20
571.849816
 30
0.0
 11
814.8820759999999
 21
571.849816
 31
0.0
  0
LINE
  5
127D1
330
124A0
100
AcDbEntity
  8
5
  6
PHANTOM
100
AcDbLine
 10
537.8344339999999
 20
573.4498160000002
 30
0.0
 11
814.8820759999999
 21
573.4498160000002
 31
0.0
  0
LINE
  5
127D2
330
124A0
100
AcDbEntity
  8
5
  6
PHANTOM
100
AcDbLine
 10
518.8820759999998
 20
573.4498160000002
 30
0.0
 11
521.9297179999998
 21
573.4498160000002
 31
0.0
  0
LINE
  5
127D3
330
124A0
100
AcDbEntity
  8
5
  6
PHANTOM
100
AcDbLine
 10
537.8820759999999
 20
133.9
 30
0.0
 11
892.882076
 21
133.9
 31
0.0
  0
LINE
  5
127D4
330
124A0
100
AcDbEntity
  8
5
  6
PHANTOM
100
AcDbLine
 10
459.8820759999998
 20
155.4999999999998
 30
0.0
 11
473.882076
 21
155.4999999999998
 31
0.0
  0
LINE
  5
127D5
330
124A0
100
AcDbEntity
  8
4
  6
CENTER
100
AcDbLine
 10
479.8820759999999
 20
147.9
 30
0.0
 11
479.8820759999999
 21
139.9
 31
0.0
  0
CIRCLE
  5
127D6
330
124A0
100
AcDbEntity
  8
5
  6
PHANTOM
100
AcDbCircle
 10
464.8820759999998
 20
143.9
 30
0.0
 40
3.0
  0
LINE
  5
127D7
330
124A0
100
AcDbEntity
  8
4
  6
CENTER
100
AcDbLine
 10
464.8820759999998
 20
137.9
 30
0.0
 11
464.8820759999998
 21
149.9
 31
0.0
  0
CIRCLE
  5
127D8
330
124A0
100
AcDbEntity
  8
5
  6
PHANTOM
100
AcDbCircle
 10
479.8820759999999
 20
143.9
 30
0.0
 40
2.0
  0
ARC
  5
127D9
330
124A0
100
AcDbEntity
  8
5
  6
PHANTOM
100
AcDbCircle
 10
448.882076
 20
136.8999999999997
 30
0.0
 40
3.0
100
AcDbArc
 50
180.0
 51
270.0
  0
LINE
  5
127DA
330
124A0
100
AcDbEntity
  8
4
  6
CENTER
100
AcDbLine
 10
597.8820759999997
 20
137.9
 30
0.0
 11
597.8820759999997
 21
149.9
 31
0.0
  0
CIRCLE
  5
127DB
330
124A0
100
AcDbEntity
  8
5
  6
PHANTOM
100
AcDbCircle
 10
597.8820759999997
 20
143.9
 30
0.0
 40
3.0
  0
LINE
  5
127DC
330
124A0
100
AcDbEntity
  8
4
  6
CENTER
100
AcDbLine
 10
730.8820759999996
 20
137.9
 30
0.0
 11
730.8820759999996
 21
149.9
 31
0.0
  0
CIRCLE
  5
127DD
330
124A0
100
AcDbEntity
  8
5
  6
PHANTOM
100
AcDbCircle
 10
730.8820759999996
 20
143.9
 30
0.0
 40
3.0
  0
ARC
  5
127DE
330
124A0
100
AcDbEntity
  8
5
  6
PHANTOM
100
AcDbCircle
 10
884.882076
 20
147.9
 30
0.0
 40
11.0
100
AcDbArc
 50
146.9442689999999
 51
30.75150199999999
  0
CIRCLE
  5
127DF
330
124A0
100
AcDbEntity
  8
5
  6
PHANTOM
100
AcDbCircle
 10
875.882076
 20
143.9
 30
0.0
 40
2.0
  0
LINE
  5
127E0
330
124A0
100
AcDbEntity
  8
4
  6
CENTER
100
AcDbLine
 10
875.882076
 20
139.4
 30
0.0
 11
875.882076
 21
148.3999999999998
 31
0.0
  0
LINE
  5
127E1
330
124A0
100
AcDbEntity
  8
4
  6
CENTER
100
AcDbLine
 10
884.882076
 20
138.1995399999998
 30
0.0
 11
884.882076
 21
157.60046
 31
0.0
  0
CIRCLE
  5
127E2
330
124A0
100
AcDbEntity
  8
5
  6
PHANTOM
100
AcDbCircle
 10
884.882076
 20
147.9
 30
0.0
 40
3.649999999999999
  0
LINE
  5
127E3
330
124A0
100
AcDbEntity
  8
4
  6
CENTER
100
AcDbLine
 10
863.8820759999999
 20
137.9
 30
0.0
 11
863.8820759999999
 21
149.9
 31
0.0
  0
CIRCLE
  5
127E4
330
124A0
100
AcDbEntity
  8
5
  6
PHANTOM
100
AcDbCircle
 10
863.8820759999999
 20
143.9
 30
0.0
 40
3.0
  0
ARC
  5
127E5
330
124A0
100
AcDbEntity
  8
5
  6
PHANTOM
100
AcDbCircle
 10
892.882076
 20
136.8999999999997
 30
0.0
 40
3.0
100
AcDbArc
 50
270.0
 51
0.0
  0
LINE
  5
127E6
330
124A0
100
AcDbEntity
  8
5
  6
PHANTOM
100
AcDbLine
 10
873.8820759999999
 20
153.9
 30
0.0
 11
892.882076
 21
153.9
 31
0.0
  0
ARC
  5
127E7
330
124A0
100
AcDbEntity
  8
5
  6
PHANTOM
100
AcDbCircle
 10
884.882076
 20
147.9
 30
0.0
 40
11.0
100
AcDbArc
 50
30.75150199999999
 51
146.9442689999999
  0
LINE
  5
127E8
330
124A0
100
AcDbEntity
  8
4
  6
CENTER
100
AcDbLine
 10
871.1179279999999
 20
147.9
 30
0.0
 11
898.8024429999997
 21
147.9
 31
0.0
  0
LINE
  5
127E9
330
124A0
100
AcDbEntity
  8
5
  6
PHANTOM
100
AcDbLine
 10
828.882076
 20
155.4999999999998
 30
0.0
 11
873.8820759999999
 21
155.4999999999998
 31
0.0
  0
LINE
  5
127EA
330
124A0
100
AcDbEntity
  8
5
  6
PHANTOM
100
AcDbLine
 10
824.7644289999996
 20
153.5
 30
0.0
 11
828.882076
 21
155.4999999999998
 31
0.0
  0
LINE
  5
127EB
330
124A0
100
AcDbEntity
  8
5
  6
PHANTOM
100
AcDbLine
 10
828.882076
 20
155.4999999999998
 30
0.0
 11
828.882076
 21
153.5
 31
0.0
  0
LINE
  5
127EC
330
124A0
100
AcDbEntity
  8
5
  6
PHANTOM
100
AcDbLine
 10
818.9997229999999
 20
153.5
 30
0.0
 11
814.8820759999999
 21
155.4999999999998
 31
0.0
  0
LINE
  5
127ED
330
124A0
100
AcDbEntity
  8
5
  6
PHANTOM
100
AcDbLine
 10
814.8820759999999
 20
155.4999999999998
 30
0.0
 11
814.8820759999999
 21
153.5
 31
0.0
  0
LINE
  5
127EE
330
124A0
100
AcDbEntity
  8
5
  6
PHANTOM
100
AcDbLine
 10
828.058547
 20
153.5
 30
0.0
 11
828.882076
 21
153.9
 31
0.0
  0
LINE
  5
127EF
330
124A0
100
AcDbEntity
  8
5
  6
PHANTOM
100
AcDbLine
 10
815.705606
 20
153.5
 30
0.0
 11
814.8820759999999
 21
153.9
 31
0.0
  0
LINE
  5
127F0
330
124A0
100
AcDbEntity
  8
5
  6
PHANTOM
100
AcDbLine
 10
814.8820759999999
 20
153.5
 30
0.0
 11
828.882076
 21
153.5
 31
0.0
  0
LINE
  5
127F1
330
124A0
100
AcDbEntity
  8
5
  6
PHANTOM
100
AcDbLine
 10
873.8820759999999
 20
153.9
 30
0.0
 11
873.8820759999999
 21
155.4999999999998
 31
0.0
  0
ARC
  5
127F2
330
124A0
100
AcDbEntity
  8
5
  6
PHANTOM
100
AcDbCircle
 10
892.882076
 20
150.9
 30
0.0
 40
3.0
100
AcDbArc
 50
0.0
 51
90.0
  0
LINE
  5
127F3
330
124A0
100
AcDbEntity
  8
5
  6
PHANTOM
100
AcDbLine
 10
518.8820759999998
 20
155.4999999999998
 30
0.0
 11
814.8820759999999
 21
155.4999999999998
 31
0.0
  0
ENDSEC
  0
SECTION
  2
OBJECTS
  0
DICTIONARY
  5
1248E
330
0
100
AcDbDictionary
281
     1
  3
ACAD_CIP_PREVIOUS_PRODUCT_INFO
350
12853
  3
ACAD_COLOR
350
12835
  3
ACAD_DETAILVIEWSTYLE
350
1284E
  3
ACAD_GROUP
350
1248F
  3
ACAD_LAYOUT
350
1249B
  3
ACAD_MATERIAL
350
12803
  3
ACAD_MLEADERSTYLE
350
1284A
  3
ACAD_MLINESTYLE
350
12498
  3
ACAD_PLOTSETTINGS
350
1249A
  3
ACAD_PLOTSTYLENAME
350
12801
  3
ACAD_SCALELIST
350
12838
  3
ACAD_SECTIONVIEWSTYLE
350
1284C
  3
ACAD_TABLESTYLE
350
12836
  3
ACAD_VISUALSTYLE
350
1281C
  3
ACDB_RECOMPOSE_DATA
350
12871
  3
AcDbVariableDictionary
350
12864
  3
DWGPROPS
350
12872
  0
DICTIONARY
  5
12854
330
12492
100
AcDbDictionary
280
     1
281
     1
  3
ADSK_XREC_LAYER_RECONCILED
360
12855
  0
DICTIONARY
  5
12856
330
124A8
100
AcDbDictionary
280
     1
281
     1
  3
ADSK_XREC_LAYER_RECONCILED
360
12857
  0
DICTIONARY
  5
12858
330
124A9
100
AcDbDictionary
280
     1
281
     1
  3
ADSK_XREC_LAYER_RECONCILED
360
12859
  0
DICTIONARY
  5
1285A
330
124AA
100
AcDbDictionary
280
     1
281
     1
  3
ADSK_XREC_LAYER_RECONCILED
360
1285B
  0
DICTIONARY
  5
1285C
330
124AB
100
AcDbDictionary
280
     1
281
     1
  3
ADSK_XREC_LAYER_RECONCILED
360
1285D
  0
DICTIONARY
  5
1285E
330
124AC
100
AcDbDictionary
280
     1
281
     1
  3
ADSK_XREC_LAYER_RECONCILED
360
1285F
  0
DICTIONARY
  5
12860
330
124AD
100
AcDbDictionary
280
     1
281
     1
  3
ADSK_XREC_LAYER_RECONCILED
360
12861
  0
DICTIONARY
  5
12862
330
124AE
100
AcDbDictionary
280
     1
281
     1
  3
ADSK_XREC_LAYER_RECONCILED
360
12863
  0
DICTIONARY
  5
127FC
330
124A0
100
AcDbDictionary
281
     1
  3
ACAD_LAYOUTSELFREF
350
127FD
  0
DICTIONARY
  5
127FA
330
1249C
100
AcDbDictionary
281
     1
  3
ACAD_LAYOUTSELFREF
350
127FB
  0
XRECORD
  5
12853
102
{ACAD_REACTORS
330
1248E
102
}
330
1248E
100
AcDbXrecord
280
     1
300
ACDLT
300
2014
300
ACDLT_F_S
  0
DICTIONARY
  5
12835
102
{ACAD_REACTORS
330
1248E
102
}
330
1248E
100
AcDbDictionary
281
     1
  0
DICTIONARY
  5
1284E
102
{ACAD_REACTORS
330
1248E
102
}
330
1248E
100
AcDbDictionary
281
     1
  3
Imperial24
350
1284F
  0
DICTIONARY
  5
1248F
102
{ACAD_REACTORS
330
1248E
102
}
330
1248E
100
AcDbDictionary
281
     1
  0
DICTIONARY
  5
1249B
102
{ACAD_REACTORS
330
1248E
102
}
330
1248E
100
AcDbDictionary
281
     1
  3
Model
350
12850
  3
レイアウト1
350
12851
  0
DICTIONARY
  5
12803
102
{ACAD_REACTORS
330
1248E
102
}
330
1248E
100
AcDbDictionary
281
     1
  3
ByBlock
350
1280C
  3
ByLayer
350
12804
  3
Global
350
12814
  0
DICTIONARY
  5
1284A
102
{ACAD_REACTORS
330
1248E
102
}
330
1248E
100
AcDbDictionary
281
     1
  3
Standard
350
1284B
  0
DICTIONARY
  5
12498
102
{ACAD_REACTORS
330
1248E
102
}
330
1248E
100
AcDbDictionary
281
     1
  3
STANDARD
350
12499
  0
DICTIONARY
  5
1249A
102
{ACAD_REACTORS
330
1248E
102
}
330
1248E
100
AcDbDictionary
281
     1
  0
ACDBDICTIONARYWDFLT
  5
12801
102
{ACAD_REACTORS
330
1248E
102
}
330
1248E
100
AcDbDictionary
281
     1
  3
Normal
350
12802
100
AcDbDictionaryWithDefault
340
12802
  0
DICTIONARY
  5
12838
102
{ACAD_REACTORS
330
1248E
102
}
330
1248E
100
AcDbDictionary
281
     1
  3
A0
350
12839
  3
A1
350
1283A
  3
A2
350
1283B
  3
A3
350
1283C
  3
A4
350
1283D
  3
A5
350
1283E
  3
A6
350
1283F
  3
A7
350
12840
  3
A8
350
12841
  3
A9
350
12842
  3
B0
350
12843
  3
B1
350
12844
  3
B2
350
12845
  3
B3
350
12846
  3
B4
350
12847
  3
B5
350
12848
  3
B6
350
12849
  0
DICTIONARY
  5
1284C
102
{ACAD_REACTORS
330
1248E
102
}
330
1248E
100
AcDbDictionary
281
     1
  3
Imperial24
350
1284D
  0
DICTIONARY
  5
12836
102
{ACAD_REACTORS
330
1248E
102
}
330
1248E
100
AcDbDictionary
281
     1
  3
Standard
350
12837
  0
DICTIONARY
  5
1281C
102
{ACAD_REACTORS
330
1248E
102
}
330
1248E
100
AcDbDictionary
281
     1
  3
2dWireframe
350
12822
  3
Basic
350
12821
  3
Brighten
350
12828
  3
ColorChange
350
1282C
  3
Conceptual
350
12825
  3
Dim
350
12827
  3
EdgeColorOff
350
12834
  3
Facepattern
350
1282B
  3
Flat
350
1281D
  3
FlatWithEdges
350
1281E
  3
Gouraud
350
1281F
  3
GouraudWithEdges
350
12820
  3
Hidden
350
12824
  3
JitterOff
350
12832
  3
Linepattern
350
1282A
  3
OverhangOff
350
12833
  3
Realistic
350
12826
  3
Shaded
350
12831
  3
Shaded with edges
350
12830
  3
Shades of Gray
350
1282D
  3
Sketchy
350
1282E
  3
Thicken
350
12829
  3
Wireframe
350
12823
  3
X-Ray
350
1282F
  0
XRECORD
  5
12871
102
{ACAD_REACTORS
330
1248E
102
}
330
1248E
100
AcDbXrecord
280
     1
 90
        1
330
12837
  0
DICTIONARY
  5
12864
102
{ACAD_REACTORS
330
1248E
102
}
330
1248E
100
AcDbDictionary
281
     1
  3
CANNOSCALE
350
12869
  3
CMLEADERSTYLE
350
12866
  3
CTABLESTYLE
350
12865
  3
CVIEWDETAILSTYLE
350
12867
  3
CVIEWSECTIONSTYLE
350
12868
  3
DIMASSOC
350
1286C
  3
INDEXCTL
350
1286B
  3
SORTENTS
350
1286A
  3
XCLIPFRAME
350
1286D
  0
XRECORD
  5
12872
102
{ACAD_REACTORS
330
1248E
102
}
330
1248E
100
AcDbXrecord
280
     1
  1
DWGPROPS COOKIE
  2

  3

  4

  6

  7

  8
Yoshitsune
  9

300
=
301
=
302
=
303
=
304
=
305
=
306
=
307
=
308
=
309
=
 40
0.0000120601851852
 41
2451233.438789815
 42
2457192.66536191
  1

 90
        0
  0
XRECORD
  5
12855
102
{ACAD_REACTORS
330
12854
102
}
330
12854
100
AcDbXrecord
280
     1
290
     1
  0
XRECORD
  5
12857
102
{ACAD_REACTORS
330
12856
102
}
330
12856
100
AcDbXrecord
280
     1
290
     1
  0
XRECORD
  5
12859
102
{ACAD_REACTORS
330
12858
102
}
330
12858
100
AcDbXrecord
280
     1
290
     1
  0
XRECORD
  5
1285B
102
{ACAD_REACTORS
330
1285A
102
}
330
1285A
100
AcDbXrecord
280
     1
290
     1
  0
XRECORD
  5
1285D
102
{ACAD_REACTORS
330
1285C
102
}
330
1285C
100
AcDbXrecord
280
     1
290
     1
  0
XRECORD
  5
1285F
102
{ACAD_REACTORS
330
1285E
102
}
330
1285E
100
AcDbXrecord
280
     1
290
     1
  0
XRECORD
  5
12861
102
{ACAD_REACTORS
330
12860
102
}
330
12860
100
AcDbXrecord
280
     1
290
     1
  0
XRECORD
  5
12863
102
{ACAD_REACTORS
330
12862
102
}
330
12862
100
AcDbXrecord
280
     1
290
     1
  0
XRECORD
  5
127FD
102
{ACAD_REACTORS
330
127FC
102
}
330
127FC
100
AcDbXrecord
280
     1
340
124A0
  0
XRECORD
  5
127FB
102
{ACAD_REACTORS
330
127FA
102
}
330
127FA
100
AcDbXrecord
280
     1
340
1249C
  0
ACDBDETAILVIEWSTYLE
  5
1284F
102
{ACAD_XDICTIONARY
360
128AA
102
}
102
{ACAD_REACTORS
330
1284E
102
}
330
1284E
100
AcDbModelDocViewStyle
 70
     0
  3
Imperial24
290
     0
100
AcDbDetailViewStyle
 70
     0
 71
     0
 90
        3
 71
     1
340
12493
 40
0.24
340
0
 40
0.24
300

 40
0.36
280
     3
 71
     2
340
12497
 90
       25
 71
     3
340
12493
 40
0.24
 90
        1
 40
0.75
 90
        1
300
%<\AcVar ViewType \f "%tc1">% %<\AcVar ViewDetailId>%\PSCALE %<\AcVar ViewScale \f "%sn">%
 71
     4
340
12497
 90
       25
340
12497
 90
       25
280
     0
  0
LAYOUT
  5
12850
102
{ACAD_XDICTIONARY
360
128AC
102
}
102
{ACAD_REACTORS
330
1249B
102
}
330
1249B
100
AcDbPlotSettings
  1

  2
Canon LBP9100C
  4

  6

 40
0.0
 41
0.0
 42
0.0
 43
0.0
 44
0.0
 45
0.0
 46
0.0
 47
0.0
 48
0.0
 49
0.0
140
0.0
141
0.0
142
1.0
143
1.0
 70
  1712
 72
     0
 73
     0
 74
     0
  7

 75
     0
147
1.0
148
0.0
149
0.0
100
AcDbLayout
  1
Model
 70
     1
 71
     0
 10
0.0
 20
0.0
 11
12.0
 21
9.0
 12
0.0
 22
0.0
 32
0.0
 14
0.0
 24
0.0
 34
0.0
 15
0.0
 25
0.0
 35
0.0
146
0.0
 13
0.0
 23
0.0
 33
0.0
 16
1.0
 26
0.0
 36
0.0
 17
0.0
 27
1.0
 37
0.0
 76
     0
330
124A0
331
127F9
  0
LAYOUT
  5
12851
102
{ACAD_XDICTIONARY
360
128AE
102
}
102
{ACAD_REACTORS
330
1249B
102
}
330
1249B
100
AcDbPlotSettings
  1

  2
Canon LBP9100C
  4

  6

 40
0.0
 41
0.0
 42
0.0
 43
0.0
 44
0.0
 45
0.0
 46
0.0
 47
0.0
 48
0.0
 49
0.0
140
0.0
141
0.0
142
1.0
143
1.0
 70
   688
 72
     0
 73
     0
 74
     5
  7

 75
    16
147
1.0
148
0.0
149
0.0
100
AcDbLayout
  1
レイアウト1
 70
     0
 71
     1
 10
0.0
 20
0.0
 11
420.0
 21
297.0
 12
0.0
 22
0.0
 32
0.0
 14
1.000000000000000E+20
 24
1.000000000000000E+20
 34
1.000000000000000E+20
 15
-1.000000000000000E+20
 25
-1.000000000000000E+20
 35
-1.000000000000000E+20
146
0.0
 13
0.0
 23
0.0
 33
0.0
 16
1.0
 26
0.0
 36
0.0
 17
0.0
 27
1.0
 37
0.0
 76
     0
330
1249C
  0
MATERIAL
  5
1280C
102
{ACAD_XDICTIONARY
360
1280D
102
}
102
{ACAD_REACTORS
330
12803
102
}
330
12803
100
AcDbMaterial
  1
ByBlock
 72
     0
 43
0.0208333333333333
 43
0.0
 43
0.0
 43
0.0
 43
0.0
 43
0.0208333333333333
 43
0.0
 43
0.0
 43
0.0
 43
0.0
 43
1.0
 43
0.0
 43
0.0
 43
0.0
 43
0.0
 43
1.0
 77
     0
 47
0.0208333333333333
 47
0.0
 47
0.0
 47
0.0
 47
0.0
 47
0.0208333333333333
 47
0.0
 47
0.0
 47
0.0
 47
0.0
 47
1.0
 47
0.0
 47
0.0
 47
0.0
 47
0.0
 47
1.0
171
     0
 49
0.0208333333333333
 49
0.0
 49
0.0
 49
0.0
 49
0.0
 49
0.0208333333333333
 49
0.0
 49
0.0
 49
0.0
 49
0.0
 49
1.0
 49
0.0
 49
0.0
 49
0.0
 49
0.0
 49
1.0
175
     0
142
0.0208333333333333
142
0.0
142
0.0
142
0.0
142
0.0
142
0.0208333333333333
142
0.0
142
0.0
142
0.0
142
0.0
142
1.0
142
0.0
142
0.0
142
0.0
142
0.0
142
1.0
179
     0
144
0.0208333333333333
144
0.0
144
0.0
144
0.0
144
0.0
144
0.0208333333333333
144
0.0
144
0.0
144
0.0
144
0.0
144
1.0
144
0.0
144
0.0
144
0.0
144
0.0
144
1.0
147
0.0208333333333333
147
0.0
147
0.0
147
0.0
147
0.0
147
0.0208333333333333
147
0.0
147
0.0
147
0.0
147
0.0
147
1.0
147
0.0
147
0.0
147
0.0
147
0.0
147
1.0
  0
MATERIAL
  5
12804
102
{ACAD_XDICTIONARY
360
12805
102
}
102
{ACAD_REACTORS
330
12803
102
}
330
12803
100
AcDbMaterial
  1
ByLayer
 72
     0
 43
0.0208333333333333
 43
0.0
 43
0.0
 43
0.0
 43
0.0
 43
0.0208333333333333
 43
0.0
 43
0.0
 43
0.0
 43
0.0
 43
1.0
 43
0.0
 43
0.0
 43
0.0
 43
0.0
 43
1.0
 77
     0
 47
0.0208333333333333
 47
0.0
 47
0.0
 47
0.0
 47
0.0
 47
0.0208333333333333
 47
0.0
 47
0.0
 47
0.0
 47
0.0
 47
1.0
 47
0.0
 47
0.0
 47
0.0
 47
0.0
 47
1.0
171
     0
 49
0.0208333333333333
 49
0.0
 49
0.0
 49
0.0
 49
0.0
 49
0.0208333333333333
 49
0.0
 49
0.0
 49
0.0
 49
0.0
 49
1.0
 49
0.0
 49
0.0
 49
0.0
 49
0.0
 49
1.0
175
     0
142
0.0208333333333333
142
0.0
142
0.0
142
0.0
142
0.0
142
0.0208333333333333
142
0.0
142
0.0
142
0.0
142
0.0
142
1.0
142
0.0
142
0.0
142
0.0
142
0.0
142
1.0
179
     0
144
0.0208333333333333
144
0.0
144
0.0
144
0.0
144
0.0
144
0.0208333333333333
144
0.0
144
0.0
144
0.0
144
0.0
144
1.0
144
0.0
144
0.0
144
0.0
144
0.0
144
1.0
147
0.0208333333333333
147
0.0
147
0.0
147
0.0
147
0.0
147
0.0208333333333333
147
0.0
147
0.0
147
0.0
147
0.0
147
1.0
147
0.0
147
0.0
147
0.0
147
0.0
147
1.0
  0
MATERIAL
  5
12814
102
{ACAD_XDICTIONARY
360
12815
102
}
102
{ACAD_REACTORS
330
12803
102
}
330
12803
100
AcDbMaterial
  1
Global
 72
     0
 43
0.0208333333333333
 43
0.0
 43
0.0
 43
0.0
 43
0.0
 43
0.0208333333333333
 43
0.0
 43
0.0
 43
0.0
 43
0.0
 43
1.0
 43
0.0
 43
0.0
 43
0.0
 43
0.0
 43
1.0
 77
     0
 47
0.0208333333333333
 47
0.0
 47
0.0
 47
0.0
 47
0.0
 47
0.0208333333333333
 47
0.0
 47
0.0
 47
0.0
 47
0.0
 47
1.0
 47
0.0
 47
0.0
 47
0.0
 47
0.0
 47
1.0
171
     0
 49
0.0208333333333333
 49
0.0
 49
0.0
 49
0.0
 49
0.0
 49
0.0208333333333333
 49
0.0
 49
0.0
 49
0.0
 49
0.0
 49
1.0
 49
0.0
 49
0.0
 49
0.0
 49
0.0
 49
1.0
175
     0
142
0.0208333333333333
142
0.0
142
0.0
142
0.0
142
0.0
142
0.0208333333333333
142
0.0
142
0.0
142
0.0
142
0.0
142
1.0
142
0.0
142
0.0
142
0.0
142
0.0
142
1.0
179
     0
144
0.0208333333333333
144
0.0
144
0.0
144
0.0
144
0.0
144
0.0208333333333333
144
0.0
144
0.0
144
0.0
144
0.0
144
1.0
144
0.0
144
0.0
144
0.0
144
0.0
144
1.0
147
0.0208333333333333
147
0.0
147
0.0
147
0.0
147
0.0
147
0.0208333333333333
147
0.0
147
0.0
147
0.0
147
0.0
147
1.0
147
0.0
147
0.0
147
0.0
147
0.0
147
1.0
  0
MLEADERSTYLE
  5
1284B
102
{ACAD_REACTORS
330
1284A
102
}
330
1284A
100
AcDbMLeaderStyle
170
     2
171
     1
172
     0
 90
        2
 40
0.0
 41
0.0
173
     1
 91
-1056964608
340
12495
 92
       -2
290
     1
 42
0.09
291
     1
 43
0.36
  3
Standard
 44
0.18
300

342
12493
174
     1
178
     6
175
     1
176
     0
 93
-1056964608
 45
0.18
292
     0
297
     0
 46
0.18
 94
-1056964608
 47
1.0
 49
1.0
140
1.0
293
     1
141
0.0
294
     1
177
     0
142
1.0
295
     0
296
     0
143
0.125
1001
ACAD_MLEADERVER
1070
     2
  0
MLINESTYLE
  5
12499
102
{ACAD_REACTORS
330
12498
102
}
330
12498
100
AcDbMlineStyle
  2
STANDARD
 70
     0
  3

 62
   256
 51
90.0
 52
90.0
 71
     2
 49
0.5
 62
   256
  6
BYLAYER
 49
-0.5
 62
   256
  6
BYLAYER
  0
ACDBPLACEHOLDER
  5
12802
102
{ACAD_REACTORS
330
12801
102
}
330
12801
  0
SCALE
  5
12839
102
{ACAD_REACTORS
330
12838
102
}
330
12838
100
AcDbScale
 70
     0
300
1:1
140
1.0
141
1.0
290
     1
  0
SCALE
  5
1283A
102
{ACAD_REACTORS
330
12838
102
}
330
12838
100
AcDbScale
 70
     0
300
1/128" = 1'-0"
140
0.0078125
141
12.0
290
     0
  0
SCALE
  5
1283B
102
{ACAD_REACTORS
330
12838
102
}
330
12838
100
AcDbScale
 70
     0
300
1/64" = 1'-0"
140
0.015625
141
12.0
290
     0
  0
SCALE
  5
1283C
102
{ACAD_REACTORS
330
12838
102
}
330
12838
100
AcDbScale
 70
     0
300
1/32" = 1'-0"
140
0.03125
141
12.0
290
     0
  0
SCALE
  5
1283D
102
{ACAD_REACTORS
330
12838
102
}
330
12838
100
AcDbScale
 70
     0
300
1/16" = 1'-0"
140
0.0625
141
12.0
290
     0
  0
SCALE
  5
1283E
102
{ACAD_REACTORS
330
12838
102
}
330
12838
100
AcDbScale
 70
     0
300
3/32" = 1'-0"
140
0.09375
141
12.0
290
     0
  0
SCALE
  5
1283F
102
{ACAD_REACTORS
330
12838
102
}
330
12838
100
AcDbScale
 70
     0
300
1/8" = 1'-0"
140
0.125
141
12.0
290
     0
  0
SCALE
  5
12840
102
{ACAD_REACTORS
330
12838
102
}
330
12838
100
AcDbScale
 70
     0
300
3/16" = 1'-0"
140
0.1875
141
12.0
290
     0
  0
SCALE
  5
12841
102
{ACAD_REACTORS
330
12838
102
}
330
12838
100
AcDbScale
 70
     0
300
1/4" = 1'-0"
140
0.25
141
12.0
290
     0
  0
SCALE
  5
12842
102
{ACAD_REACTORS
330
12838
102
}
330
12838
100
AcDbScale
 70
     0
300
3/8" = 1'-0"
140
0.375
141
12.0
290
     0
  0
SCALE
  5
12843
102
{ACAD_REACTORS
330
12838
102
}
330
12838
100
AcDbScale
 70
     0
300
1/2" = 1'-0"
140
0.5
141
12.0
290
     0
  0
SCALE
  5
12844
102
{ACAD_REACTORS
330
12838
102
}
330
12838
100
AcDbScale
 70
     0
300
3/4" = 1'-0"
140
0.75
141
12.0
290
     0
  0
SCALE
  5
12845
102
{ACAD_REACTORS
330
12838
102
}
330
12838
100
AcDbScale
 70
     0
300
1" = 1'-0"
140
1.0
141
12.0
290
     0
  0
SCALE
  5
12846
102
{ACAD_REACTORS
330
12838
102
}
330
12838
100
AcDbScale
 70
     0
300
1-1/2" = 1'-0"
140
1.5
141
12.0
290
     0
  0
SCALE
  5
12847
102
{ACAD_REACTORS
330
12838
102
}
330
12838
100
AcDbScale
 70
     0
300
3" = 1'-0"
140
3.0
141
12.0
290
     0
  0
SCALE
  5
12848
102
{ACAD_REACTORS
330
12838
102
}
330
12838
100
AcDbScale
 70
     0
300
6" = 1'-0"
140
6.0
141
12.0
290
     0
  0
SCALE
  5
12849
102
{ACAD_REACTORS
330
12838
102
}
330
12838
100
AcDbScale
 70
     0
300
1'-0" = 1'-0"
140
12.0
141
12.0
290
     0
  0
ACDBSECTIONVIEWSTYLE
  5
1284D
102
{ACAD_XDICTIONARY
360
128A8
102
}
102
{ACAD_REACTORS
330
1284C
102
}
330
1284C
100
AcDbModelDocViewStyle
 70
     0
  3
Imperial24
290
     0
100
AcDbSectionViewStyle
 70
     0
 71
     0
 90
       78
 71
     1
340
12493
 40
0.24
340
0
340
0
 40
0.24
300
I, O, Q, S, X, Z
 40
0.48
 90
        3
 40
0.18
 90
        1
 71
     2
340
12497
 90
       25
340
12497
 90
       50
 40
0.24
 40
0.0
 40
0.24
 71
     3
340
12493
 40
0.24
 90
        1
 40
0.75
 90
        1
300
%<\AcVar ViewType \f "%tc1">% %<\AcVar ViewSectionStartId>%-%<\AcVar ViewSectionEndId>%\PSCALE %<\AcVar ViewScale \f "%sn">%
 71
     4
300
ANSI31
 40
1.0
 90
        0
290
     0
290
     0
 90
        6
 40
0.0
 40
1.570796326794896
 40
0.2617993877991494
 40
1.308996938995747
 40
-0.2617993877991494
 40
1.832595714594046
  0
TABLESTYLE
  5
12837
102
{ACAD_XDICTIONARY
360
1286F
102
}
102
{ACAD_REACTORS
330
12836
102
}
330
12836
100
AcDbTableStyle
  3
Standard
 70
     0
 71
     0
 40
0.06
 41
0.06
280
     0
281
     0
  7
STANDARD
140
0.18
170
     2
 62
     0
 63
     7
283
     0
274
    -2
284
     1
 64
     0
275
    -2
285
     1
 65
     0
276
    -2
286
     1
 66
     0
277
    -2
287
     1
 67
     0
278
    -2
288
     1
 68
     0
279
    -2
289
     1
 69
     0
  7
STANDARD
140
0.25
170
     5
 62
     0
 63
     7
283
     0
274
    -2
284
     1
 64
     0
275
    -2
285
     1
 65
     0
276
    -2
286
     1
 66
     0
277
    -2
287
     1
 67
     0
278
    -2
288
     1
 68
     0
279
    -2
289
     1
 69
     0
  7
STANDARD
140
0.18
170
     5
 62
     0
 63
     7
283
     0
274
    -2
284
     1
 64
     0
275
    -2
285
     1
 65
     0
276
    -2
286
     1
 66
     0
277
    -2
287
     1
 67
     0
278
    -2
288
     1
 68
     0
279
    -2
289
     1
 69
     0
  0
VISUALSTYLE
  5
12822
102
{ACAD_XDICTIONARY
360
12880
102
}
102
{ACAD_REACTORS
330
1281C
102
}
330
1281C
100
AcDbVisualStyle
  2
2dWireframe
 70
     4
 71
     0
 72
     2
 73
     0
 90
        0
 40
-0.6
 41
-30.0
 62
     5
 63
     7
 74
     1
 91
        4
 64
     7
 65
   257
 75
     1
175
     1
 42
1.0
 92
        0
 66
   257
 43
1.0
 76
     1
 77
     6
 78
     2
 67
     7
 79
     5
170
     0
171
     0
290
     0
174
     0
 93
        1
 44
0.0
173
     0
291
     0
 45
0.0
1001
ACAD
1000
AcDbSavedByObjectVersion
1070
     0
  0
VISUALSTYLE
  5
12821
102
{ACAD_XDICTIONARY
360
1287E
102
}
102
{ACAD_REACTORS
330
1281C
102
}
330
1281C
100
AcDbVisualStyle
  2
Basic
 70
     7
 71
     1
 72
     0
 73
     1
 90
        0
 40
-0.6
 41
-30.0
 62
     5
 63
     7
 74
     0
 91
        4
 64
     7
 65
   257
 75
     1
175
     1
 42
1.0
 92
        8
 66
     7
 43
1.0
 76
     1
 77
     6
 78
     2
 67
     7
 79
     5
170
     0
171
     0
290
     0
174
     0
 93
        1
 44
0.0
173
     0
291
     1
 45
0.0
1001
ACAD
1000
AcDbSavedByObjectVersion
1070
     0
  0
VISUALSTYLE
  5
12828
102
{ACAD_XDICTIONARY
360
1288C
102
}
102
{ACAD_REACTORS
330
1281C
102
}
330
1281C
100
AcDbVisualStyle
  2
Brighten
 70
    12
 71
     2
 72
     2
 73
     0
 90
        0
 40
-0.6
 41
-30.0
 62
     5
 63
     7
 74
     1
 91
        4
 64
     7
 65
   257
 75
     1
175
     1
 42
1.0
 92
        8
 66
     7
 43
1.0
 76
     1
 77
     6
 78
     2
 67
     7
 79
     5
170
     0
171
     0
290
     0
174
     0
 93
        1
 44
50.0
173
     0
291
     1
 45
0.0
1001
ACAD
1000
AcDbSavedByObjectVersion
1070
     0
  0
VISUALSTYLE
  5
1282C
102
{ACAD_XDICTIONARY
360
12894
102
}
102
{ACAD_REACTORS
330
1281C
102
}
330
1281C
100
AcDbVisualStyle
  2
ColorChange
 70
    16
 71
     2
 72
     2
 73
     3
 90
        0
 40
-0.6
 41
-30.0
 62
     5
 63
     8
 74
     1
 91
        4
 64
     7
 65
   257
 75
     1
175
     1
 42
1.0
 92
        8
 66
     8
 43
1.0
 76
     1
 77
     6
 78
     2
 67
     7
 79
     5
170
     0
171
     0
290
     0
174
     0
 93
        1
 44
0.0
173
     0
291
     1
 45
0.0
1001
ACAD
1000
AcDbSavedByObjectVersion
1070
     0
  0
VISUALSTYLE
  5
12825
102
{ACAD_XDICTIONARY
360
12886
102
}
102
{ACAD_REACTORS
330
1281C
102
}
330
1281C
100
AcDbVisualStyle
  2
Conceptual
 70
     9
 71
     3
 72
     2
 73
     0
 90
        0
 40
-0.6
 41
-30.0
 62
     5
 63
     7
 74
     2
 91
        2
 64
     7
 65
   257
 75
     1
175
     1
 42
179.0
 92
        8
 66
     7
 43
1.0
 76
     1
 77
     6
 78
     2
 67
     7
 79
     3
170
     0
171
     0
290
     0
174
     0
 93
        1
 44
0.0
173
     0
291
     0
 45
0.0
1001
ACAD
1000
AcDbSavedByObjectVersion
1070
     0
  0
VISUALSTYLE
  5
12827
102
{ACAD_XDICTIONARY
360
1288A
102
}
102
{ACAD_REACTORS
330
1281C
102
}
330
1281C
100
AcDbVisualStyle
  2
Dim
 70
    11
 71
     2
 72
     2
 73
     0
 90
        0
 40
-0.6
 41
-30.0
 62
     5
 63
     7
 74
     1
 91
        4
 64
     7
 65
   257
 75
     1
175
     1
 42
1.0
 92
        8
 66
     7
 43
1.0
 76
     1
 77
     6
 78
     2
 67
     7
 79
     5
170
     0
171
     0
290
     0
174
     0
 93
        1
 44
-50.0
173
     0
291
     1
 45
0.0
1001
ACAD
1000
AcDbSavedByObjectVersion
1070
     0
  0
VISUALSTYLE
  5
12834
102
{ACAD_XDICTIONARY
360
128A4
102
}
102
{ACAD_REACTORS
330
1281C
102
}
330
1281C
100
AcDbVisualStyle
  2
EdgeColorOff
 70
    22
 71
     2
 72
     2
 73
     0
 90
        0
 40
-0.6
 41
-30.0
 62
     5
 63
     7
 74
     1
 91
        4
 64
     7
 65
   257
 75
     1
175
     1
 42
1.0
 92
        8
 66
     7
 43
1.0
 76
     1
 77
     6
 78
     2
 67
     7
 79
     5
170
     0
171
     0
290
     0
174
     0
 93
        1
 44
0.0
173
     0
291
     1
 45
0.0
1001
ACAD
1000
AcDbSavedByObjectVersion
1070
     0
  0
VISUALSTYLE
  5
1282B
102
{ACAD_XDICTIONARY
360
12892
102
}
102
{ACAD_REACTORS
330
1281C
102
}
330
1281C
100
AcDbVisualStyle
  2
Facepattern
 70
    15
 71
     2
 72
     2
 73
     0
 90
        0
 40
-0.6
 41
-30.0
 62
     5
 63
     7
 74
     1
 91
        4
 64
     7
 65
   257
 75
     1
175
     1
 42
1.0
 92
        8
 66
     7
 43
1.0
 76
     1
 77
     6
 78
     2
 67
     7
 79
     5
170
     0
171
     0
290
     0
174
     0
 93
        1
 44
0.0
173
     0
291
     1
 45
0.0
1001
ACAD
1000
AcDbSavedByObjectVersion
1070
     0
  0
VISUALSTYLE
  5
1281D
102
{ACAD_XDICTIONARY
360
12876
102
}
102
{ACAD_REACTORS
330
1281C
102
}
330
1281C
100
AcDbVisualStyle
  2
Flat
 70
     0
 71
     2
 72
     1
 73
     1
 90
        2
 40
-0.6
 41
30.0
 62
     5
 63
     7
 74
     0
 91
        0
 64
     7
 65
   257
 75
     1
175
     1
 42
1.0
 92
        8
 66
     7
 43
1.0
 76
     1
 77
     6
 78
     2
 67
     7
 79
     5
170
     0
171
     0
290
     0
174
     0
 93
       13
 44
0.0
173
     0
291
     1
 45
0.0
1001
ACAD
1000
AcDbSavedByObjectVersion
1070
     0
  0
VISUALSTYLE
  5
1281E
102
{ACAD_XDICTIONARY
360
12878
102
}
102
{ACAD_REACTORS
330
1281C
102
}
330
1281C
100
AcDbVisualStyle
  2
FlatWithEdges
 70
     1
 71
     2
 72
     1
 73
     1
 90
        2
 40
-0.6
 41
30.0
 62
     5
 63
     7
 74
     1
 91
        0
 64
     7
 65
   257
 75
     1
175
     1
 42
1.0
 92
        0
 66
   257
 43
1.0
 76
     1
 77
     6
 78
     2
 67
     7
 79
     5
170
     0
171
     0
290
     0
174
     0
 93
       13
 44
0.0
173
     0
291
     1
 45
0.0
1001
ACAD
1000
AcDbSavedByObjectVersion
1070
     0
  0
VISUALSTYLE
  5
1281F
102
{ACAD_XDICTIONARY
360
1287A
102
}
102
{ACAD_REACTORS
330
1281C
102
}
330
1281C
100
AcDbVisualStyle
  2
Gouraud
 70
     2
 71
     2
 72
     2
 73
     1
 90
        2
 40
-0.6
 41
30.0
 62
     5
 63
     7
 74
     0
 91
        0
 64
     7
 65
   257
 75
     1
175
     1
 42
1.0
 92
        0
 66
     7
 43
1.0
 76
     1
 77
     6
 78
     2
 67
     7
 79
     5
170
     0
171
     0
290
     0
174
     0
 93
       13
 44
0.0
173
     0
291
     1
 45
0.0
1001
ACAD
1000
AcDbSavedByObjectVersion
1070
     0
  0
VISUALSTYLE
  5
12820
102
{ACAD_XDICTIONARY
360
1287C
102
}
102
{ACAD_REACTORS
330
1281C
102
}
330
1281C
100
AcDbVisualStyle
  2
GouraudWithEdges
 70
     3
 71
     2
 72
     2
 73
     1
 90
        2
 40
-0.6
 41
30.0
 62
     5
 63
     7
 74
     1
 91
        0
 64
     7
 65
   257
 75
     1
175
     1
 42
1.0
 92
        0
 66
   257
 43
1.0
 76
     1
 77
     6
 78
     2
 67
     7
 79
     5
170
     0
171
     0
290
     0
174
     0
 93
       13
 44
0.0
173
     0
291
     1
 45
0.0
1001
ACAD
1000
AcDbSavedByObjectVersion
1070
     0
  0
VISUALSTYLE
  5
12824
102
{ACAD_XDICTIONARY
360
12884
102
}
102
{ACAD_REACTORS
330
1281C
102
}
330
1281C
100
AcDbVisualStyle
  2
Hidden
 70
     6
 71
     1
 72
     2
 73
     2
 90
        0
 40
-0.6
 41
-30.0
 62
     5
 63
     7
 74
     2
 91
        2
 64
     7
 65
   257
 75
     2
175
     1
 42
40.0
 92
        0
 66
   257
 43
1.0
 76
     1
 77
     6
 78
     2
 67
     7
 79
     3
170
     0
171
     0
290
     0
174
     0
 93
        1
 44
0.0
173
     0
291
     0
 45
0.0
1001
ACAD
1000
AcDbSavedByObjectVersion
1070
     0
  0
VISUALSTYLE
  5
12832
102
{ACAD_XDICTIONARY
360
128A0
102
}
102
{ACAD_REACTORS
330
1281C
102
}
330
1281C
100
AcDbVisualStyle
  2
JitterOff
 70
    20
 71
     2
 72
     2
 73
     0
 90
        0
 40
-0.6
 41
-30.0
 62
     5
 63
     7
 74
     1
 91
        4
 64
     7
 65
   257
 75
     1
175
     1
 42
1.0
 92
       10
 66
     7
 43
1.0
 76
     1
 77
     6
 78
     2
 67
     7
 79
     5
170
     0
171
     0
290
     0
174
     0
 93
        1
 44
0.0
173
     0
291
     1
 45
0.0
1001
ACAD
1000
AcDbSavedByObjectVersion
1070
     0
  0
VISUALSTYLE
  5
1282A
102
{ACAD_XDICTIONARY
360
12890
102
}
102
{ACAD_REACTORS
330
1281C
102
}
330
1281C
100
AcDbVisualStyle
  2
Linepattern
 70
    14
 71
     2
 72
     2
 73
     0
 90
        0
 40
-0.6
 41
-30.0
 62
     5
 63
     7
 74
     1
 91
        4
 64
     7
 65
   257
 75
     7
175
     7
 42
1.0
 92
        8
 66
     7
 43
1.0
 76
     1
 77
     6
 78
     2
 67
     7
 79
     5
170
     0
171
     0
290
     0
174
     0
 93
        1
 44
0.0
173
     0
291
     1
 45
0.0
1001
ACAD
1000
AcDbSavedByObjectVersion
1070
     0
  0
VISUALSTYLE
  5
12833
102
{ACAD_XDICTIONARY
360
128A2
102
}
102
{ACAD_REACTORS
330
1281C
102
}
330
1281C
100
AcDbVisualStyle
  2
OverhangOff
 70
    21
 71
     2
 72
     2
 73
     0
 90
        0
 40
-0.6
 41
-30.0
 62
     5
 63
     7
 74
     1
 91
        4
 64
     7
 65
   257
 75
     1
175
     1
 42
1.0
 92
        9
 66
     7
 43
1.0
 76
     1
 77
     6
 78
     2
 67
     7
 79
     5
170
     0
171
     0
290
     0
174
     0
 93
        1
 44
0.0
173
     0
291
     1
 45
0.0
1001
ACAD
1000
AcDbSavedByObjectVersion
1070
     0
  0
VISUALSTYLE
  5
12826
102
{ACAD_XDICTIONARY
360
12888
102
}
102
{ACAD_REACTORS
330
1281C
102
}
330
1281C
100
AcDbVisualStyle
  2
Realistic
 70
     8
 71
     2
 72
     3
 73
     0
 90
        2
 40
-0.6
 41
30.0
 62
     5
 63
     7
 74
     0
 91
        0
 64
     7
 65
   257
 75
     1
175
     1
 42
1.0
 92
        8
 66
   257
 43
1.0
 76
     1
 77
     6
 78
     2
 67
     7
 79
     3
170
     0
171
     0
290
     0
174
     0
 93
       13
 44
0.0
173
     0
291
     0
 45
0.0
1001
ACAD
1000
AcDbSavedByObjectVersion
1070
     0
  0
VISUALSTYLE
  5
12831
102
{ACAD_XDICTIONARY
360
1289E
102
}
102
{ACAD_REACTORS
330
1281C
102
}
330
1281C
100
AcDbVisualStyle
  2
Shaded
 70
    27
 71
     2
 72
     2
 73
     1
 90
        2
 40
-0.6
 41
30.0
 62
     5
 63
     7
 74
     0
 91
        4
 64
     7
 65
   257
 75
     1
175
     1
 42
1.0
 92
        8
 66
   257
 43
1.0
 76
     1
 77
     6
 78
     2
 67
     8
 79
     3
170
     0
171
     0
290
     0
174
     0
 93
        5
 44
0.0
173
     0
291
     0
 45
0.0
1001
ACAD
1000
AcDbSavedByObjectVersion
1070
     0
  0
VISUALSTYLE
  5
12830
102
{ACAD_XDICTIONARY
360
1289C
102
}
102
{ACAD_REACTORS
330
1281C
102
}
330
1281C
100
AcDbVisualStyle
  2
Shaded with edges
 70
    26
 71
     2
 72
     2
 73
     1
 90
        2
 40
-0.6
 41
30.0
 62
     5
 63
     7
 74
     1
 91
       10
 64
     7
 65
   257
 75
     2
175
     1
 42
1.0
 92
        8
 66
   257
 43
1.0
 76
     1
 77
     6
 78
     2
 67
     7
 79
     3
170
     0
171
     0
290
     0
174
     0
 93
        5
 44
0.0
173
     0
291
     0
 45
0.0
1001
ACAD
1000
AcDbSavedByObjectVersion
1070
     0
  0
VISUALSTYLE
  5
1282D
102
{ACAD_XDICTIONARY
360
12896
102
}
102
{ACAD_REACTORS
330
1281C
102
}
330
1281C
100
AcDbVisualStyle
  2
Shades of Gray
 70
    23
 71
     2
 72
     2
 73
     3
 90
        0
 40
-0.6
 41
-30.0
 62
     5
 63
     7
 74
     2
 91
        2
 64
     7
 65
     7
 75
     1
175
     1
 42
40.0
 92
        8
 66
     7
 43
1.0
 76
     1
 77
     6
 78
     2
 67
     7
 79
     3
170
     0
171
     0
290
     0
174
     0
 93
        1
 44
0.0
173
     0
291
     0
 45
0.0
1001
ACAD
1000
AcDbSavedByObjectVersion
1070
     0
  0
VISUALSTYLE
  5
1282E
102
{ACAD_XDICTIONARY
360
12898
102
}
102
{ACAD_REACTORS
330
1281C
102
}
330
1281C
100
AcDbVisualStyle
  2
Sketchy
 70
    24
 71
     1
 72
     2
 73
     2
 90
        0
 40
-0.6
 41
-30.0
 62
     5
 63
     7
 74
     2
 91
        2
 64
     7
 65
     7
 75
     1
175
     1
 42
40.0
 92
       11
 66
     7
 43
1.0
 76
     1
 77
     6
 78
     2
 67
     7
 79
     6
170
     0
171
     0
290
     0
174
     0
 93
        1
 44
0.0
173
     0
291
     0
 45
0.0
1001
ACAD
1000
AcDbSavedByObjectVersion
1070
     0
  0
VISUALSTYLE
  5
12829
102
{ACAD_XDICTIONARY
360
1288E
102
}
102
{ACAD_REACTORS
330
1281C
102
}
330
1281C
100
AcDbVisualStyle
  2
Thicken
 70
    13
 71
     2
 72
     2
 73
     0
 90
        0
 40
-0.6
 41
-30.0
 62
     5
 63
     7
 74
     1
 91
        4
 64
     7
 65
   257
 75
     1
175
     1
 42
1.0
 92
       12
 66
     7
 43
1.0
 76
     1
 77
     6
 78
     2
 67
     7
 79
     5
170
     0
171
     0
290
     0
174
     0
 93
        1
 44
0.0
173
     0
291
     1
 45
0.0
1001
ACAD
1000
AcDbSavedByObjectVersion
1070
     0
  0
VISUALSTYLE
  5
12823
102
{ACAD_XDICTIONARY
360
12882
102
}
102
{ACAD_REACTORS
330
1281C
102
}
330
1281C
100
AcDbVisualStyle
  2
Wireframe
 70
     5
 71
     0
 72
     2
 73
     0
 90
        0
 40
-0.6
 41
-30.0
 62
     5
 63
     7
 74
     1
 91
        4
 64
     7
 65
   257
 75
     1
175
     1
 42
1.0
 92
        0
 66
   257
 43
1.0
 76
     1
 77
     6
 78
     2
 67
     7
 79
     3
170
     0
171
     0
290
     0
174
     0
 93
        1
 44
0.0
173
     0
291
     0
 45
0.0
1001
ACAD
1000
AcDbSavedByObjectVersion
1070
     0
  0
VISUALSTYLE
  5
1282F
102
{ACAD_XDICTIONARY
360
1289A
102
}
102
{ACAD_REACTORS
330
1281C
102
}
330
1281C
100
AcDbVisualStyle
  2
X-Ray
 70
    25
 71
     2
 72
     2
 73
     1
 90
        1
 40
0.5
 41
-30.0
 62
     5
 63
     7
 74
     1
 91
        0
 64
     7
 65
   257
 75
     1
175
     1
 42
1.0
 92
        8
 66
     7
 43
1.0
 76
     1
 77
     6
 78
     2
 67
     7
 79
     3
170
     0
171
     0
290
     0
174
     0
 93
       13
 44
0.0
173
     0
291
     0
 45
0.0
1001
ACAD
1000
AcDbSavedByObjectVersion
1070
     0
  0
DICTIONARYVAR
  5
12869
102
{ACAD_REACTORS
330
12864
102
}
330
12864
100
DictionaryVariables
280
     0
  1
1:1
  0
DICTIONARYVAR
  5
12866
102
{ACAD_REACTORS
330
12864
102
}
330
12864
100
DictionaryVariables
280
     0
  1
STANDARD
  0
DICTIONARYVAR
  5
12865
102
{ACAD_REACTORS
330
12864
102
}
330
12864
100
DictionaryVariables
280
     0
  1
STANDARD
  0
DICTIONARYVAR
  5
12867
102
{ACAD_REACTORS
330
12864
102
}
330
12864
100
DictionaryVariables
280
     0
  1
Imperial24
  0
DICTIONARYVAR
  5
12868
102
{ACAD_REACTORS
330
12864
102
}
330
12864
100
DictionaryVariables
280
     0
  1
Imperial24
  0
DICTIONARYVAR
  5
1286C
102
{ACAD_REACTORS
330
12864
102
}
330
12864
100
DictionaryVariables
280
     0
  1
1
  0
DICTIONARYVAR
  5
1286B
102
{ACAD_REACTORS
330
12864
102
}
330
12864
100
DictionaryVariables
280
     0
  1
0
  0
DICTIONARYVAR
  5
1286A
102
{ACAD_REACTORS
330
12864
102
}
330
12864
100
DictionaryVariables
280
     0
  1
127
  0
DICTIONARYVAR
  5
1286D
102
{ACAD_REACTORS
330
12864
102
}
330
12864
100
DictionaryVariables
280
     0
  1
2
  0
DICTIONARY
  5
128AA
330
1284F
100
AcDbDictionary
280
     1
281
     1
  3
ACAD_XREC_ROUNDTRIP
360
128AB
  0
DICTIONARY
  5
128AC
330
12850
100
AcDbDictionary
280
     1
281
     1
  3
ACAD_XREC_ROUNDTRIP
360
128AD
  0
DICTIONARY
  5
128AE
330
12851
100
AcDbDictionary
280
     1
281
     1
  3
ACAD_XREC_ROUNDTRIP
360
128AF
  0
DICTIONARY
  5
1280D
330
1280C
100
AcDbDictionary
280
     1
281
     1
  3
ACAD_XREC_ROUNDTRIP
360
12874
  3
BUMPTILE
360
1280F
  3
DIFFUSETILE
360
1280E
  3
OPACITYTILE
360
12812
  3
REFLECTIONTILE
360
12811
  3
REFRACTIONTILE
360
12813
  3
SPECULARTILE
360
12810
  0
DICTIONARY
  5
12805
330
12804
100
AcDbDictionary
280
     1
281
     1
  3
ACAD_XREC_ROUNDTRIP
360
12873
  3
BUMPTILE
360
12807
  3
DIFFUSETILE
360
12806
  3
OPACITYTILE
360
1280A
  3
REFLECTIONTILE
360
12809
  3
REFRACTIONTILE
360
1280B
  3
SPECULARTILE
360
12808
  0
DICTIONARY
  5
12815
330
12814
100
AcDbDictionary
280
     1
281
     1
  3
ACAD_XREC_ROUNDTRIP
360
12875
  3
BUMPTILE
360
12817
  3
DIFFUSETILE
360
12816
  3
OPACITYTILE
360
1281A
  3
REFLECTIONTILE
360
12819
  3
REFRACTIONTILE
360
1281B
  3
SPECULARTILE
360
12818
  0
DICTIONARY
  5
128A8
330
1284D
100
AcDbDictionary
280
     1
281
     1
  3
ACAD_XREC_ROUNDTRIP
360
128A9
  0
DICTIONARY
  5
1286F
330
12837
100
AcDbDictionary
280
     1
281
     1
  3
ACAD_ROUNDTRIP_2008_TABLESTYLE_CELLSTYLEMAP
360
12870
  3
ACAD_XREC_ROUNDTRIP
360
128A6
  0
DICTIONARY
  5
12880
330
12822
100
AcDbDictionary
280
     1
281
     1
  3
ACAD_XREC_ROUNDTRIP
360
12881
  0
DICTIONARY
  5
1287E
330
12821
100
AcDbDictionary
280
     1
281
     1
  3
ACAD_XREC_ROUNDTRIP
360
1287F
  0
DICTIONARY
  5
1288C
330
12828
100
AcDbDictionary
280
     1
281
     1
  3
ACAD_XREC_ROUNDTRIP
360
1288D
  0
DICTIONARY
  5
12894
330
1282C
100
AcDbDictionary
280
     1
281
     1
  3
ACAD_XREC_ROUNDTRIP
360
12895
  0
DICTIONARY
  5
12886
330
12825
100
AcDbDictionary
280
     1
281
     1
  3
ACAD_XREC_ROUNDTRIP
360
12887
  0
DICTIONARY
  5
1288A
330
12827
100
AcDbDictionary
280
     1
281
     1
  3
ACAD_XREC_ROUNDTRIP
360
1288B
  0
DICTIONARY
  5
128A4
330
12834
100
AcDbDictionary
280
     1
281
     1
  3
ACAD_XREC_ROUNDTRIP
360
128A5
  0
DICTIONARY
  5
12892
330
1282B
100
AcDbDictionary
280
     1
281
     1
  3
ACAD_XREC_ROUNDTRIP
360
12893
  0
DICTIONARY
  5
12876
330
1281D
100
AcDbDictionary
280
     1
281
     1
  3
ACAD_XREC_ROUNDTRIP
360
12877
  0
DICTIONARY
  5
12878
330
1281E
100
AcDbDictionary
280
     1
281
     1
  3
ACAD_XREC_ROUNDTRIP
360
12879
  0
DICTIONARY
  5
1287A
330
1281F
100
AcDbDictionary
280
     1
281
     1
  3
ACAD_XREC_ROUNDTRIP
360
1287B
  0
DICTIONARY
  5
1287C
330
12820
100
AcDbDictionary
280
     1
281
     1
  3
ACAD_XREC_ROUNDTRIP
360
1287D
  0
DICTIONARY
  5
12884
330
12824
100
AcDbDictionary
280
     1
281
     1
  3
ACAD_XREC_ROUNDTRIP
360
12885
  0
DICTIONARY
  5
128A0
330
12832
100
AcDbDictionary
280
     1
281
     1
  3
ACAD_XREC_ROUNDTRIP
360
128A1
  0
DICTIONARY
  5
12890
330
1282A
100
AcDbDictionary
280
     1
281
     1
  3
ACAD_XREC_ROUNDTRIP
360
12891
  0
DICTIONARY
  5
128A2
330
12833
100
AcDbDictionary
280
     1
281
     1
  3
ACAD_XREC_ROUNDTRIP
360
128A3
  0
DICTIONARY
  5
12888
330
12826
100
AcDbDictionary
280
     1
281
     1
  3
ACAD_XREC_ROUNDTRIP
360
12889
  0
DICTIONARY
  5
1289E
330
12831
100
AcDbDictionary
280
     1
281
     1
  3
ACAD_XREC_ROUNDTRIP
360
1289F
  0
DICTIONARY
  5
1289C
330
12830
100
AcDbDictionary
280
     1
281
     1
  3
ACAD_XREC_ROUNDTRIP
360
1289D
  0
DICTIONARY
  5
12896
330
1282D
100
AcDbDictionary
280
     1
281
     1
  3
ACAD_XREC_ROUNDTRIP
360
12897
  0
DICTIONARY
  5
12898
330
1282E
100
AcDbDictionary
280
     1
281
     1
  3
ACAD_XREC_ROUNDTRIP
360
12899
  0
DICTIONARY
  5
1288E
330
12829
100
AcDbDictionary
280
     1
281
     1
  3
ACAD_XREC_ROUNDTRIP
360
1288F
  0
DICTIONARY
  5
12882
330
12823
100
AcDbDictionary
280
     1
281
     1
  3
ACAD_XREC_ROUNDTRIP
360
12883
  0
DICTIONARY
  5
1289A
330
1282F
100
AcDbDictionary
280
     1
281
     1
  3
ACAD_XREC_ROUNDTRIP
360
1289B
  0
XRECORD
  5
128AB
102
{ACAD_REACTORS
330
128AA
102
}
330
128AA
100
AcDbXrecord
280
     1
102
DISPLAYNAME
  1
Imperial24
102
FLAGS
 90
        0
  0
XRECORD
  5
128AD
102
{ACAD_REACTORS
330
128AC
102
}
330
128AC
100
AcDbXrecord
280
     1
102
SHADEPLOT
 70
     0
102
SHADEPLOTRESLEVEL
 70
     2
102
SHADEPLOTCUSTOMDPI
 70
   300
  0
XRECORD
  5
128AF
102
{ACAD_REACTORS
330
128AE
102
}
330
128AE
100
AcDbXrecord
280
     1
102
SHADEPLOT
 70
     0
102
SHADEPLOTRESLEVEL
 70
     2
102
SHADEPLOTCUSTOMDPI
 70
   300
  0
XRECORD
  5
12874
102
{ACAD_REACTORS
330
1280D
102
}
330
1280D
100
AcDbXrecord
280
     1
102
MATERIAL
148
0.0
149
0.0
149
0.0
 93
        0
 94
      127
282
     0
 72
     0
 77
     0
171
     0
175
     0
179
     0
273
     0
  0
XRECORD
  5
1280F
102
{ACAD_REACTORS
330
1280D
102
}
330
1280D
100
AcDbXrecord
280
     1
270
     1
271
     1
  0
XRECORD
  5
1280E
102
{ACAD_REACTORS
330
1280D
102
}
330
1280D
100
AcDbXrecord
280
     1
270
     1
271
     1
  0
XRECORD
  5
12812
102
{ACAD_REACTORS
330
1280D
102
}
330
1280D
100
AcDbXrecord
280
     1
270
     1
271
     1
  0
XRECORD
  5
12811
102
{ACAD_REACTORS
330
1280D
102
}
330
1280D
100
AcDbXrecord
280
     1
270
     1
271
     1
  0
XRECORD
  5
12813
102
{ACAD_REACTORS
330
1280D
102
}
330
1280D
100
AcDbXrecord
280
     1
270
     1
271
     1
  0
XRECORD
  5
12810
102
{ACAD_REACTORS
330
1280D
102
}
330
1280D
100
AcDbXrecord
280
     1
270
     1
271
     1
  0
XRECORD
  5
12873
102
{ACAD_REACTORS
330
12805
102
}
330
12805
100
AcDbXrecord
280
     1
102
MATERIAL
148
0.0
149
0.0
149
0.0
 93
        0
 94
      127
282
     0
 72
     0
 77
     0
171
     0
175
     0
179
     0
273
     0
  0
XRECORD
  5
12807
102
{ACAD_REACTORS
330
12805
102
}
330
12805
100
AcDbXrecord
280
     1
270
     1
271
     1
  0
XRECORD
  5
12806
102
{ACAD_REACTORS
330
12805
102
}
330
12805
100
AcDbXrecord
280
     1
270
     1
271
     1
  0
XRECORD
  5
1280A
102
{ACAD_REACTORS
330
12805
102
}
330
12805
100
AcDbXrecord
280
     1
270
     1
271
     1
  0
XRECORD
  5
12809
102
{ACAD_REACTORS
330
12805
102
}
330
12805
100
AcDbXrecord
280
     1
270
     1
271
     1
  0
XRECORD
  5
1280B
102
{ACAD_REACTORS
330
12805
102
}
330
12805
100
AcDbXrecord
280
     1
270
     1
271
     1
  0
XRECORD
  5
12808
102
{ACAD_REACTORS
330
12805
102
}
330
12805
100
AcDbXrecord
280
     1
270
     1
271
     1
  0
XRECORD
  5
12875
102
{ACAD_REACTORS
330
12815
102
}
330
12815
100
AcDbXrecord
280
     1
102
MATERIAL
148
0.0
149
0.0
149
0.0
 93
        0
 94
      127
282
     0
 72
     0
 77
     0
171
     0
175
     0
179
     0
273
     0
  0
XRECORD
  5
12817
102
{ACAD_REACTORS
330
12815
102
}
330
12815
100
AcDbXrecord
280
     1
270
     1
271
     1
  0
XRECORD
  5
12816
102
{ACAD_REACTORS
330
12815
102
}
330
12815
100
AcDbXrecord
280
     1
270
     1
271
     1
  0
XRECORD
  5
1281A
102
{ACAD_REACTORS
330
12815
102
}
330
12815
100
AcDbXrecord
280
     1
270
     1
271
     1
  0
XRECORD
  5
12819
102
{ACAD_REACTORS
330
12815
102
}
330
12815
100
AcDbXrecord
280
     1
270
     1
271
     1
  0
XRECORD
  5
1281B
102
{ACAD_REACTORS
330
12815
102
}
330
12815
100
AcDbXrecord
280
     1
270
     1
271
     1
  0
XRECORD
  5
12818
102
{ACAD_REACTORS
330
12815
102
}
330
12815
100
AcDbXrecord
280
     1
270
     1
271
     1
  0
XRECORD
  5
128A9
102
{ACAD_REACTORS
330
128A8
102
}
330
128A8
100
AcDbXrecord
280
     1
102
DISPLAYNAME
  1
Imperial24
102
FLAGS
 90
        0
  0
CELLSTYLEMAP
  5
12870
102
{ACAD_REACTORS
330
1286F
102
}
330
1286F
100
AcDbCellStyleMap
 90
        3
300
CELLSTYLE
  1
TABLEFORMAT_BEGIN
 90
        5
170
     1
 91
        0
 92
    32768
 62
   257
 93
        1
300
CONTENTFORMAT
  1
CONTENTFORMAT_BEGIN
 90
        0
 91
        0
 92
      512
 93
        0
300

 40
0.0
140
1.0
 94
        5
 62
     0
340
12493
144
0.25
309
CONTENTFORMAT_END
171
     0
 94
        0
309
TABLEFORMAT_END
  1
CELLSTYLE_BEGIN
 90
        1
 91
        1
300
_TITLE
309
CELLSTYLE_END
300
CELLSTYLE
  1
TABLEFORMAT_BEGIN
 90
        5
170
     1
 91
        0
 92
        0
 62
   257
 93
        1
300
CONTENTFORMAT
  1
CONTENTFORMAT_BEGIN
 90
        0
 91
        0
 92
      512
 93
        0
300

 40
0.0
140
1.0
 94
        5
 62
     0
340
12493
144
0.18
309
CONTENTFORMAT_END
171
     0
 94
        0
309
TABLEFORMAT_END
  1
CELLSTYLE_BEGIN
 90
        2
 91
        1
300
_HEADER
309
CELLSTYLE_END
300
CELLSTYLE
  1
TABLEFORMAT_BEGIN
 90
        5
170
     1
 91
        0
 92
        0
 62
   257
 93
        1
300
CONTENTFORMAT
  1
CONTENTFORMAT_BEGIN
 90
        0
 91
        0
 92
      512
 93
        0
300

 40
0.0
140
1.0
 94
        2
 62
     0
340
12493
144
0.18
309
CONTENTFORMAT_END
171
     0
 94
        0
309
TABLEFORMAT_END
  1
CELLSTYLE_BEGIN
 90
        3
 91
        2
300
_DATA
309
CELLSTYLE_END
  0
XRECORD
  5
128A6
102
{ACAD_REACTORS
330
1286F
102
}
330
1286F
100
AcDbXrecord
280
     1
102
ACAD_ROUNDTRIP_PRE2007_TABLESTYLE
 90
      512
 91
        0
  1

 92
      512
 93
        0
  2

 94
      512
 95
        0
  3

  0
XRECORD
  5
12881
102
{ACAD_REACTORS
330
12880
102
}
330
12880
100
AcDbXrecord
280
     1
102
RTVSPost2010Prop28
280
     1
102
RTVSPost2010PropOp28
 70
     1
102
RTVSPost2010Prop29
280
     1
102
RTVSPost2010PropOp29
 70
     1
102
RTVSPost2010Prop30
280
     0
102
RTVSPost2010PropOp30
 70
     1
102
RTVSPost2010Prop31
280
     0
102
RTVSPost2010PropOp31
 70
     1
102
RTVSPost2010Prop32
280
     0
102
RTVSPost2010PropOp32
 70
     1
102
RTVSPost2010Prop33
280
     0
102
RTVSPost2010PropOp33
 70
     1
102
RTVSPost2010Prop34
280
     0
102
RTVSPost2010PropOp34
 70
     1
102
RTVSPost2010Prop35
280
     0
102
RTVSPost2010PropOp35
 70
     1
102
RTVSPost2010Prop36
280
     0
102
RTVSPost2010PropOp36
 70
     1
102
RTVSPost2010Prop37
 90
       50
102
RTVSPost2010PropOp37
 70
     1
102
RTVSPost2010Prop38
140
0.0
102
RTVSPost2010PropOp38
 70
     1
102
RTVSPost2010Prop39
140
1.0
102
RTVSPost2010PropOp39
 70
     1
102
RTVSPost2010Prop40
 90
        0
102
RTVSPost2010PropOp40
 70
     1
102
RTVSPost2010Prop41ColorIndex
 90
       18
102
RTVSPost2010Prop41ColorRGB
 90
        0
102
RTVSPost2010PropOp41
 70
     1
102
RTVSPost2010Prop42
 90
       50
102
RTVSPost2010PropOp42
 70
     1
102
RTVSPost2010Prop43
 90
        3
102
RTVSPost2010PropOp43
 70
     1
102
RTVSPost2010Prop44ColorIndex
 90
        5
102
RTVSPost2010Prop44ColorRGB
 90
      255
102
RTVSPost2010PropOp44
 70
     1
102
RTVSPost2010Prop45
280
     0
102
RTVSPost2010PropOp45
 70
     1
102
RTVSPost2010Prop46
 90
       50
102
RTVSPost2010PropOp46
 70
     1
102
RTVSPost2010Prop47
 90
       50
102
RTVSPost2010PropOp47
 70
     1
102
RTVSPost2010Prop48
 90
       50
102
RTVSPost2010PropOp48
 70
     1
102
RTVSPost2010Prop49
280
     0
102
RTVSPost2010PropOp49
 70
     1
102
RTVSPost2010Prop50
 90
       50
102
RTVSPost2010PropOp50
 70
     1
102
RTVSPost2010Prop51ColorIndex
 90
      256
102
RTVSPost2010Prop51ColorRGB
 90
-16777216
102
RTVSPost2010PropOp51
 70
     0
102
RTVSPost2010Prop52
140
1.0
102
RTVSPost2010PropOp52
 70
     0
102
RTVSPost2010Prop53
 90
        2
102
RTVSPost2010PropOp53
 70
     1
102
RTVSPost2010Prop54
  1
strokes_ogs.tif
102
RTVSPost2010PropOp54
 70
     1
102
RTVSPost2010Prop55
280
     0
102
RTVSPost2010PropOp55
 70
     1
102
RTVSPost2010Prop56
140
1.0
102
RTVSPost2010PropOp56
 70
     1
102
RTVSPost2010Prop57
140
1.0
102
RTVSPost2010PropOp57
 70
     1
102
RTVSPropertyOp0
 70
     1
102
RTVSPropertyOp1
 70
     1
102
RTVSPropertyOp2
 70
     1
102
RTVSPropertyOp3
 70
     1
102
RTVSPropertyOp4
 70
     1
102
RTVSPropertyOp5
 70
     1
102
RTVSPropertyOp6
 70
     1
102
RTVSPropertyOp7
 70
     1
102
RTVSPropertyOp8
 70
     1
102
RTVSPropertyOp9
 70
     1
102
RTVSPropertyOp10
 70
     1
102
RTVSPropertyOp11
 70
     1
102
RTVSPropertyOp12
 70
     1
102
RTVSPropertyOp13
 70
     1
102
RTVSPropertyOp14
 70
     1
102
RTVSPropertyOp15
 70
     1
102
RTVSPropertyOp16
 70
     1
102
RTVSPropertyOp17
 70
     1
102
RTVSPropertyOp18
 70
     1
102
RTVSPropertyOp19
 70
     1
102
RTVSPropertyOp20
 70
     1
102
RTVSPropertyOp21
 70
     1
102
RTVSPropertyOp22
 70
     1
102
RTVSPropertyOp23
 70
     1
102
RTVSPropertyOp24
 70
     1
102
RTVSPropertyOp25
 70
     1
102
RTVSPropertyOp26
 70
     1
102
RTVSPropertyOp27
 70
     1
102
RTVSPropertyOp28
 70
     1
102
RTVSPropertyOp29
 70
     1
102
RTVSPropertyOp30
 70
     1
102
RTVSPropertyOp31
 70
     1
102
RTVSPropertyOp32
 70
     1
102
RTVSPropertyOp33
 70
     1
102
RTVSPropertyOp34
 70
     1
102
RTVSPropertyOp35
 70
     1
102
RTVSPropertyOp36
 70
     1
102
RTVSPropertyOp37
 70
     1
102
RTVSPropertyOp38
 70
     1
102
RTVSPropertyOp39
 70
     1
102
RTVSPropertyOp40
 70
     1
102
RTVSPropertyOp41
 70
     1
102
RTVSPropertyOp42
 70
     1
102
RTVSPropertyOp43
 70
     1
102
RTVSPropertyOp44
 70
     1
102
RTVSPropertyOp45
 70
     1
102
RTVSPropertyOp46
 70
     1
102
RTVSPropertyOp47
 70
     1
102
RTVSPropertyOp48
 70
     1
102
RTVSPropertyOp49
 70
     1
102
RTVSPropertyOp50
 70
     1
102
RTVSPropertyOp51
 70
     0
102
RTVSPropertyOp52
 70
     0
102
RTVSPropertyOp53
 70
     1
102
RTVSPropertyOp54
 70
     1
102
RTVSPropertyOp55
 70
     1
102
RTVSPropertyOp56
 70
     1
102
RTVSPropertyOp57
 70
     1
102
RTVSPropertyOp58
 70
     1
102
RTVSPropertyOp59
 70
     1
102
RTVSPropertyOp60
 70
     1
102
RTVSPropertyOp61
 70
     1
102
RTVSPropertyOp62
 70
     1
  0
XRECORD
  5
1287F
102
{ACAD_REACTORS
330
1287E
102
}
330
1287E
100
AcDbXrecord
280
     1
102
RTVSPost2010Prop28
280
     0
102
RTVSPost2010PropOp28
 70
     1
102
RTVSPost2010Prop29
280
     1
102
RTVSPost2010PropOp29
 70
     1
102
RTVSPost2010Prop30
280
     1
102
RTVSPost2010PropOp30
 70
     1
102
RTVSPost2010Prop31
280
     0
102
RTVSPost2010PropOp31
 70
     1
102
RTVSPost2010Prop32
280
     0
102
RTVSPost2010PropOp32
 70
     1
102
RTVSPost2010Prop33
280
     0
102
RTVSPost2010PropOp33
 70
     1
102
RTVSPost2010Prop34
280
     0
102
RTVSPost2010PropOp34
 70
     1
102
RTVSPost2010Prop35
280
     0
102
RTVSPost2010PropOp35
 70
     1
102
RTVSPost2010Prop36
280
     0
102
RTVSPost2010PropOp36
 70
     1
102
RTVSPost2010Prop37
 90
       50
102
RTVSPost2010PropOp37
 70
     1
102
RTVSPost2010Prop38
140
0.0
102
RTVSPost2010PropOp38
 70
     1
102
RTVSPost2010Prop39
140
1.0
102
RTVSPost2010PropOp39
 70
     1
102
RTVSPost2010Prop40
 90
        0
102
RTVSPost2010PropOp40
 70
     1
102
RTVSPost2010Prop41ColorIndex
 90
       18
102
RTVSPost2010Prop41ColorRGB
 90
        0
102
RTVSPost2010PropOp41
 70
     1
102
RTVSPost2010Prop42
 90
       50
102
RTVSPost2010PropOp42
 70
     1
102
RTVSPost2010Prop43
 90
        3
102
RTVSPost2010PropOp43
 70
     1
102
RTVSPost2010Prop44ColorIndex
 90
        5
102
RTVSPost2010Prop44ColorRGB
 90
      255
102
RTVSPost2010PropOp44
 70
     1
102
RTVSPost2010Prop45
280
     0
102
RTVSPost2010PropOp45
 70
     1
102
RTVSPost2010Prop46
 90
       50
102
RTVSPost2010PropOp46
 70
     1
102
RTVSPost2010Prop47
 90
       50
102
RTVSPost2010PropOp47
 70
     1
102
RTVSPost2010Prop48
 90
       50
102
RTVSPost2010PropOp48
 70
     1
102
RTVSPost2010Prop49
280
     0
102
RTVSPost2010PropOp49
 70
     1
102
RTVSPost2010Prop50
 90
       50
102
RTVSPost2010PropOp50
 70
     1
102
RTVSPost2010Prop51ColorIndex
 90
      256
102
RTVSPost2010Prop51ColorRGB
 90
-16777216
102
RTVSPost2010PropOp51
 70
     0
102
RTVSPost2010Prop52
140
1.0
102
RTVSPost2010PropOp52
 70
     0
102
RTVSPost2010Prop53
 90
        2
102
RTVSPost2010PropOp53
 70
     1
102
RTVSPost2010Prop54
  1
strokes_ogs.tif
102
RTVSPost2010PropOp54
 70
     1
102
RTVSPost2010Prop55
280
     0
102
RTVSPost2010PropOp55
 70
     1
102
RTVSPost2010Prop56
140
1.0
102
RTVSPost2010PropOp56
 70
     1
102
RTVSPost2010Prop57
140
1.0
102
RTVSPost2010PropOp57
 70
     1
102
RTVSPropertyOp0
 70
     1
102
RTVSPropertyOp1
 70
     1
102
RTVSPropertyOp2
 70
     1
102
RTVSPropertyOp3
 70
     1
102
RTVSPropertyOp4
 70
     1
102
RTVSPropertyOp5
 70
     1
102
RTVSPropertyOp6
 70
     1
102
RTVSPropertyOp7
 70
     1
102
RTVSPropertyOp8
 70
     1
102
RTVSPropertyOp9
 70
     1
102
RTVSPropertyOp10
 70
     1
102
RTVSPropertyOp11
 70
     1
102
RTVSPropertyOp12
 70
     1
102
RTVSPropertyOp13
 70
     1
102
RTVSPropertyOp14
 70
     1
102
RTVSPropertyOp15
 70
     1
102
RTVSPropertyOp16
 70
     1
102
RTVSPropertyOp17
 70
     1
102
RTVSPropertyOp18
 70
     1
102
RTVSPropertyOp19
 70
     1
102
RTVSPropertyOp20
 70
     1
102
RTVSPropertyOp21
 70
     1
102
RTVSPropertyOp22
 70
     1
102
RTVSPropertyOp23
 70
     1
102
RTVSPropertyOp24
 70
     1
102
RTVSPropertyOp25
 70
     1
102
RTVSPropertyOp26
 70
     1
102
RTVSPropertyOp27
 70
     1
102
RTVSPropertyOp28
 70
     1
102
RTVSPropertyOp29
 70
     1
102
RTVSPropertyOp30
 70
     1
102
RTVSPropertyOp31
 70
     1
102
RTVSPropertyOp32
 70
     1
102
RTVSPropertyOp33
 70
     1
102
RTVSPropertyOp34
 70
     1
102
RTVSPropertyOp35
 70
     1
102
RTVSPropertyOp36
 70
     1
102
RTVSPropertyOp37
 70
     1
102
RTVSPropertyOp38
 70
     1
102
RTVSPropertyOp39
 70
     1
102
RTVSPropertyOp40
 70
     1
102
RTVSPropertyOp41
 70
     1
102
RTVSPropertyOp42
 70
     1
102
RTVSPropertyOp43
 70
     1
102
RTVSPropertyOp44
 70
     1
102
RTVSPropertyOp45
 70
     1
102
RTVSPropertyOp46
 70
     1
102
RTVSPropertyOp47
 70
     1
102
RTVSPropertyOp48
 70
     1
102
RTVSPropertyOp49
 70
     1
102
RTVSPropertyOp50
 70
     1
102
RTVSPropertyOp51
 70
     0
102
RTVSPropertyOp52
 70
     0
102
RTVSPropertyOp53
 70
     1
102
RTVSPropertyOp54
 70
     1
102
RTVSPropertyOp55
 70
     1
102
RTVSPropertyOp56
 70
     1
102
RTVSPropertyOp57
 70
     1
102
RTVSPropertyOp58
 70
     1
102
RTVSPropertyOp59
 70
     1
102
RTVSPropertyOp60
 70
     1
102
RTVSPropertyOp61
 70
     1
102
RTVSPropertyOp62
 70
     1
  0
XRECORD
  5
1288D
102
{ACAD_REACTORS
330
1288C
102
}
330
1288C
100
AcDbXrecord
280
     1
102
RTVSPost2010Prop28
280
     0
102
RTVSPost2010PropOp28
 70
     1
102
RTVSPost2010Prop29
280
     1
102
RTVSPost2010PropOp29
 70
     1
102
RTVSPost2010Prop30
280
     1
102
RTVSPost2010PropOp30
 70
     1
102
RTVSPost2010Prop31
280
     0
102
RTVSPost2010PropOp31
 70
     1
102
RTVSPost2010Prop32
280
     0
102
RTVSPost2010PropOp32
 70
     1
102
RTVSPost2010Prop33
280
     0
102
RTVSPost2010PropOp33
 70
     1
102
RTVSPost2010Prop34
280
     0
102
RTVSPost2010PropOp34
 70
     1
102
RTVSPost2010Prop35
280
     0
102
RTVSPost2010PropOp35
 70
     1
102
RTVSPost2010Prop36
280
     0
102
RTVSPost2010PropOp36
 70
     1
102
RTVSPost2010Prop37
 90
       50
102
RTVSPost2010PropOp37
 70
     1
102
RTVSPost2010Prop38
140
0.0
102
RTVSPost2010PropOp38
 70
     1
102
RTVSPost2010Prop39
140
1.0
102
RTVSPost2010PropOp39
 70
     1
102
RTVSPost2010Prop40
 90
        0
102
RTVSPost2010PropOp40
 70
     1
102
RTVSPost2010Prop41ColorIndex
 90
       18
102
RTVSPost2010Prop41ColorRGB
 90
        0
102
RTVSPost2010PropOp41
 70
     1
102
RTVSPost2010Prop42
 90
       50
102
RTVSPost2010PropOp42
 70
     1
102
RTVSPost2010Prop43
 90
        3
102
RTVSPost2010PropOp43
 70
     1
102
RTVSPost2010Prop44ColorIndex
 90
        5
102
RTVSPost2010Prop44ColorRGB
 90
      255
102
RTVSPost2010PropOp44
 70
     1
102
RTVSPost2010Prop45
280
     0
102
RTVSPost2010PropOp45
 70
     1
102
RTVSPost2010Prop46
 90
       50
102
RTVSPost2010PropOp46
 70
     1
102
RTVSPost2010Prop47
 90
       50
102
RTVSPost2010PropOp47
 70
     1
102
RTVSPost2010Prop48
 90
       50
102
RTVSPost2010PropOp48
 70
     1
102
RTVSPost2010Prop49
280
     0
102
RTVSPost2010PropOp49
 70
     1
102
RTVSPost2010Prop50
 90
       50
102
RTVSPost2010PropOp50
 70
     1
102
RTVSPost2010Prop51ColorIndex
 90
      256
102
RTVSPost2010Prop51ColorRGB
 90
-16777216
102
RTVSPost2010PropOp51
 70
     0
102
RTVSPost2010Prop52
140
1.0
102
RTVSPost2010PropOp52
 70
     0
102
RTVSPost2010Prop53
 90
        2
102
RTVSPost2010PropOp53
 70
     1
102
RTVSPost2010Prop54
  1
strokes_ogs.tif
102
RTVSPost2010PropOp54
 70
     1
102
RTVSPost2010Prop55
280
     0
102
RTVSPost2010PropOp55
 70
     1
102
RTVSPost2010Prop56
140
1.0
102
RTVSPost2010PropOp56
 70
     1
102
RTVSPost2010Prop57
140
1.0
102
RTVSPost2010PropOp57
 70
     1
102
RTVSPropertyOp0
 70
     1
102
RTVSPropertyOp1
 70
     1
102
RTVSPropertyOp2
 70
     1
102
RTVSPropertyOp3
 70
     1
102
RTVSPropertyOp4
 70
     1
102
RTVSPropertyOp5
 70
     1
102
RTVSPropertyOp6
 70
     1
102
RTVSPropertyOp7
 70
     1
102
RTVSPropertyOp8
 70
     1
102
RTVSPropertyOp9
 70
     1
102
RTVSPropertyOp10
 70
     1
102
RTVSPropertyOp11
 70
     1
102
RTVSPropertyOp12
 70
     1
102
RTVSPropertyOp13
 70
     1
102
RTVSPropertyOp14
 70
     1
102
RTVSPropertyOp15
 70
     1
102
RTVSPropertyOp16
 70
     1
102
RTVSPropertyOp17
 70
     1
102
RTVSPropertyOp18
 70
     1
102
RTVSPropertyOp19
 70
     1
102
RTVSPropertyOp20
 70
     1
102
RTVSPropertyOp21
 70
     1
102
RTVSPropertyOp22
 70
     1
102
RTVSPropertyOp23
 70
     1
102
RTVSPropertyOp24
 70
     1
102
RTVSPropertyOp25
 70
     1
102
RTVSPropertyOp26
 70
     1
102
RTVSPropertyOp27
 70
     1
102
RTVSPropertyOp28
 70
     1
102
RTVSPropertyOp29
 70
     1
102
RTVSPropertyOp30
 70
     1
102
RTVSPropertyOp31
 70
     1
102
RTVSPropertyOp32
 70
     1
102
RTVSPropertyOp33
 70
     1
102
RTVSPropertyOp34
 70
     1
102
RTVSPropertyOp35
 70
     1
102
RTVSPropertyOp36
 70
     1
102
RTVSPropertyOp37
 70
     1
102
RTVSPropertyOp38
 70
     1
102
RTVSPropertyOp39
 70
     1
102
RTVSPropertyOp40
 70
     1
102
RTVSPropertyOp41
 70
     1
102
RTVSPropertyOp42
 70
     1
102
RTVSPropertyOp43
 70
     1
102
RTVSPropertyOp44
 70
     1
102
RTVSPropertyOp45
 70
     1
102
RTVSPropertyOp46
 70
     1
102
RTVSPropertyOp47
 70
     1
102
RTVSPropertyOp48
 70
     1
102
RTVSPropertyOp49
 70
     1
102
RTVSPropertyOp50
 70
     1
102
RTVSPropertyOp51
 70
     0
102
RTVSPropertyOp52
 70
     0
102
RTVSPropertyOp53
 70
     1
102
RTVSPropertyOp54
 70
     1
102
RTVSPropertyOp55
 70
     1
102
RTVSPropertyOp56
 70
     1
102
RTVSPropertyOp57
 70
     1
102
RTVSPropertyOp58
 70
     1
102
RTVSPropertyOp59
 70
     1
102
RTVSPropertyOp60
 70
     1
102
RTVSPropertyOp61
 70
     1
102
RTVSPropertyOp62
 70
     1
  0
XRECORD
  5
12895
102
{ACAD_REACTORS
330
12894
102
}
330
12894
100
AcDbXrecord
280
     1
102
RTVSPost2010Prop28
280
     0
102
RTVSPost2010PropOp28
 70
     1
102
RTVSPost2010Prop29
280
     1
102
RTVSPost2010PropOp29
 70
     1
102
RTVSPost2010Prop30
280
     1
102
RTVSPost2010PropOp30
 70
     1
102
RTVSPost2010Prop31
280
     0
102
RTVSPost2010PropOp31
 70
     1
102
RTVSPost2010Prop32
280
     0
102
RTVSPost2010PropOp32
 70
     1
102
RTVSPost2010Prop33
280
     0
102
RTVSPost2010PropOp33
 70
     1
102
RTVSPost2010Prop34
280
     0
102
RTVSPost2010PropOp34
 70
     1
102
RTVSPost2010Prop35
280
     0
102
RTVSPost2010PropOp35
 70
     1
102
RTVSPost2010Prop36
280
     0
102
RTVSPost2010PropOp36
 70
     1
102
RTVSPost2010Prop37
 90
       50
102
RTVSPost2010PropOp37
 70
     1
102
RTVSPost2010Prop38
140
0.0
102
RTVSPost2010PropOp38
 70
     1
102
RTVSPost2010Prop39
140
1.0
102
RTVSPost2010PropOp39
 70
     1
102
RTVSPost2010Prop40
 90
        0
102
RTVSPost2010PropOp40
 70
     1
102
RTVSPost2010Prop41ColorIndex
 90
       18
102
RTVSPost2010Prop41ColorRGB
 90
        0
102
RTVSPost2010PropOp41
 70
     1
102
RTVSPost2010Prop42
 90
       50
102
RTVSPost2010PropOp42
 70
     1
102
RTVSPost2010Prop43
 90
        3
102
RTVSPost2010PropOp43
 70
     1
102
RTVSPost2010Prop44ColorIndex
 90
        5
102
RTVSPost2010Prop44ColorRGB
 90
      255
102
RTVSPost2010PropOp44
 70
     1
102
RTVSPost2010Prop45
280
     0
102
RTVSPost2010PropOp45
 70
     1
102
RTVSPost2010Prop46
 90
       50
102
RTVSPost2010PropOp46
 70
     1
102
RTVSPost2010Prop47
 90
       50
102
RTVSPost2010PropOp47
 70
     1
102
RTVSPost2010Prop48
 90
       50
102
RTVSPost2010PropOp48
 70
     1
102
RTVSPost2010Prop49
280
     0
102
RTVSPost2010PropOp49
 70
     1
102
RTVSPost2010Prop50
 90
       50
102
RTVSPost2010PropOp50
 70
     1
102
RTVSPost2010Prop51ColorIndex
 90
      256
102
RTVSPost2010Prop51ColorRGB
 90
-16777216
102
RTVSPost2010PropOp51
 70
     0
102
RTVSPost2010Prop52
140
1.0
102
RTVSPost2010PropOp52
 70
     0
102
RTVSPost2010Prop53
 90
        2
102
RTVSPost2010PropOp53
 70
     1
102
RTVSPost2010Prop54
  1
strokes_ogs.tif
102
RTVSPost2010PropOp54
 70
     1
102
RTVSPost2010Prop55
280
     0
102
RTVSPost2010PropOp55
 70
     1
102
RTVSPost2010Prop56
140
1.0
102
RTVSPost2010PropOp56
 70
     1
102
RTVSPost2010Prop57
140
1.0
102
RTVSPost2010PropOp57
 70
     1
102
RTVSPropertyOp0
 70
     1
102
RTVSPropertyOp1
 70
     1
102
RTVSPropertyOp2
 70
     1
102
RTVSPropertyOp3
 70
     1
102
RTVSPropertyOp4
 70
     1
102
RTVSPropertyOp5
 70
     1
102
RTVSPropertyOp6
 70
     1
102
RTVSPropertyOp7
 70
     1
102
RTVSPropertyOp8
 70
     1
102
RTVSPropertyOp9
 70
     1
102
RTVSPropertyOp10
 70
     1
102
RTVSPropertyOp11
 70
     1
102
RTVSPropertyOp12
 70
     1
102
RTVSPropertyOp13
 70
     1
102
RTVSPropertyOp14
 70
     1
102
RTVSPropertyOp15
 70
     1
102
RTVSPropertyOp16
 70
     1
102
RTVSPropertyOp17
 70
     1
102
RTVSPropertyOp18
 70
     1
102
RTVSPropertyOp19
 70
     1
102
RTVSPropertyOp20
 70
     1
102
RTVSPropertyOp21
 70
     1
102
RTVSPropertyOp22
 70
     1
102
RTVSPropertyOp23
 70
     1
102
RTVSPropertyOp24
 70
     1
102
RTVSPropertyOp25
 70
     1
102
RTVSPropertyOp26
 70
     1
102
RTVSPropertyOp27
 70
     1
102
RTVSPropertyOp28
 70
     1
102
RTVSPropertyOp29
 70
     1
102
RTVSPropertyOp30
 70
     1
102
RTVSPropertyOp31
 70
     1
102
RTVSPropertyOp32
 70
     1
102
RTVSPropertyOp33
 70
     1
102
RTVSPropertyOp34
 70
     1
102
RTVSPropertyOp35
 70
     1
102
RTVSPropertyOp36
 70
     1
102
RTVSPropertyOp37
 70
     1
102
RTVSPropertyOp38
 70
     1
102
RTVSPropertyOp39
 70
     1
102
RTVSPropertyOp40
 70
     1
102
RTVSPropertyOp41
 70
     1
102
RTVSPropertyOp42
 70
     1
102
RTVSPropertyOp43
 70
     1
102
RTVSPropertyOp44
 70
     1
102
RTVSPropertyOp45
 70
     1
102
RTVSPropertyOp46
 70
     1
102
RTVSPropertyOp47
 70
     1
102
RTVSPropertyOp48
 70
     1
102
RTVSPropertyOp49
 70
     1
102
RTVSPropertyOp50
 70
     1
102
RTVSPropertyOp51
 70
     0
102
RTVSPropertyOp52
 70
     0
102
RTVSPropertyOp53
 70
     1
102
RTVSPropertyOp54
 70
     1
102
RTVSPropertyOp55
 70
     1
102
RTVSPropertyOp56
 70
     1
102
RTVSPropertyOp57
 70
     1
102
RTVSPropertyOp58
 70
     1
102
RTVSPropertyOp59
 70
     1
102
RTVSPropertyOp60
 70
     1
102
RTVSPropertyOp61
 70
     1
102
RTVSPropertyOp62
 70
     1
  0
XRECORD
  5
12887
102
{ACAD_REACTORS
330
12886
102
}
330
12886
100
AcDbXrecord
280
     1
102
RTVSPost2010Prop28
280
     0
102
RTVSPost2010PropOp28
 70
     1
102
RTVSPost2010Prop29
280
     1
102
RTVSPost2010PropOp29
 70
     1
102
RTVSPost2010Prop30
280
     1
102
RTVSPost2010PropOp30
 70
     1
102
RTVSPost2010Prop31
280
     0
102
RTVSPost2010PropOp31
 70
     1
102
RTVSPost2010Prop32
280
     0
102
RTVSPost2010PropOp32
 70
     1
102
RTVSPost2010Prop33
280
     0
102
RTVSPost2010PropOp33
 70
     1
102
RTVSPost2010Prop34
280
     0
102
RTVSPost2010PropOp34
 70
     1
102
RTVSPost2010Prop35
280
     0
102
RTVSPost2010PropOp35
 70
     1
102
RTVSPost2010Prop36
280
     0
102
RTVSPost2010PropOp36
 70
     1
102
RTVSPost2010Prop37
 90
       50
102
RTVSPost2010PropOp37
 70
     1
102
RTVSPost2010Prop38
140
0.0
102
RTVSPost2010PropOp38
 70
     1
102
RTVSPost2010Prop39
140
1.0
102
RTVSPost2010PropOp39
 70
     1
102
RTVSPost2010Prop40
 90
        0
102
RTVSPost2010PropOp40
 70
     1
102
RTVSPost2010Prop41ColorIndex
 90
       18
102
RTVSPost2010Prop41ColorRGB
 90
        0
102
RTVSPost2010PropOp41
 70
     1
102
RTVSPost2010Prop42
 90
       50
102
RTVSPost2010PropOp42
 70
     1
102
RTVSPost2010Prop43
 90
        3
102
RTVSPost2010PropOp43
 70
     1
102
RTVSPost2010Prop44ColorIndex
 90
        5
102
RTVSPost2010Prop44ColorRGB
 90
      255
102
RTVSPost2010PropOp44
 70
     1
102
RTVSPost2010Prop45
280
     0
102
RTVSPost2010PropOp45
 70
     1
102
RTVSPost2010Prop46
 90
       50
102
RTVSPost2010PropOp46
 70
     1
102
RTVSPost2010Prop47
 90
       50
102
RTVSPost2010PropOp47
 70
     1
102
RTVSPost2010Prop48
 90
       50
102
RTVSPost2010PropOp48
 70
     1
102
RTVSPost2010Prop49
280
     0
102
RTVSPost2010PropOp49
 70
     1
102
RTVSPost2010Prop50
 90
       50
102
RTVSPost2010PropOp50
 70
     1
102
RTVSPost2010Prop51ColorIndex
 90
      256
102
RTVSPost2010Prop51ColorRGB
 90
-16777216
102
RTVSPost2010PropOp51
 70
     0
102
RTVSPost2010Prop52
140
1.0
102
RTVSPost2010PropOp52
 70
     0
102
RTVSPost2010Prop53
 90
        2
102
RTVSPost2010PropOp53
 70
     1
102
RTVSPost2010Prop54
  1
strokes_ogs.tif
102
RTVSPost2010PropOp54
 70
     1
102
RTVSPost2010Prop55
280
     0
102
RTVSPost2010PropOp55
 70
     1
102
RTVSPost2010Prop56
140
1.0
102
RTVSPost2010PropOp56
 70
     1
102
RTVSPost2010Prop57
140
1.0
102
RTVSPost2010PropOp57
 70
     1
102
RTVSPropertyOp0
 70
     1
102
RTVSPropertyOp1
 70
     1
102
RTVSPropertyOp2
 70
     1
102
RTVSPropertyOp3
 70
     1
102
RTVSPropertyOp4
 70
     1
102
RTVSPropertyOp5
 70
     1
102
RTVSPropertyOp6
 70
     1
102
RTVSPropertyOp7
 70
     1
102
RTVSPropertyOp8
 70
     1
102
RTVSPropertyOp9
 70
     1
102
RTVSPropertyOp10
 70
     1
102
RTVSPropertyOp11
 70
     1
102
RTVSPropertyOp12
 70
     1
102
RTVSPropertyOp13
 70
     1
102
RTVSPropertyOp14
 70
     1
102
RTVSPropertyOp15
 70
     1
102
RTVSPropertyOp16
 70
     1
102
RTVSPropertyOp17
 70
     1
102
RTVSPropertyOp18
 70
     1
102
RTVSPropertyOp19
 70
     1
102
RTVSPropertyOp20
 70
     1
102
RTVSPropertyOp21
 70
     1
102
RTVSPropertyOp22
 70
     1
102
RTVSPropertyOp23
 70
     1
102
RTVSPropertyOp24
 70
     1
102
RTVSPropertyOp25
 70
     1
102
RTVSPropertyOp26
 70
     1
102
RTVSPropertyOp27
 70
     1
102
RTVSPropertyOp28
 70
     1
102
RTVSPropertyOp29
 70
     1
102
RTVSPropertyOp30
 70
     1
102
RTVSPropertyOp31
 70
     1
102
RTVSPropertyOp32
 70
     1
102
RTVSPropertyOp33
 70
     1
102
RTVSPropertyOp34
 70
     1
102
RTVSPropertyOp35
 70
     1
102
RTVSPropertyOp36
 70
     1
102
RTVSPropertyOp37
 70
     1
102
RTVSPropertyOp38
 70
     1
102
RTVSPropertyOp39
 70
     1
102
RTVSPropertyOp40
 70
     1
102
RTVSPropertyOp41
 70
     1
102
RTVSPropertyOp42
 70
     1
102
RTVSPropertyOp43
 70
     1
102
RTVSPropertyOp44
 70
     1
102
RTVSPropertyOp45
 70
     1
102
RTVSPropertyOp46
 70
     1
102
RTVSPropertyOp47
 70
     1
102
RTVSPropertyOp48
 70
     1
102
RTVSPropertyOp49
 70
     1
102
RTVSPropertyOp50
 70
     1
102
RTVSPropertyOp51
 70
     0
102
RTVSPropertyOp52
 70
     0
102
RTVSPropertyOp53
 70
     1
102
RTVSPropertyOp54
 70
     1
102
RTVSPropertyOp55
 70
     1
102
RTVSPropertyOp56
 70
     1
102
RTVSPropertyOp57
 70
     1
102
RTVSPropertyOp58
 70
     1
102
RTVSPropertyOp59
 70
     1
102
RTVSPropertyOp60
 70
     1
102
RTVSPropertyOp61
 70
     1
102
RTVSPropertyOp62
 70
     1
  0
XRECORD
  5
1288B
102
{ACAD_REACTORS
330
1288A
102
}
330
1288A
100
AcDbXrecord
280
     1
102
RTVSPost2010Prop28
280
     0
102
RTVSPost2010PropOp28
 70
     1
102
RTVSPost2010Prop29
280
     1
102
RTVSPost2010PropOp29
 70
     1
102
RTVSPost2010Prop30
280
     1
102
RTVSPost2010PropOp30
 70
     1
102
RTVSPost2010Prop31
280
     0
102
RTVSPost2010PropOp31
 70
     1
102
RTVSPost2010Prop32
280
     0
102
RTVSPost2010PropOp32
 70
     1
102
RTVSPost2010Prop33
280
     0
102
RTVSPost2010PropOp33
 70
     1
102
RTVSPost2010Prop34
280
     0
102
RTVSPost2010PropOp34
 70
     1
102
RTVSPost2010Prop35
280
     0
102
RTVSPost2010PropOp35
 70
     1
102
RTVSPost2010Prop36
280
     0
102
RTVSPost2010PropOp36
 70
     1
102
RTVSPost2010Prop37
 90
       50
102
RTVSPost2010PropOp37
 70
     1
102
RTVSPost2010Prop38
140
0.0
102
RTVSPost2010PropOp38
 70
     1
102
RTVSPost2010Prop39
140
1.0
102
RTVSPost2010PropOp39
 70
     1
102
RTVSPost2010Prop40
 90
        0
102
RTVSPost2010PropOp40
 70
     1
102
RTVSPost2010Prop41ColorIndex
 90
       18
102
RTVSPost2010Prop41ColorRGB
 90
        0
102
RTVSPost2010PropOp41
 70
     1
102
RTVSPost2010Prop42
 90
       50
102
RTVSPost2010PropOp42
 70
     1
102
RTVSPost2010Prop43
 90
        3
102
RTVSPost2010PropOp43
 70
     1
102
RTVSPost2010Prop44ColorIndex
 90
        5
102
RTVSPost2010Prop44ColorRGB
 90
      255
102
RTVSPost2010PropOp44
 70
     1
102
RTVSPost2010Prop45
280
     0
102
RTVSPost2010PropOp45
 70
     1
102
RTVSPost2010Prop46
 90
       50
102
RTVSPost2010PropOp46
 70
     1
102
RTVSPost2010Prop47
 90
       50
102
RTVSPost2010PropOp47
 70
     1
102
RTVSPost2010Prop48
 90
       50
102
RTVSPost2010PropOp48
 70
     1
102
RTVSPost2010Prop49
280
     0
102
RTVSPost2010PropOp49
 70
     1
102
RTVSPost2010Prop50
 90
       50
102
RTVSPost2010PropOp50
 70
     1
102
RTVSPost2010Prop51ColorIndex
 90
      256
102
RTVSPost2010Prop51ColorRGB
 90
-16777216
102
RTVSPost2010PropOp51
 70
     0
102
RTVSPost2010Prop52
140
1.0
102
RTVSPost2010PropOp52
 70
     0
102
RTVSPost2010Prop53
 90
        2
102
RTVSPost2010PropOp53
 70
     1
102
RTVSPost2010Prop54
  1
strokes_ogs.tif
102
RTVSPost2010PropOp54
 70
     1
102
RTVSPost2010Prop55
280
     0
102
RTVSPost2010PropOp55
 70
     1
102
RTVSPost2010Prop56
140
1.0
102
RTVSPost2010PropOp56
 70
     1
102
RTVSPost2010Prop57
140
1.0
102
RTVSPost2010PropOp57
 70
     1
102
RTVSPropertyOp0
 70
     1
102
RTVSPropertyOp1
 70
     1
102
RTVSPropertyOp2
 70
     1
102
RTVSPropertyOp3
 70
     1
102
RTVSPropertyOp4
 70
     1
102
RTVSPropertyOp5
 70
     1
102
RTVSPropertyOp6
 70
     1
102
RTVSPropertyOp7
 70
     1
102
RTVSPropertyOp8
 70
     1
102
RTVSPropertyOp9
 70
     1
102
RTVSPropertyOp10
 70
     1
102
RTVSPropertyOp11
 70
     1
102
RTVSPropertyOp12
 70
     1
102
RTVSPropertyOp13
 70
     1
102
RTVSPropertyOp14
 70
     1
102
RTVSPropertyOp15
 70
     1
102
RTVSPropertyOp16
 70
     1
102
RTVSPropertyOp17
 70
     1
102
RTVSPropertyOp18
 70
     1
102
RTVSPropertyOp19
 70
     1
102
RTVSPropertyOp20
 70
     1
102
RTVSPropertyOp21
 70
     1
102
RTVSPropertyOp22
 70
     1
102
RTVSPropertyOp23
 70
     1
102
RTVSPropertyOp24
 70
     1
102
RTVSPropertyOp25
 70
     1
102
RTVSPropertyOp26
 70
     1
102
RTVSPropertyOp27
 70
     1
102
RTVSPropertyOp28
 70
     1
102
RTVSPropertyOp29
 70
     1
102
RTVSPropertyOp30
 70
     1
102
RTVSPropertyOp31
 70
     1
102
RTVSPropertyOp32
 70
     1
102
RTVSPropertyOp33
 70
     1
102
RTVSPropertyOp34
 70
     1
102
RTVSPropertyOp35
 70
     1
102
RTVSPropertyOp36
 70
     1
102
RTVSPropertyOp37
 70
     1
102
RTVSPropertyOp38
 70
     1
102
RTVSPropertyOp39
 70
     1
102
RTVSPropertyOp40
 70
     1
102
RTVSPropertyOp41
 70
     1
102
RTVSPropertyOp42
 70
     1
102
RTVSPropertyOp43
 70
     1
102
RTVSPropertyOp44
 70
     1
102
RTVSPropertyOp45
 70
     1
102
RTVSPropertyOp46
 70
     1
102
RTVSPropertyOp47
 70
     1
102
RTVSPropertyOp48
 70
     1
102
RTVSPropertyOp49
 70
     1
102
RTVSPropertyOp50
 70
     1
102
RTVSPropertyOp51
 70
     0
102
RTVSPropertyOp52
 70
     0
102
RTVSPropertyOp53
 70
     1
102
RTVSPropertyOp54
 70
     1
102
RTVSPropertyOp55
 70
     1
102
RTVSPropertyOp56
 70
     1
102
RTVSPropertyOp57
 70
     1
102
RTVSPropertyOp58
 70
     1
102
RTVSPropertyOp59
 70
     1
102
RTVSPropertyOp60
 70
     1
102
RTVSPropertyOp61
 70
     1
102
RTVSPropertyOp62
 70
     1
  0
XRECORD
  5
128A5
102
{ACAD_REACTORS
330
128A4
102
}
330
128A4
100
AcDbXrecord
280
     1
102
RTVSPost2010Prop28
280
     0
102
RTVSPost2010PropOp28
 70
     1
102
RTVSPost2010Prop29
280
     1
102
RTVSPost2010PropOp29
 70
     1
102
RTVSPost2010Prop30
280
     1
102
RTVSPost2010PropOp30
 70
     1
102
RTVSPost2010Prop31
280
     0
102
RTVSPost2010PropOp31
 70
     1
102
RTVSPost2010Prop32
280
     0
102
RTVSPost2010PropOp32
 70
     1
102
RTVSPost2010Prop33
280
     0
102
RTVSPost2010PropOp33
 70
     1
102
RTVSPost2010Prop34
280
     0
102
RTVSPost2010PropOp34
 70
     1
102
RTVSPost2010Prop35
280
     0
102
RTVSPost2010PropOp35
 70
     1
102
RTVSPost2010Prop36
280
     0
102
RTVSPost2010PropOp36
 70
     1
102
RTVSPost2010Prop37
 90
       50
102
RTVSPost2010PropOp37
 70
     0
102
RTVSPost2010Prop38
140
0.0
102
RTVSPost2010PropOp38
 70
     0
102
RTVSPost2010Prop39
140
1.0
102
RTVSPost2010PropOp39
 70
     0
102
RTVSPost2010Prop40
 90
        0
102
RTVSPost2010PropOp40
 70
     0
102
RTVSPost2010Prop41ColorIndex
 90
       18
102
RTVSPost2010Prop41ColorRGB
 90
        0
102
RTVSPost2010PropOp41
 70
     0
102
RTVSPost2010Prop42
 90
       50
102
RTVSPost2010PropOp42
 70
     0
102
RTVSPost2010Prop43
 90
        3
102
RTVSPost2010PropOp43
 70
     0
102
RTVSPost2010Prop44ColorIndex
 90
        5
102
RTVSPost2010Prop44ColorRGB
 90
      255
102
RTVSPost2010PropOp44
 70
     0
102
RTVSPost2010Prop45
280
     0
102
RTVSPost2010PropOp45
 70
     1
102
RTVSPost2010Prop46
 90
       50
102
RTVSPost2010PropOp46
 70
     0
102
RTVSPost2010Prop47
 90
       50
102
RTVSPost2010PropOp47
 70
     0
102
RTVSPost2010Prop48
 90
       50
102
RTVSPost2010PropOp48
 70
     0
102
RTVSPost2010Prop49
280
     0
102
RTVSPost2010PropOp49
 70
     1
102
RTVSPost2010Prop50
 90
       50
102
RTVSPost2010PropOp50
 70
     0
102
RTVSPost2010Prop51ColorIndex
 90
      256
102
RTVSPost2010Prop51ColorRGB
 90
-16777216
102
RTVSPost2010PropOp51
 70
     0
102
RTVSPost2010Prop52
140
1.0
102
RTVSPost2010PropOp52
 70
     0
102
RTVSPost2010Prop53
 90
        2
102
RTVSPost2010PropOp53
 70
     0
102
RTVSPost2010Prop54
  1
strokes_ogs.tif
102
RTVSPost2010PropOp54
 70
     0
102
RTVSPost2010Prop55
280
     0
102
RTVSPost2010PropOp55
 70
     1
102
RTVSPost2010Prop56
140
1.0
102
RTVSPost2010PropOp56
 70
     0
102
RTVSPost2010Prop57
140
1.0
102
RTVSPost2010PropOp57
 70
     0
102
RTVSPropertyOp0
 70
     0
102
RTVSPropertyOp1
 70
     0
102
RTVSPropertyOp2
 70
     0
102
RTVSPropertyOp3
 70
     0
102
RTVSPropertyOp4
 70
     0
102
RTVSPropertyOp5
 70
     0
102
RTVSPropertyOp6
 70
     0
102
RTVSPropertyOp7
 70
     0
102
RTVSPropertyOp8
 70
     0
102
RTVSPropertyOp9
 70
     0
102
RTVSPropertyOp10
 70
     0
102
RTVSPropertyOp11
 70
     0
102
RTVSPropertyOp12
 70
     0
102
RTVSPropertyOp13
 70
     0
102
RTVSPropertyOp14
 70
     2
102
RTVSPropertyOp15
 70
     0
102
RTVSPropertyOp16
 70
     0
102
RTVSPropertyOp17
 70
     0
102
RTVSPropertyOp18
 70
     0
102
RTVSPropertyOp19
 70
     0
102
RTVSPropertyOp20
 70
     0
102
RTVSPropertyOp21
 70
     0
102
RTVSPropertyOp22
 70
     0
102
RTVSPropertyOp23
 70
     0
102
RTVSPropertyOp24
 70
     0
102
RTVSPropertyOp25
 70
     0
102
RTVSPropertyOp26
 70
     0
102
RTVSPropertyOp27
 70
     0
102
RTVSPropertyOp28
 70
     1
102
RTVSPropertyOp29
 70
     1
102
RTVSPropertyOp30
 70
     1
102
RTVSPropertyOp31
 70
     1
102
RTVSPropertyOp32
 70
     1
102
RTVSPropertyOp33
 70
     1
102
RTVSPropertyOp34
 70
     1
102
RTVSPropertyOp35
 70
     1
102
RTVSPropertyOp36
 70
     1
102
RTVSPropertyOp37
 70
     0
102
RTVSPropertyOp38
 70
     0
102
RTVSPropertyOp39
 70
     0
102
RTVSPropertyOp40
 70
     0
102
RTVSPropertyOp41
 70
     0
102
RTVSPropertyOp42
 70
     0
102
RTVSPropertyOp43
 70
     0
102
RTVSPropertyOp44
 70
     0
102
RTVSPropertyOp45
 70
     1
102
RTVSPropertyOp46
 70
     0
102
RTVSPropertyOp47
 70
     0
102
RTVSPropertyOp48
 70
     0
102
RTVSPropertyOp49
 70
     1
102
RTVSPropertyOp50
 70
     0
102
RTVSPropertyOp51
 70
     0
102
RTVSPropertyOp52
 70
     0
102
RTVSPropertyOp53
 70
     0
102
RTVSPropertyOp54
 70
     0
102
RTVSPropertyOp55
 70
     1
102
RTVSPropertyOp56
 70
     0
102
RTVSPropertyOp57
 70
     0
102
RTVSPropertyOp58
 70
     0
102
RTVSPropertyOp59
 70
     0
102
RTVSPropertyOp60
 70
     0
102
RTVSPropertyOp61
 70
     0
102
RTVSPropertyOp62
 70
     0
  0
XRECORD
  5
12893
102
{ACAD_REACTORS
330
12892
102
}
330
12892
100
AcDbXrecord
280
     1
102
RTVSPost2010Prop28
280
     0
102
RTVSPost2010PropOp28
 70
     1
102
RTVSPost2010Prop29
280
     1
102
RTVSPost2010PropOp29
 70
     1
102
RTVSPost2010Prop30
280
     1
102
RTVSPost2010PropOp30
 70
     1
102
RTVSPost2010Prop31
280
     0
102
RTVSPost2010PropOp31
 70
     1
102
RTVSPost2010Prop32
280
     0
102
RTVSPost2010PropOp32
 70
     1
102
RTVSPost2010Prop33
280
     0
102
RTVSPost2010PropOp33
 70
     1
102
RTVSPost2010Prop34
280
     0
102
RTVSPost2010PropOp34
 70
     1
102
RTVSPost2010Prop35
280
     0
102
RTVSPost2010PropOp35
 70
     1
102
RTVSPost2010Prop36
280
     0
102
RTVSPost2010PropOp36
 70
     1
102
RTVSPost2010Prop37
 90
       50
102
RTVSPost2010PropOp37
 70
     1
102
RTVSPost2010Prop38
140
0.0
102
RTVSPost2010PropOp38
 70
     1
102
RTVSPost2010Prop39
140
1.0
102
RTVSPost2010PropOp39
 70
     1
102
RTVSPost2010Prop40
 90
        0
102
RTVSPost2010PropOp40
 70
     1
102
RTVSPost2010Prop41ColorIndex
 90
       18
102
RTVSPost2010Prop41ColorRGB
 90
        0
102
RTVSPost2010PropOp41
 70
     1
102
RTVSPost2010Prop42
 90
       50
102
RTVSPost2010PropOp42
 70
     1
102
RTVSPost2010Prop43
 90
        3
102
RTVSPost2010PropOp43
 70
     1
102
RTVSPost2010Prop44ColorIndex
 90
        5
102
RTVSPost2010Prop44ColorRGB
 90
      255
102
RTVSPost2010PropOp44
 70
     1
102
RTVSPost2010Prop45
280
     0
102
RTVSPost2010PropOp45
 70
     1
102
RTVSPost2010Prop46
 90
       50
102
RTVSPost2010PropOp46
 70
     1
102
RTVSPost2010Prop47
 90
       50
102
RTVSPost2010PropOp47
 70
     1
102
RTVSPost2010Prop48
 90
       50
102
RTVSPost2010PropOp48
 70
     1
102
RTVSPost2010Prop49
280
     0
102
RTVSPost2010PropOp49
 70
     1
102
RTVSPost2010Prop50
 90
       50
102
RTVSPost2010PropOp50
 70
     1
102
RTVSPost2010Prop51ColorIndex
 90
      256
102
RTVSPost2010Prop51ColorRGB
 90
-16777216
102
RTVSPost2010PropOp51
 70
     0
102
RTVSPost2010Prop52
140
1.0
102
RTVSPost2010PropOp52
 70
     0
102
RTVSPost2010Prop53
 90
        2
102
RTVSPost2010PropOp53
 70
     1
102
RTVSPost2010Prop54
  1
strokes_ogs.tif
102
RTVSPost2010PropOp54
 70
     1
102
RTVSPost2010Prop55
280
     0
102
RTVSPost2010PropOp55
 70
     1
102
RTVSPost2010Prop56
140
1.0
102
RTVSPost2010PropOp56
 70
     1
102
RTVSPost2010Prop57
140
1.0
102
RTVSPost2010PropOp57
 70
     1
102
RTVSPropertyOp0
 70
     1
102
RTVSPropertyOp1
 70
     1
102
RTVSPropertyOp2
 70
     1
102
RTVSPropertyOp3
 70
     1
102
RTVSPropertyOp4
 70
     1
102
RTVSPropertyOp5
 70
     1
102
RTVSPropertyOp6
 70
     1
102
RTVSPropertyOp7
 70
     1
102
RTVSPropertyOp8
 70
     1
102
RTVSPropertyOp9
 70
     1
102
RTVSPropertyOp10
 70
     1
102
RTVSPropertyOp11
 70
     1
102
RTVSPropertyOp12
 70
     1
102
RTVSPropertyOp13
 70
     1
102
RTVSPropertyOp14
 70
     1
102
RTVSPropertyOp15
 70
     1
102
RTVSPropertyOp16
 70
     1
102
RTVSPropertyOp17
 70
     1
102
RTVSPropertyOp18
 70
     1
102
RTVSPropertyOp19
 70
     1
102
RTVSPropertyOp20
 70
     1
102
RTVSPropertyOp21
 70
     1
102
RTVSPropertyOp22
 70
     1
102
RTVSPropertyOp23
 70
     1
102
RTVSPropertyOp24
 70
     1
102
RTVSPropertyOp25
 70
     1
102
RTVSPropertyOp26
 70
     1
102
RTVSPropertyOp27
 70
     1
102
RTVSPropertyOp28
 70
     1
102
RTVSPropertyOp29
 70
     1
102
RTVSPropertyOp30
 70
     1
102
RTVSPropertyOp31
 70
     1
102
RTVSPropertyOp32
 70
     1
102
RTVSPropertyOp33
 70
     1
102
RTVSPropertyOp34
 70
     1
102
RTVSPropertyOp35
 70
     1
102
RTVSPropertyOp36
 70
     1
102
RTVSPropertyOp37
 70
     1
102
RTVSPropertyOp38
 70
     1
102
RTVSPropertyOp39
 70
     1
102
RTVSPropertyOp40
 70
     1
102
RTVSPropertyOp41
 70
     1
102
RTVSPropertyOp42
 70
     1
102
RTVSPropertyOp43
 70
     1
102
RTVSPropertyOp44
 70
     1
102
RTVSPropertyOp45
 70
     1
102
RTVSPropertyOp46
 70
     1
102
RTVSPropertyOp47
 70
     1
102
RTVSPropertyOp48
 70
     1
102
RTVSPropertyOp49
 70
     1
102
RTVSPropertyOp50
 70
     1
102
RTVSPropertyOp51
 70
     0
102
RTVSPropertyOp52
 70
     0
102
RTVSPropertyOp53
 70
     1
102
RTVSPropertyOp54
 70
     1
102
RTVSPropertyOp55
 70
     1
102
RTVSPropertyOp56
 70
     1
102
RTVSPropertyOp57
 70
     1
102
RTVSPropertyOp58
 70
     1
102
RTVSPropertyOp59
 70
     1
102
RTVSPropertyOp60
 70
     1
102
RTVSPropertyOp61
 70
     1
102
RTVSPropertyOp62
 70
     1
  0
XRECORD
  5
12877
102
{ACAD_REACTORS
330
12876
102
}
330
12876
100
AcDbXrecord
280
     1
102
RTVSPost2010Prop28
280
     0
102
RTVSPost2010PropOp28
 70
     1
102
RTVSPost2010Prop29
280
     1
102
RTVSPost2010PropOp29
 70
     1
102
RTVSPost2010Prop30
280
     1
102
RTVSPost2010PropOp30
 70
     1
102
RTVSPost2010Prop31
280
     0
102
RTVSPost2010PropOp31
 70
     1
102
RTVSPost2010Prop32
280
     0
102
RTVSPost2010PropOp32
 70
     1
102
RTVSPost2010Prop33
280
     0
102
RTVSPost2010PropOp33
 70
     1
102
RTVSPost2010Prop34
280
     0
102
RTVSPost2010PropOp34
 70
     1
102
RTVSPost2010Prop35
280
     0
102
RTVSPost2010PropOp35
 70
     1
102
RTVSPost2010Prop36
280
     0
102
RTVSPost2010PropOp36
 70
     1
102
RTVSPost2010Prop37
 90
       50
102
RTVSPost2010PropOp37
 70
     1
102
RTVSPost2010Prop38
140
0.0
102
RTVSPost2010PropOp38
 70
     1
102
RTVSPost2010Prop39
140
1.0
102
RTVSPost2010PropOp39
 70
     1
102
RTVSPost2010Prop40
 90
        0
102
RTVSPost2010PropOp40
 70
     1
102
RTVSPost2010Prop41ColorIndex
 90
       18
102
RTVSPost2010Prop41ColorRGB
 90
        0
102
RTVSPost2010PropOp41
 70
     1
102
RTVSPost2010Prop42
 90
       50
102
RTVSPost2010PropOp42
 70
     1
102
RTVSPost2010Prop43
 90
        3
102
RTVSPost2010PropOp43
 70
     1
102
RTVSPost2010Prop44ColorIndex
 90
        5
102
RTVSPost2010Prop44ColorRGB
 90
      255
102
RTVSPost2010PropOp44
 70
     1
102
RTVSPost2010Prop45
280
     0
102
RTVSPost2010PropOp45
 70
     1
102
RTVSPost2010Prop46
 90
       50
102
RTVSPost2010PropOp46
 70
     1
102
RTVSPost2010Prop47
 90
       50
102
RTVSPost2010PropOp47
 70
     1
102
RTVSPost2010Prop48
 90
       50
102
RTVSPost2010PropOp48
 70
     1
102
RTVSPost2010Prop49
280
     0
102
RTVSPost2010PropOp49
 70
     1
102
RTVSPost2010Prop50
 90
       50
102
RTVSPost2010PropOp50
 70
     1
102
RTVSPost2010Prop51ColorIndex
 90
      256
102
RTVSPost2010Prop51ColorRGB
 90
-16777216
102
RTVSPost2010PropOp51
 70
     0
102
RTVSPost2010Prop52
140
1.0
102
RTVSPost2010PropOp52
 70
     0
102
RTVSPost2010Prop53
 90
        2
102
RTVSPost2010PropOp53
 70
     1
102
RTVSPost2010Prop54
  1
strokes_ogs.tif
102
RTVSPost2010PropOp54
 70
     1
102
RTVSPost2010Prop55
280
     0
102
RTVSPost2010PropOp55
 70
     1
102
RTVSPost2010Prop56
140
1.0
102
RTVSPost2010PropOp56
 70
     1
102
RTVSPost2010Prop57
140
1.0
102
RTVSPost2010PropOp57
 70
     1
102
RTVSPropertyOp0
 70
     1
102
RTVSPropertyOp1
 70
     1
102
RTVSPropertyOp2
 70
     1
102
RTVSPropertyOp3
 70
     1
102
RTVSPropertyOp4
 70
     1
102
RTVSPropertyOp5
 70
     1
102
RTVSPropertyOp6
 70
     1
102
RTVSPropertyOp7
 70
     1
102
RTVSPropertyOp8
 70
     1
102
RTVSPropertyOp9
 70
     1
102
RTVSPropertyOp10
 70
     1
102
RTVSPropertyOp11
 70
     1
102
RTVSPropertyOp12
 70
     1
102
RTVSPropertyOp13
 70
     1
102
RTVSPropertyOp14
 70
     1
102
RTVSPropertyOp15
 70
     1
102
RTVSPropertyOp16
 70
     1
102
RTVSPropertyOp17
 70
     1
102
RTVSPropertyOp18
 70
     1
102
RTVSPropertyOp19
 70
     1
102
RTVSPropertyOp20
 70
     1
102
RTVSPropertyOp21
 70
     1
102
RTVSPropertyOp22
 70
     1
102
RTVSPropertyOp23
 70
     1
102
RTVSPropertyOp24
 70
     1
102
RTVSPropertyOp25
 70
     1
102
RTVSPropertyOp26
 70
     1
102
RTVSPropertyOp27
 70
     1
102
RTVSPropertyOp28
 70
     1
102
RTVSPropertyOp29
 70
     1
102
RTVSPropertyOp30
 70
     1
102
RTVSPropertyOp31
 70
     1
102
RTVSPropertyOp32
 70
     1
102
RTVSPropertyOp33
 70
     1
102
RTVSPropertyOp34
 70
     1
102
RTVSPropertyOp35
 70
     1
102
RTVSPropertyOp36
 70
     1
102
RTVSPropertyOp37
 70
     1
102
RTVSPropertyOp38
 70
     1
102
RTVSPropertyOp39
 70
     1
102
RTVSPropertyOp40
 70
     1
102
RTVSPropertyOp41
 70
     1
102
RTVSPropertyOp42
 70
     1
102
RTVSPropertyOp43
 70
     1
102
RTVSPropertyOp44
 70
     1
102
RTVSPropertyOp45
 70
     1
102
RTVSPropertyOp46
 70
     1
102
RTVSPropertyOp47
 70
     1
102
RTVSPropertyOp48
 70
     1
102
RTVSPropertyOp49
 70
     1
102
RTVSPropertyOp50
 70
     1
102
RTVSPropertyOp51
 70
     0
102
RTVSPropertyOp52
 70
     0
102
RTVSPropertyOp53
 70
     1
102
RTVSPropertyOp54
 70
     1
102
RTVSPropertyOp55
 70
     1
102
RTVSPropertyOp56
 70
     1
102
RTVSPropertyOp57
 70
     1
102
RTVSPropertyOp58
 70
     1
102
RTVSPropertyOp59
 70
     1
102
RTVSPropertyOp60
 70
     1
102
RTVSPropertyOp61
 70
     1
102
RTVSPropertyOp62
 70
     1
  0
XRECORD
  5
12879
102
{ACAD_REACTORS
330
12878
102
}
330
12878
100
AcDbXrecord
280
     1
102
RTVSPost2010Prop28
280
     0
102
RTVSPost2010PropOp28
 70
     1
102
RTVSPost2010Prop29
280
     1
102
RTVSPost2010PropOp29
 70
     1
102
RTVSPost2010Prop30
280
     1
102
RTVSPost2010PropOp30
 70
     1
102
RTVSPost2010Prop31
280
     0
102
RTVSPost2010PropOp31
 70
     1
102
RTVSPost2010Prop32
280
     0
102
RTVSPost2010PropOp32
 70
     1
102
RTVSPost2010Prop33
280
     0
102
RTVSPost2010PropOp33
 70
     1
102
RTVSPost2010Prop34
280
     0
102
RTVSPost2010PropOp34
 70
     1
102
RTVSPost2010Prop35
280
     0
102
RTVSPost2010PropOp35
 70
     1
102
RTVSPost2010Prop36
280
     0
102
RTVSPost2010PropOp36
 70
     1
102
RTVSPost2010Prop37
 90
       50
102
RTVSPost2010PropOp37
 70
     1
102
RTVSPost2010Prop38
140
0.0
102
RTVSPost2010PropOp38
 70
     1
102
RTVSPost2010Prop39
140
1.0
102
RTVSPost2010PropOp39
 70
     1
102
RTVSPost2010Prop40
 90
        0
102
RTVSPost2010PropOp40
 70
     1
102
RTVSPost2010Prop41ColorIndex
 90
       18
102
RTVSPost2010Prop41ColorRGB
 90
        0
102
RTVSPost2010PropOp41
 70
     1
102
RTVSPost2010Prop42
 90
       50
102
RTVSPost2010PropOp42
 70
     1
102
RTVSPost2010Prop43
 90
        3
102
RTVSPost2010PropOp43
 70
     1
102
RTVSPost2010Prop44ColorIndex
 90
        5
102
RTVSPost2010Prop44ColorRGB
 90
      255
102
RTVSPost2010PropOp44
 70
     1
102
RTVSPost2010Prop45
280
     0
102
RTVSPost2010PropOp45
 70
     1
102
RTVSPost2010Prop46
 90
       50
102
RTVSPost2010PropOp46
 70
     1
102
RTVSPost2010Prop47
 90
       50
102
RTVSPost2010PropOp47
 70
     1
102
RTVSPost2010Prop48
 90
       50
102
RTVSPost2010PropOp48
 70
     1
102
RTVSPost2010Prop49
280
     0
102
RTVSPost2010PropOp49
 70
     1
102
RTVSPost2010Prop50
 90
       50
102
RTVSPost2010PropOp50
 70
     1
102
RTVSPost2010Prop51ColorIndex
 90
      256
102
RTVSPost2010Prop51ColorRGB
 90
-16777216
102
RTVSPost2010PropOp51
 70
     0
102
RTVSPost2010Prop52
140
1.0
102
RTVSPost2010PropOp52
 70
     0
102
RTVSPost2010Prop53
 90
        2
102
RTVSPost2010PropOp53
 70
     1
102
RTVSPost2010Prop54
  1
strokes_ogs.tif
102
RTVSPost2010PropOp54
 70
     1
102
RTVSPost2010Prop55
280
     0
102
RTVSPost2010PropOp55
 70
     1
102
RTVSPost2010Prop56
140
1.0
102
RTVSPost2010PropOp56
 70
     1
102
RTVSPost2010Prop57
140
1.0
102
RTVSPost2010PropOp57
 70
     1
102
RTVSPropertyOp0
 70
     1
102
RTVSPropertyOp1
 70
     1
102
RTVSPropertyOp2
 70
     1
102
RTVSPropertyOp3
 70
     1
102
RTVSPropertyOp4
 70
     1
102
RTVSPropertyOp5
 70
     1
102
RTVSPropertyOp6
 70
     1
102
RTVSPropertyOp7
 70
     1
102
RTVSPropertyOp8
 70
     1
102
RTVSPropertyOp9
 70
     1
102
RTVSPropertyOp10
 70
     1
102
RTVSPropertyOp11
 70
     1
102
RTVSPropertyOp12
 70
     1
102
RTVSPropertyOp13
 70
     1
102
RTVSPropertyOp14
 70
     1
102
RTVSPropertyOp15
 70
     1
102
RTVSPropertyOp16
 70
     1
102
RTVSPropertyOp17
 70
     1
102
RTVSPropertyOp18
 70
     1
102
RTVSPropertyOp19
 70
     1
102
RTVSPropertyOp20
 70
     1
102
RTVSPropertyOp21
 70
     1
102
RTVSPropertyOp22
 70
     1
102
RTVSPropertyOp23
 70
     1
102
RTVSPropertyOp24
 70
     1
102
RTVSPropertyOp25
 70
     1
102
RTVSPropertyOp26
 70
     1
102
RTVSPropertyOp27
 70
     1
102
RTVSPropertyOp28
 70
     1
102
RTVSPropertyOp29
 70
     1
102
RTVSPropertyOp30
 70
     1
102
RTVSPropertyOp31
 70
     1
102
RTVSPropertyOp32
 70
     1
102
RTVSPropertyOp33
 70
     1
102
RTVSPropertyOp34
 70
     1
102
RTVSPropertyOp35
 70
     1
102
RTVSPropertyOp36
 70
     1
102
RTVSPropertyOp37
 70
     1
102
RTVSPropertyOp38
 70
     1
102
RTVSPropertyOp39
 70
     1
102
RTVSPropertyOp40
 70
     1
102
RTVSPropertyOp41
 70
     1
102
RTVSPropertyOp42
 70
     1
102
RTVSPropertyOp43
 70
     1
102
RTVSPropertyOp44
 70
     1
102
RTVSPropertyOp45
 70
     1
102
RTVSPropertyOp46
 70
     1
102
RTVSPropertyOp47
 70
     1
102
RTVSPropertyOp48
 70
     1
102
RTVSPropertyOp49
 70
     1
102
RTVSPropertyOp50
 70
     1
102
RTVSPropertyOp51
 70
     0
102
RTVSPropertyOp52
 70
     0
102
RTVSPropertyOp53
 70
     1
102
RTVSPropertyOp54
 70
     1
102
RTVSPropertyOp55
 70
     1
102
RTVSPropertyOp56
 70
     1
102
RTVSPropertyOp57
 70
     1
102
RTVSPropertyOp58
 70
     1
102
RTVSPropertyOp59
 70
     1
102
RTVSPropertyOp60
 70
     1
102
RTVSPropertyOp61
 70
     1
102
RTVSPropertyOp62
 70
     1
  0
XRECORD
  5
1287B
102
{ACAD_REACTORS
330
1287A
102
}
330
1287A
100
AcDbXrecord
280
     1
102
RTVSPost2010Prop28
280
     0
102
RTVSPost2010PropOp28
 70
     1
102
RTVSPost2010Prop29
280
     1
102
RTVSPost2010PropOp29
 70
     1
102
RTVSPost2010Prop30
280
     1
102
RTVSPost2010PropOp30
 70
     1
102
RTVSPost2010Prop31
280
     0
102
RTVSPost2010PropOp31
 70
     1
102
RTVSPost2010Prop32
280
     0
102
RTVSPost2010PropOp32
 70
     1
102
RTVSPost2010Prop33
280
     0
102
RTVSPost2010PropOp33
 70
     1
102
RTVSPost2010Prop34
280
     0
102
RTVSPost2010PropOp34
 70
     1
102
RTVSPost2010Prop35
280
     0
102
RTVSPost2010PropOp35
 70
     1
102
RTVSPost2010Prop36
280
     0
102
RTVSPost2010PropOp36
 70
     1
102
RTVSPost2010Prop37
 90
       50
102
RTVSPost2010PropOp37
 70
     1
102
RTVSPost2010Prop38
140
0.0
102
RTVSPost2010PropOp38
 70
     1
102
RTVSPost2010Prop39
140
1.0
102
RTVSPost2010PropOp39
 70
     1
102
RTVSPost2010Prop40
 90
        0
102
RTVSPost2010PropOp40
 70
     1
102
RTVSPost2010Prop41ColorIndex
 90
       18
102
RTVSPost2010Prop41ColorRGB
 90
        0
102
RTVSPost2010PropOp41
 70
     1
102
RTVSPost2010Prop42
 90
       50
102
RTVSPost2010PropOp42
 70
     1
102
RTVSPost2010Prop43
 90
        3
102
RTVSPost2010PropOp43
 70
     1
102
RTVSPost2010Prop44ColorIndex
 90
        5
102
RTVSPost2010Prop44ColorRGB
 90
      255
102
RTVSPost2010PropOp44
 70
     1
102
RTVSPost2010Prop45
280
     0
102
RTVSPost2010PropOp45
 70
     1
102
RTVSPost2010Prop46
 90
       50
102
RTVSPost2010PropOp46
 70
     1
102
RTVSPost2010Prop47
 90
       50
102
RTVSPost2010PropOp47
 70
     1
102
RTVSPost2010Prop48
 90
       50
102
RTVSPost2010PropOp48
 70
     1
102
RTVSPost2010Prop49
280
     0
102
RTVSPost2010PropOp49
 70
     1
102
RTVSPost2010Prop50
 90
       50
102
RTVSPost2010PropOp50
 70
     1
102
RTVSPost2010Prop51ColorIndex
 90
      256
102
RTVSPost2010Prop51ColorRGB
 90
-16777216
102
RTVSPost2010PropOp51
 70
     0
102
RTVSPost2010Prop52
140
1.0
102
RTVSPost2010PropOp52
 70
     0
102
RTVSPost2010Prop53
 90
        2
102
RTVSPost2010PropOp53
 70
     1
102
RTVSPost2010Prop54
  1
strokes_ogs.tif
102
RTVSPost2010PropOp54
 70
     1
102
RTVSPost2010Prop55
280
     0
102
RTVSPost2010PropOp55
 70
     1
102
RTVSPost2010Prop56
140
1.0
102
RTVSPost2010PropOp56
 70
     1
102
RTVSPost2010Prop57
140
1.0
102
RTVSPost2010PropOp57
 70
     1
102
RTVSPropertyOp0
 70
     1
102
RTVSPropertyOp1
 70
     1
102
RTVSPropertyOp2
 70
     1
102
RTVSPropertyOp3
 70
     1
102
RTVSPropertyOp4
 70
     1
102
RTVSPropertyOp5
 70
     1
102
RTVSPropertyOp6
 70
     1
102
RTVSPropertyOp7
 70
     1
102
RTVSPropertyOp8
 70
     1
102
RTVSPropertyOp9
 70
     1
102
RTVSPropertyOp10
 70
     1
102
RTVSPropertyOp11
 70
     1
102
RTVSPropertyOp12
 70
     1
102
RTVSPropertyOp13
 70
     1
102
RTVSPropertyOp14
 70
     1
102
RTVSPropertyOp15
 70
     1
102
RTVSPropertyOp16
 70
     1
102
RTVSPropertyOp17
 70
     1
102
RTVSPropertyOp18
 70
     1
102
RTVSPropertyOp19
 70
     1
102
RTVSPropertyOp20
 70
     1
102
RTVSPropertyOp21
 70
     1
102
RTVSPropertyOp22
 70
     1
102
RTVSPropertyOp23
 70
     1
102
RTVSPropertyOp24
 70
     1
102
RTVSPropertyOp25
 70
     1
102
RTVSPropertyOp26
 70
     1
102
RTVSPropertyOp27
 70
     1
102
RTVSPropertyOp28
 70
     1
102
RTVSPropertyOp29
 70
     1
102
RTVSPropertyOp30
 70
     1
102
RTVSPropertyOp31
 70
     1
102
RTVSPropertyOp32
 70
     1
102
RTVSPropertyOp33
 70
     1
102
RTVSPropertyOp34
 70
     1
102
RTVSPropertyOp35
 70
     1
102
RTVSPropertyOp36
 70
     1
102
RTVSPropertyOp37
 70
     1
102
RTVSPropertyOp38
 70
     1
102
RTVSPropertyOp39
 70
     1
102
RTVSPropertyOp40
 70
     1
102
RTVSPropertyOp41
 70
     1
102
RTVSPropertyOp42
 70
     1
102
RTVSPropertyOp43
 70
     1
102
RTVSPropertyOp44
 70
     1
102
RTVSPropertyOp45
 70
     1
102
RTVSPropertyOp46
 70
     1
102
RTVSPropertyOp47
 70
     1
102
RTVSPropertyOp48
 70
     1
102
RTVSPropertyOp49
 70
     1
102
RTVSPropertyOp50
 70
     1
102
RTVSPropertyOp51
 70
     0
102
RTVSPropertyOp52
 70
     0
102
RTVSPropertyOp53
 70
     1
102
RTVSPropertyOp54
 70
     1
102
RTVSPropertyOp55
 70
     1
102
RTVSPropertyOp56
 70
     1
102
RTVSPropertyOp57
 70
     1
102
RTVSPropertyOp58
 70
     1
102
RTVSPropertyOp59
 70
     1
102
RTVSPropertyOp60
 70
     1
102
RTVSPropertyOp61
 70
     1
102
RTVSPropertyOp62
 70
     1
  0
XRECORD
  5
1287D
102
{ACAD_REACTORS
330
1287C
102
}
330
1287C
100
AcDbXrecord
280
     1
102
RTVSPost2010Prop28
280
     0
102
RTVSPost2010PropOp28
 70
     1
102
RTVSPost2010Prop29
280
     1
102
RTVSPost2010PropOp29
 70
     1
102
RTVSPost2010Prop30
280
     1
102
RTVSPost2010PropOp30
 70
     1
102
RTVSPost2010Prop31
280
     0
102
RTVSPost2010PropOp31
 70
     1
102
RTVSPost2010Prop32
280
     0
102
RTVSPost2010PropOp32
 70
     1
102
RTVSPost2010Prop33
280
     0
102
RTVSPost2010PropOp33
 70
     1
102
RTVSPost2010Prop34
280
     0
102
RTVSPost2010PropOp34
 70
     1
102
RTVSPost2010Prop35
280
     0
102
RTVSPost2010PropOp35
 70
     1
102
RTVSPost2010Prop36
280
     0
102
RTVSPost2010PropOp36
 70
     1
102
RTVSPost2010Prop37
 90
       50
102
RTVSPost2010PropOp37
 70
     1
102
RTVSPost2010Prop38
140
0.0
102
RTVSPost2010PropOp38
 70
     1
102
RTVSPost2010Prop39
140
1.0
102
RTVSPost2010PropOp39
 70
     1
102
RTVSPost2010Prop40
 90
        0
102
RTVSPost2010PropOp40
 70
     1
102
RTVSPost2010Prop41ColorIndex
 90
       18
102
RTVSPost2010Prop41ColorRGB
 90
        0
102
RTVSPost2010PropOp41
 70
     1
102
RTVSPost2010Prop42
 90
       50
102
RTVSPost2010PropOp42
 70
     1
102
RTVSPost2010Prop43
 90
        3
102
RTVSPost2010PropOp43
 70
     1
102
RTVSPost2010Prop44ColorIndex
 90
        5
102
RTVSPost2010Prop44ColorRGB
 90
      255
102
RTVSPost2010PropOp44
 70
     1
102
RTVSPost2010Prop45
280
     0
102
RTVSPost2010PropOp45
 70
     1
102
RTVSPost2010Prop46
 90
       50
102
RTVSPost2010PropOp46
 70
     1
102
RTVSPost2010Prop47
 90
       50
102
RTVSPost2010PropOp47
 70
     1
102
RTVSPost2010Prop48
 90
       50
102
RTVSPost2010PropOp48
 70
     1
102
RTVSPost2010Prop49
280
     0
102
RTVSPost2010PropOp49
 70
     1
102
RTVSPost2010Prop50
 90
       50
102
RTVSPost2010PropOp50
 70
     1
102
RTVSPost2010Prop51ColorIndex
 90
      256
102
RTVSPost2010Prop51ColorRGB
 90
-16777216
102
RTVSPost2010PropOp51
 70
     0
102
RTVSPost2010Prop52
140
1.0
102
RTVSPost2010PropOp52
 70
     0
102
RTVSPost2010Prop53
 90
        2
102
RTVSPost2010PropOp53
 70
     1
102
RTVSPost2010Prop54
  1
strokes_ogs.tif
102
RTVSPost2010PropOp54
 70
     1
102
RTVSPost2010Prop55
280
     0
102
RTVSPost2010PropOp55
 70
     1
102
RTVSPost2010Prop56
140
1.0
102
RTVSPost2010PropOp56
 70
     1
102
RTVSPost2010Prop57
140
1.0
102
RTVSPost2010PropOp57
 70
     1
102
RTVSPropertyOp0
 70
     1
102
RTVSPropertyOp1
 70
     1
102
RTVSPropertyOp2
 70
     1
102
RTVSPropertyOp3
 70
     1
102
RTVSPropertyOp4
 70
     1
102
RTVSPropertyOp5
 70
     1
102
RTVSPropertyOp6
 70
     1
102
RTVSPropertyOp7
 70
     1
102
RTVSPropertyOp8
 70
     1
102
RTVSPropertyOp9
 70
     1
102
RTVSPropertyOp10
 70
     1
102
RTVSPropertyOp11
 70
     1
102
RTVSPropertyOp12
 70
     1
102
RTVSPropertyOp13
 70
     1
102
RTVSPropertyOp14
 70
     1
102
RTVSPropertyOp15
 70
     1
102
RTVSPropertyOp16
 70
     1
102
RTVSPropertyOp17
 70
     1
102
RTVSPropertyOp18
 70
     1
102
RTVSPropertyOp19
 70
     1
102
RTVSPropertyOp20
 70
     1
102
RTVSPropertyOp21
 70
     1
102
RTVSPropertyOp22
 70
     1
102
RTVSPropertyOp23
 70
     1
102
RTVSPropertyOp24
 70
     1
102
RTVSPropertyOp25
 70
     1
102
RTVSPropertyOp26
 70
     1
102
RTVSPropertyOp27
 70
     1
102
RTVSPropertyOp28
 70
     1
102
RTVSPropertyOp29
 70
     1
102
RTVSPropertyOp30
 70
     1
102
RTVSPropertyOp31
 70
     1
102
RTVSPropertyOp32
 70
     1
102
RTVSPropertyOp33
 70
     1
102
RTVSPropertyOp34
 70
     1
102
RTVSPropertyOp35
 70
     1
102
RTVSPropertyOp36
 70
     1
102
RTVSPropertyOp37
 70
     1
102
RTVSPropertyOp38
 70
     1
102
RTVSPropertyOp39
 70
     1
102
RTVSPropertyOp40
 70
     1
102
RTVSPropertyOp41
 70
     1
102
RTVSPropertyOp42
 70
     1
102
RTVSPropertyOp43
 70
     1
102
RTVSPropertyOp44
 70
     1
102
RTVSPropertyOp45
 70
     1
102
RTVSPropertyOp46
 70
     1
102
RTVSPropertyOp47
 70
     1
102
RTVSPropertyOp48
 70
     1
102
RTVSPropertyOp49
 70
     1
102
RTVSPropertyOp50
 70
     1
102
RTVSPropertyOp51
 70
     0
102
RTVSPropertyOp52
 70
     0
102
RTVSPropertyOp53
 70
     1
102
RTVSPropertyOp54
 70
     1
102
RTVSPropertyOp55
 70
     1
102
RTVSPropertyOp56
 70
     1
102
RTVSPropertyOp57
 70
     1
102
RTVSPropertyOp58
 70
     1
102
RTVSPropertyOp59
 70
     1
102
RTVSPropertyOp60
 70
     1
102
RTVSPropertyOp61
 70
     1
102
RTVSPropertyOp62
 70
     1
  0
XRECORD
  5
12885
102
{ACAD_REACTORS
330
12884
102
}
330
12884
100
AcDbXrecord
280
     1
102
RTVSPost2010Prop28
280
     0
102
RTVSPost2010PropOp28
 70
     1
102
RTVSPost2010Prop29
280
     1
102
RTVSPost2010PropOp29
 70
     1
102
RTVSPost2010Prop30
280
     1
102
RTVSPost2010PropOp30
 70
     1
102
RTVSPost2010Prop31
280
     0
102
RTVSPost2010PropOp31
 70
     1
102
RTVSPost2010Prop32
280
     0
102
RTVSPost2010PropOp32
 70
     1
102
RTVSPost2010Prop33
280
     0
102
RTVSPost2010PropOp33
 70
     1
102
RTVSPost2010Prop34
280
     0
102
RTVSPost2010PropOp34
 70
     1
102
RTVSPost2010Prop35
280
     0
102
RTVSPost2010PropOp35
 70
     1
102
RTVSPost2010Prop36
280
     0
102
RTVSPost2010PropOp36
 70
     1
102
RTVSPost2010Prop37
 90
       50
102
RTVSPost2010PropOp37
 70
     1
102
RTVSPost2010Prop38
140
0.0
102
RTVSPost2010PropOp38
 70
     1
102
RTVSPost2010Prop39
140
1.0
102
RTVSPost2010PropOp39
 70
     1
102
RTVSPost2010Prop40
 90
        0
102
RTVSPost2010PropOp40
 70
     1
102
RTVSPost2010Prop41ColorIndex
 90
       18
102
RTVSPost2010Prop41ColorRGB
 90
        0
102
RTVSPost2010PropOp41
 70
     1
102
RTVSPost2010Prop42
 90
       50
102
RTVSPost2010PropOp42
 70
     1
102
RTVSPost2010Prop43
 90
        3
102
RTVSPost2010PropOp43
 70
     1
102
RTVSPost2010Prop44ColorIndex
 90
        5
102
RTVSPost2010Prop44ColorRGB
 90
      255
102
RTVSPost2010PropOp44
 70
     1
102
RTVSPost2010Prop45
280
     0
102
RTVSPost2010PropOp45
 70
     1
102
RTVSPost2010Prop46
 90
       50
102
RTVSPost2010PropOp46
 70
     1
102
RTVSPost2010Prop47
 90
       50
102
RTVSPost2010PropOp47
 70
     1
102
RTVSPost2010Prop48
 90
       50
102
RTVSPost2010PropOp48
 70
     1
102
RTVSPost2010Prop49
280
     0
102
RTVSPost2010PropOp49
 70
     1
102
RTVSPost2010Prop50
 90
       50
102
RTVSPost2010PropOp50
 70
     1
102
RTVSPost2010Prop51ColorIndex
 90
      256
102
RTVSPost2010Prop51ColorRGB
 90
-16777216
102
RTVSPost2010PropOp51
 70
     0
102
RTVSPost2010Prop52
140
1.0
102
RTVSPost2010PropOp52
 70
     0
102
RTVSPost2010Prop53
 90
        2
102
RTVSPost2010PropOp53
 70
     1
102
RTVSPost2010Prop54
  1
strokes_ogs.tif
102
RTVSPost2010PropOp54
 70
     1
102
RTVSPost2010Prop55
280
     0
102
RTVSPost2010PropOp55
 70
     1
102
RTVSPost2010Prop56
140
1.0
102
RTVSPost2010PropOp56
 70
     1
102
RTVSPost2010Prop57
140
1.0
102
RTVSPost2010PropOp57
 70
     1
102
RTVSPropertyOp0
 70
     1
102
RTVSPropertyOp1
 70
     1
102
RTVSPropertyOp2
 70
     1
102
RTVSPropertyOp3
 70
     1
102
RTVSPropertyOp4
 70
     1
102
RTVSPropertyOp5
 70
     1
102
RTVSPropertyOp6
 70
     1
102
RTVSPropertyOp7
 70
     1
102
RTVSPropertyOp8
 70
     1
102
RTVSPropertyOp9
 70
     1
102
RTVSPropertyOp10
 70
     1
102
RTVSPropertyOp11
 70
     1
102
RTVSPropertyOp12
 70
     1
102
RTVSPropertyOp13
 70
     1
102
RTVSPropertyOp14
 70
     1
102
RTVSPropertyOp15
 70
     1
102
RTVSPropertyOp16
 70
     1
102
RTVSPropertyOp17
 70
     1
102
RTVSPropertyOp18
 70
     1
102
RTVSPropertyOp19
 70
     1
102
RTVSPropertyOp20
 70
     1
102
RTVSPropertyOp21
 70
     1
102
RTVSPropertyOp22
 70
     1
102
RTVSPropertyOp23
 70
     1
102
RTVSPropertyOp24
 70
     1
102
RTVSPropertyOp25
 70
     1
102
RTVSPropertyOp26
 70
     1
102
RTVSPropertyOp27
 70
     1
102
RTVSPropertyOp28
 70
     1
102
RTVSPropertyOp29
 70
     1
102
RTVSPropertyOp30
 70
     1
102
RTVSPropertyOp31
 70
     1
102
RTVSPropertyOp32
 70
     1
102
RTVSPropertyOp33
 70
     1
102
RTVSPropertyOp34
 70
     1
102
RTVSPropertyOp35
 70
     1
102
RTVSPropertyOp36
 70
     1
102
RTVSPropertyOp37
 70
     1
102
RTVSPropertyOp38
 70
     1
102
RTVSPropertyOp39
 70
     1
102
RTVSPropertyOp40
 70
     1
102
RTVSPropertyOp41
 70
     1
102
RTVSPropertyOp42
 70
     1
102
RTVSPropertyOp43
 70
     1
102
RTVSPropertyOp44
 70
     1
102
RTVSPropertyOp45
 70
     1
102
RTVSPropertyOp46
 70
     1
102
RTVSPropertyOp47
 70
     1
102
RTVSPropertyOp48
 70
     1
102
RTVSPropertyOp49
 70
     1
102
RTVSPropertyOp50
 70
     1
102
RTVSPropertyOp51
 70
     0
102
RTVSPropertyOp52
 70
     0
102
RTVSPropertyOp53
 70
     1
102
RTVSPropertyOp54
 70
     1
102
RTVSPropertyOp55
 70
     1
102
RTVSPropertyOp56
 70
     1
102
RTVSPropertyOp57
 70
     1
102
RTVSPropertyOp58
 70
     1
102
RTVSPropertyOp59
 70
     1
102
RTVSPropertyOp60
 70
     1
102
RTVSPropertyOp61
 70
     1
102
RTVSPropertyOp62
 70
     1
  0
XRECORD
  5
128A1
102
{ACAD_REACTORS
330
128A0
102
}
330
128A0
100
AcDbXrecord
280
     1
102
RTVSPost2010Prop28
280
     0
102
RTVSPost2010PropOp28
 70
     1
102
RTVSPost2010Prop29
280
     1
102
RTVSPost2010PropOp29
 70
     1
102
RTVSPost2010Prop30
280
     1
102
RTVSPost2010PropOp30
 70
     1
102
RTVSPost2010Prop31
280
     0
102
RTVSPost2010PropOp31
 70
     1
102
RTVSPost2010Prop32
280
     0
102
RTVSPost2010PropOp32
 70
     1
102
RTVSPost2010Prop33
280
     0
102
RTVSPost2010PropOp33
 70
     1
102
RTVSPost2010Prop34
280
     0
102
RTVSPost2010PropOp34
 70
     1
102
RTVSPost2010Prop35
280
     0
102
RTVSPost2010PropOp35
 70
     1
102
RTVSPost2010Prop36
280
     0
102
RTVSPost2010PropOp36
 70
     1
102
RTVSPost2010Prop37
 90
       50
102
RTVSPost2010PropOp37
 70
     0
102
RTVSPost2010Prop38
140
0.0
102
RTVSPost2010PropOp38
 70
     0
102
RTVSPost2010Prop39
140
1.0
102
RTVSPost2010PropOp39
 70
     0
102
RTVSPost2010Prop40
 90
        0
102
RTVSPost2010PropOp40
 70
     0
102
RTVSPost2010Prop41ColorIndex
 90
       18
102
RTVSPost2010Prop41ColorRGB
 90
        0
102
RTVSPost2010PropOp41
 70
     0
102
RTVSPost2010Prop42
 90
       50
102
RTVSPost2010PropOp42
 70
     0
102
RTVSPost2010Prop43
 90
        3
102
RTVSPost2010PropOp43
 70
     0
102
RTVSPost2010Prop44ColorIndex
 90
        5
102
RTVSPost2010Prop44ColorRGB
 90
      255
102
RTVSPost2010PropOp44
 70
     0
102
RTVSPost2010Prop45
280
     0
102
RTVSPost2010PropOp45
 70
     1
102
RTVSPost2010Prop46
 90
       50
102
RTVSPost2010PropOp46
 70
     0
102
RTVSPost2010Prop47
 90
       50
102
RTVSPost2010PropOp47
 70
     0
102
RTVSPost2010Prop48
 90
       50
102
RTVSPost2010PropOp48
 70
     0
102
RTVSPost2010Prop49
280
     0
102
RTVSPost2010PropOp49
 70
     1
102
RTVSPost2010Prop50
 90
       50
102
RTVSPost2010PropOp50
 70
     0
102
RTVSPost2010Prop51ColorIndex
 90
      256
102
RTVSPost2010Prop51ColorRGB
 90
-16777216
102
RTVSPost2010PropOp51
 70
     0
102
RTVSPost2010Prop52
140
1.0
102
RTVSPost2010PropOp52
 70
     0
102
RTVSPost2010Prop53
 90
        2
102
RTVSPost2010PropOp53
 70
     0
102
RTVSPost2010Prop54
  1
strokes_ogs.tif
102
RTVSPost2010PropOp54
 70
     0
102
RTVSPost2010Prop55
280
     0
102
RTVSPost2010PropOp55
 70
     1
102
RTVSPost2010Prop56
140
1.0
102
RTVSPost2010PropOp56
 70
     0
102
RTVSPost2010Prop57
140
1.0
102
RTVSPost2010PropOp57
 70
     0
102
RTVSPropertyOp0
 70
     0
102
RTVSPropertyOp1
 70
     0
102
RTVSPropertyOp2
 70
     0
102
RTVSPropertyOp3
 70
     0
102
RTVSPropertyOp4
 70
     0
102
RTVSPropertyOp5
 70
     0
102
RTVSPropertyOp6
 70
     0
102
RTVSPropertyOp7
 70
     0
102
RTVSPropertyOp8
 70
     0
102
RTVSPropertyOp9
 70
     0
102
RTVSPropertyOp10
 70
     0
102
RTVSPropertyOp11
 70
     0
102
RTVSPropertyOp12
 70
     0
102
RTVSPropertyOp13
 70
     0
102
RTVSPropertyOp14
 70
     2
102
RTVSPropertyOp15
 70
     0
102
RTVSPropertyOp16
 70
     0
102
RTVSPropertyOp17
 70
     0
102
RTVSPropertyOp18
 70
     0
102
RTVSPropertyOp19
 70
     0
102
RTVSPropertyOp20
 70
     0
102
RTVSPropertyOp21
 70
     0
102
RTVSPropertyOp22
 70
     0
102
RTVSPropertyOp23
 70
     0
102
RTVSPropertyOp24
 70
     0
102
RTVSPropertyOp25
 70
     0
102
RTVSPropertyOp26
 70
     0
102
RTVSPropertyOp27
 70
     0
102
RTVSPropertyOp28
 70
     1
102
RTVSPropertyOp29
 70
     1
102
RTVSPropertyOp30
 70
     1
102
RTVSPropertyOp31
 70
     1
102
RTVSPropertyOp32
 70
     1
102
RTVSPropertyOp33
 70
     1
102
RTVSPropertyOp34
 70
     1
102
RTVSPropertyOp35
 70
     1
102
RTVSPropertyOp36
 70
     1
102
RTVSPropertyOp37
 70
     0
102
RTVSPropertyOp38
 70
     0
102
RTVSPropertyOp39
 70
     0
102
RTVSPropertyOp40
 70
     0
102
RTVSPropertyOp41
 70
     0
102
RTVSPropertyOp42
 70
     0
102
RTVSPropertyOp43
 70
     0
102
RTVSPropertyOp44
 70
     0
102
RTVSPropertyOp45
 70
     1
102
RTVSPropertyOp46
 70
     0
102
RTVSPropertyOp47
 70
     0
102
RTVSPropertyOp48
 70
     0
102
RTVSPropertyOp49
 70
     1
102
RTVSPropertyOp50
 70
     0
102
RTVSPropertyOp51
 70
     0
102
RTVSPropertyOp52
 70
     0
102
RTVSPropertyOp53
 70
     0
102
RTVSPropertyOp54
 70
     0
102
RTVSPropertyOp55
 70
     1
102
RTVSPropertyOp56
 70
     0
102
RTVSPropertyOp57
 70
     0
102
RTVSPropertyOp58
 70
     0
102
RTVSPropertyOp59
 70
     0
102
RTVSPropertyOp60
 70
     0
102
RTVSPropertyOp61
 70
     0
102
RTVSPropertyOp62
 70
     0
  0
XRECORD
  5
12891
102
{ACAD_REACTORS
330
12890
102
}
330
12890
100
AcDbXrecord
280
     1
102
RTVSPost2010Prop28
280
     0
102
RTVSPost2010PropOp28
 70
     1
102
RTVSPost2010Prop29
280
     1
102
RTVSPost2010PropOp29
 70
     1
102
RTVSPost2010Prop30
280
     1
102
RTVSPost2010PropOp30
 70
     1
102
RTVSPost2010Prop31
280
     0
102
RTVSPost2010PropOp31
 70
     1
102
RTVSPost2010Prop32
280
     0
102
RTVSPost2010PropOp32
 70
     1
102
RTVSPost2010Prop33
280
     0
102
RTVSPost2010PropOp33
 70
     1
102
RTVSPost2010Prop34
280
     0
102
RTVSPost2010PropOp34
 70
     1
102
RTVSPost2010Prop35
280
     0
102
RTVSPost2010PropOp35
 70
     1
102
RTVSPost2010Prop36
280
     0
102
RTVSPost2010PropOp36
 70
     1
102
RTVSPost2010Prop37
 90
       50
102
RTVSPost2010PropOp37
 70
     1
102
RTVSPost2010Prop38
140
0.0
102
RTVSPost2010PropOp38
 70
     1
102
RTVSPost2010Prop39
140
1.0
102
RTVSPost2010PropOp39
 70
     1
102
RTVSPost2010Prop40
 90
        0
102
RTVSPost2010PropOp40
 70
     1
102
RTVSPost2010Prop41ColorIndex
 90
       18
102
RTVSPost2010Prop41ColorRGB
 90
        0
102
RTVSPost2010PropOp41
 70
     1
102
RTVSPost2010Prop42
 90
       50
102
RTVSPost2010PropOp42
 70
     1
102
RTVSPost2010Prop43
 90
        3
102
RTVSPost2010PropOp43
 70
     1
102
RTVSPost2010Prop44ColorIndex
 90
        5
102
RTVSPost2010Prop44ColorRGB
 90
      255
102
RTVSPost2010PropOp44
 70
     1
102
RTVSPost2010Prop45
280
     0
102
RTVSPost2010PropOp45
 70
     1
102
RTVSPost2010Prop46
 90
       50
102
RTVSPost2010PropOp46
 70
     1
102
RTVSPost2010Prop47
 90
       50
102
RTVSPost2010PropOp47
 70
     1
102
RTVSPost2010Prop48
 90
       50
102
RTVSPost2010PropOp48
 70
     1
102
RTVSPost2010Prop49
280
     0
102
RTVSPost2010PropOp49
 70
     1
102
RTVSPost2010Prop50
 90
       50
102
RTVSPost2010PropOp50
 70
     1
102
RTVSPost2010Prop51ColorIndex
 90
      256
102
RTVSPost2010Prop51ColorRGB
 90
-16777216
102
RTVSPost2010PropOp51
 70
     0
102
RTVSPost2010Prop52
140
1.0
102
RTVSPost2010PropOp52
 70
     0
102
RTVSPost2010Prop53
 90
        2
102
RTVSPost2010PropOp53
 70
     1
102
RTVSPost2010Prop54
  1
strokes_ogs.tif
102
RTVSPost2010PropOp54
 70
     1
102
RTVSPost2010Prop55
280
     0
102
RTVSPost2010PropOp55
 70
     1
102
RTVSPost2010Prop56
140
1.0
102
RTVSPost2010PropOp56
 70
     1
102
RTVSPost2010Prop57
140
1.0
102
RTVSPost2010PropOp57
 70
     1
102
RTVSPropertyOp0
 70
     1
102
RTVSPropertyOp1
 70
     1
102
RTVSPropertyOp2
 70
     1
102
RTVSPropertyOp3
 70
     1
102
RTVSPropertyOp4
 70
     1
102
RTVSPropertyOp5
 70
     1
102
RTVSPropertyOp6
 70
     1
102
RTVSPropertyOp7
 70
     1
102
RTVSPropertyOp8
 70
     1
102
RTVSPropertyOp9
 70
     1
102
RTVSPropertyOp10
 70
     1
102
RTVSPropertyOp11
 70
     1
102
RTVSPropertyOp12
 70
     1
102
RTVSPropertyOp13
 70
     1
102
RTVSPropertyOp14
 70
     1
102
RTVSPropertyOp15
 70
     1
102
RTVSPropertyOp16
 70
     1
102
RTVSPropertyOp17
 70
     1
102
RTVSPropertyOp18
 70
     1
102
RTVSPropertyOp19
 70
     1
102
RTVSPropertyOp20
 70
     1
102
RTVSPropertyOp21
 70
     1
102
RTVSPropertyOp22
 70
     1
102
RTVSPropertyOp23
 70
     1
102
RTVSPropertyOp24
 70
     1
102
RTVSPropertyOp25
 70
     1
102
RTVSPropertyOp26
 70
     1
102
RTVSPropertyOp27
 70
     1
102
RTVSPropertyOp28
 70
     1
102
RTVSPropertyOp29
 70
     1
102
RTVSPropertyOp30
 70
     1
102
RTVSPropertyOp31
 70
     1
102
RTVSPropertyOp32
 70
     1
102
RTVSPropertyOp33
 70
     1
102
RTVSPropertyOp34
 70
     1
102
RTVSPropertyOp35
 70
     1
102
RTVSPropertyOp36
 70
     1
102
RTVSPropertyOp37
 70
     1
102
RTVSPropertyOp38
 70
     1
102
RTVSPropertyOp39
 70
     1
102
RTVSPropertyOp40
 70
     1
102
RTVSPropertyOp41
 70
     1
102
RTVSPropertyOp42
 70
     1
102
RTVSPropertyOp43
 70
     1
102
RTVSPropertyOp44
 70
     1
102
RTVSPropertyOp45
 70
     1
102
RTVSPropertyOp46
 70
     1
102
RTVSPropertyOp47
 70
     1
102
RTVSPropertyOp48
 70
     1
102
RTVSPropertyOp49
 70
     1
102
RTVSPropertyOp50
 70
     1
102
RTVSPropertyOp51
 70
     0
102
RTVSPropertyOp52
 70
     0
102
RTVSPropertyOp53
 70
     1
102
RTVSPropertyOp54
 70
     1
102
RTVSPropertyOp55
 70
     1
102
RTVSPropertyOp56
 70
     1
102
RTVSPropertyOp57
 70
     1
102
RTVSPropertyOp58
 70
     1
102
RTVSPropertyOp59
 70
     1
102
RTVSPropertyOp60
 70
     1
102
RTVSPropertyOp61
 70
     1
102
RTVSPropertyOp62
 70
     1
  0
XRECORD
  5
128A3
102
{ACAD_REACTORS
330
128A2
102
}
330
128A2
100
AcDbXrecord
280
     1
102
RTVSPost2010Prop28
280
     0
102
RTVSPost2010PropOp28
 70
     1
102
RTVSPost2010Prop29
280
     1
102
RTVSPost2010PropOp29
 70
     1
102
RTVSPost2010Prop30
280
     1
102
RTVSPost2010PropOp30
 70
     1
102
RTVSPost2010Prop31
280
     0
102
RTVSPost2010PropOp31
 70
     1
102
RTVSPost2010Prop32
280
     0
102
RTVSPost2010PropOp32
 70
     1
102
RTVSPost2010Prop33
280
     0
102
RTVSPost2010PropOp33
 70
     1
102
RTVSPost2010Prop34
280
     0
102
RTVSPost2010PropOp34
 70
     1
102
RTVSPost2010Prop35
280
     0
102
RTVSPost2010PropOp35
 70
     1
102
RTVSPost2010Prop36
280
     0
102
RTVSPost2010PropOp36
 70
     1
102
RTVSPost2010Prop37
 90
       50
102
RTVSPost2010PropOp37
 70
     0
102
RTVSPost2010Prop38
140
0.0
102
RTVSPost2010PropOp38
 70
     0
102
RTVSPost2010Prop39
140
1.0
102
RTVSPost2010PropOp39
 70
     0
102
RTVSPost2010Prop40
 90
        0
102
RTVSPost2010PropOp40
 70
     0
102
RTVSPost2010Prop41ColorIndex
 90
       18
102
RTVSPost2010Prop41ColorRGB
 90
        0
102
RTVSPost2010PropOp41
 70
     0
102
RTVSPost2010Prop42
 90
       50
102
RTVSPost2010PropOp42
 70
     0
102
RTVSPost2010Prop43
 90
        3
102
RTVSPost2010PropOp43
 70
     0
102
RTVSPost2010Prop44ColorIndex
 90
        5
102
RTVSPost2010Prop44ColorRGB
 90
      255
102
RTVSPost2010PropOp44
 70
     0
102
RTVSPost2010Prop45
280
     0
102
RTVSPost2010PropOp45
 70
     1
102
RTVSPost2010Prop46
 90
       50
102
RTVSPost2010PropOp46
 70
     0
102
RTVSPost2010Prop47
 90
       50
102
RTVSPost2010PropOp47
 70
     0
102
RTVSPost2010Prop48
 90
       50
102
RTVSPost2010PropOp48
 70
     0
102
RTVSPost2010Prop49
280
     0
102
RTVSPost2010PropOp49
 70
     1
102
RTVSPost2010Prop50
 90
       50
102
RTVSPost2010PropOp50
 70
     0
102
RTVSPost2010Prop51ColorIndex
 90
      256
102
RTVSPost2010Prop51ColorRGB
 90
-16777216
102
RTVSPost2010PropOp51
 70
     0
102
RTVSPost2010Prop52
140
1.0
102
RTVSPost2010PropOp52
 70
     0
102
RTVSPost2010Prop53
 90
        2
102
RTVSPost2010PropOp53
 70
     0
102
RTVSPost2010Prop54
  1
strokes_ogs.tif
102
RTVSPost2010PropOp54
 70
     0
102
RTVSPost2010Prop55
280
     0
102
RTVSPost2010PropOp55
 70
     1
102
RTVSPost2010Prop56
140
1.0
102
RTVSPost2010PropOp56
 70
     0
102
RTVSPost2010Prop57
140
1.0
102
RTVSPost2010PropOp57
 70
     0
102
RTVSPropertyOp0
 70
     0
102
RTVSPropertyOp1
 70
     0
102
RTVSPropertyOp2
 70
     0
102
RTVSPropertyOp3
 70
     0
102
RTVSPropertyOp4
 70
     0
102
RTVSPropertyOp5
 70
     0
102
RTVSPropertyOp6
 70
     0
102
RTVSPropertyOp7
 70
     0
102
RTVSPropertyOp8
 70
     0
102
RTVSPropertyOp9
 70
     0
102
RTVSPropertyOp10
 70
     0
102
RTVSPropertyOp11
 70
     0
102
RTVSPropertyOp12
 70
     0
102
RTVSPropertyOp13
 70
     0
102
RTVSPropertyOp14
 70
     2
102
RTVSPropertyOp15
 70
     0
102
RTVSPropertyOp16
 70
     0
102
RTVSPropertyOp17
 70
     0
102
RTVSPropertyOp18
 70
     0
102
RTVSPropertyOp19
 70
     0
102
RTVSPropertyOp20
 70
     0
102
RTVSPropertyOp21
 70
     0
102
RTVSPropertyOp22
 70
     0
102
RTVSPropertyOp23
 70
     0
102
RTVSPropertyOp24
 70
     0
102
RTVSPropertyOp25
 70
     0
102
RTVSPropertyOp26
 70
     0
102
RTVSPropertyOp27
 70
     0
102
RTVSPropertyOp28
 70
     1
102
RTVSPropertyOp29
 70
     1
102
RTVSPropertyOp30
 70
     1
102
RTVSPropertyOp31
 70
     1
102
RTVSPropertyOp32
 70
     1
102
RTVSPropertyOp33
 70
     1
102
RTVSPropertyOp34
 70
     1
102
RTVSPropertyOp35
 70
     1
102
RTVSPropertyOp36
 70
     1
102
RTVSPropertyOp37
 70
     0
102
RTVSPropertyOp38
 70
     0
102
RTVSPropertyOp39
 70
     0
102
RTVSPropertyOp40
 70
     0
102
RTVSPropertyOp41
 70
     0
102
RTVSPropertyOp42
 70
     0
102
RTVSPropertyOp43
 70
     0
102
RTVSPropertyOp44
 70
     0
102
RTVSPropertyOp45
 70
     1
102
RTVSPropertyOp46
 70
     0
102
RTVSPropertyOp47
 70
     0
102
RTVSPropertyOp48
 70
     0
102
RTVSPropertyOp49
 70
     1
102
RTVSPropertyOp50
 70
     0
102
RTVSPropertyOp51
 70
     0
102
RTVSPropertyOp52
 70
     0
102
RTVSPropertyOp53
 70
     0
102
RTVSPropertyOp54
 70
     0
102
RTVSPropertyOp55
 70
     1
102
RTVSPropertyOp56
 70
     0
102
RTVSPropertyOp57
 70
     0
102
RTVSPropertyOp58
 70
     0
102
RTVSPropertyOp59
 70
     0
102
RTVSPropertyOp60
 70
     0
102
RTVSPropertyOp61
 70
     0
102
RTVSPropertyOp62
 70
     0
  0
XRECORD
  5
12889
102
{ACAD_REACTORS
330
12888
102
}
330
12888
100
AcDbXrecord
280
     1
102
RTVSPost2010Prop28
280
     0
102
RTVSPost2010PropOp28
 70
     1
102
RTVSPost2010Prop29
280
     1
102
RTVSPost2010PropOp29
 70
     1
102
RTVSPost2010Prop30
280
     1
102
RTVSPost2010PropOp30
 70
     1
102
RTVSPost2010Prop31
280
     0
102
RTVSPost2010PropOp31
 70
     1
102
RTVSPost2010Prop32
280
     0
102
RTVSPost2010PropOp32
 70
     1
102
RTVSPost2010Prop33
280
     0
102
RTVSPost2010PropOp33
 70
     1
102
RTVSPost2010Prop34
280
     0
102
RTVSPost2010PropOp34
 70
     1
102
RTVSPost2010Prop35
280
     0
102
RTVSPost2010PropOp35
 70
     1
102
RTVSPost2010Prop36
280
     0
102
RTVSPost2010PropOp36
 70
     1
102
RTVSPost2010Prop37
 90
       50
102
RTVSPost2010PropOp37
 70
     1
102
RTVSPost2010Prop38
140
0.0
102
RTVSPost2010PropOp38
 70
     1
102
RTVSPost2010Prop39
140
1.0
102
RTVSPost2010PropOp39
 70
     1
102
RTVSPost2010Prop40
 90
        0
102
RTVSPost2010PropOp40
 70
     1
102
RTVSPost2010Prop41ColorIndex
 90
       18
102
RTVSPost2010Prop41ColorRGB
 90
        0
102
RTVSPost2010PropOp41
 70
     1
102
RTVSPost2010Prop42
 90
       50
102
RTVSPost2010PropOp42
 70
     1
102
RTVSPost2010Prop43
 90
        3
102
RTVSPost2010PropOp43
 70
     1
102
RTVSPost2010Prop44ColorIndex
 90
        5
102
RTVSPost2010Prop44ColorRGB
 90
      255
102
RTVSPost2010PropOp44
 70
     1
102
RTVSPost2010Prop45
280
     0
102
RTVSPost2010PropOp45
 70
     1
102
RTVSPost2010Prop46
 90
       50
102
RTVSPost2010PropOp46
 70
     1
102
RTVSPost2010Prop47
 90
       50
102
RTVSPost2010PropOp47
 70
     1
102
RTVSPost2010Prop48
 90
       50
102
RTVSPost2010PropOp48
 70
     1
102
RTVSPost2010Prop49
280
     0
102
RTVSPost2010PropOp49
 70
     1
102
RTVSPost2010Prop50
 90
       50
102
RTVSPost2010PropOp50
 70
     1
102
RTVSPost2010Prop51ColorIndex
 90
      256
102
RTVSPost2010Prop51ColorRGB
 90
-16777216
102
RTVSPost2010PropOp51
 70
     0
102
RTVSPost2010Prop52
140
1.0
102
RTVSPost2010PropOp52
 70
     0
102
RTVSPost2010Prop53
 90
        2
102
RTVSPost2010PropOp53
 70
     1
102
RTVSPost2010Prop54
  1
strokes_ogs.tif
102
RTVSPost2010PropOp54
 70
     1
102
RTVSPost2010Prop55
280
     0
102
RTVSPost2010PropOp55
 70
     1
102
RTVSPost2010Prop56
140
1.0
102
RTVSPost2010PropOp56
 70
     1
102
RTVSPost2010Prop57
140
1.0
102
RTVSPost2010PropOp57
 70
     1
102
RTVSPropertyOp0
 70
     1
102
RTVSPropertyOp1
 70
     1
102
RTVSPropertyOp2
 70
     1
102
RTVSPropertyOp3
 70
     1
102
RTVSPropertyOp4
 70
     1
102
RTVSPropertyOp5
 70
     1
102
RTVSPropertyOp6
 70
     1
102
RTVSPropertyOp7
 70
     1
102
RTVSPropertyOp8
 70
     1
102
RTVSPropertyOp9
 70
     1
102
RTVSPropertyOp10
 70
     1
102
RTVSPropertyOp11
 70
     1
102
RTVSPropertyOp12
 70
     1
102
RTVSPropertyOp13
 70
     1
102
RTVSPropertyOp14
 70
     1
102
RTVSPropertyOp15
 70
     1
102
RTVSPropertyOp16
 70
     1
102
RTVSPropertyOp17
 70
     1
102
RTVSPropertyOp18
 70
     1
102
RTVSPropertyOp19
 70
     1
102
RTVSPropertyOp20
 70
     1
102
RTVSPropertyOp21
 70
     1
102
RTVSPropertyOp22
 70
     1
102
RTVSPropertyOp23
 70
     1
102
RTVSPropertyOp24
 70
     1
102
RTVSPropertyOp25
 70
     1
102
RTVSPropertyOp26
 70
     1
102
RTVSPropertyOp27
 70
     1
102
RTVSPropertyOp28
 70
     1
102
RTVSPropertyOp29
 70
     1
102
RTVSPropertyOp30
 70
     1
102
RTVSPropertyOp31
 70
     1
102
RTVSPropertyOp32
 70
     1
102
RTVSPropertyOp33
 70
     1
102
RTVSPropertyOp34
 70
     1
102
RTVSPropertyOp35
 70
     1
102
RTVSPropertyOp36
 70
     1
102
RTVSPropertyOp37
 70
     1
102
RTVSPropertyOp38
 70
     1
102
RTVSPropertyOp39
 70
     1
102
RTVSPropertyOp40
 70
     1
102
RTVSPropertyOp41
 70
     1
102
RTVSPropertyOp42
 70
     1
102
RTVSPropertyOp43
 70
     1
102
RTVSPropertyOp44
 70
     1
102
RTVSPropertyOp45
 70
     1
102
RTVSPropertyOp46
 70
     1
102
RTVSPropertyOp47
 70
     1
102
RTVSPropertyOp48
 70
     1
102
RTVSPropertyOp49
 70
     1
102
RTVSPropertyOp50
 70
     1
102
RTVSPropertyOp51
 70
     0
102
RTVSPropertyOp52
 70
     0
102
RTVSPropertyOp53
 70
     1
102
RTVSPropertyOp54
 70
     1
102
RTVSPropertyOp55
 70
     1
102
RTVSPropertyOp56
 70
     1
102
RTVSPropertyOp57
 70
     1
102
RTVSPropertyOp58
 70
     1
102
RTVSPropertyOp59
 70
     1
102
RTVSPropertyOp60
 70
     1
102
RTVSPropertyOp61
 70
     1
102
RTVSPropertyOp62
 70
     1
  0
XRECORD
  5
1289F
102
{ACAD_REACTORS
330
1289E
102
}
330
1289E
100
AcDbXrecord
280
     1
102
RTVSPost2010Prop28
280
     0
102
RTVSPost2010PropOp28
 70
     1
102
RTVSPost2010Prop29
280
     1
102
RTVSPost2010PropOp29
 70
     1
102
RTVSPost2010Prop30
280
     1
102
RTVSPost2010PropOp30
 70
     1
102
RTVSPost2010Prop31
280
     0
102
RTVSPost2010PropOp31
 70
     1
102
RTVSPost2010Prop32
280
     0
102
RTVSPost2010PropOp32
 70
     1
102
RTVSPost2010Prop33
280
     0
102
RTVSPost2010PropOp33
 70
     1
102
RTVSPost2010Prop34
280
     0
102
RTVSPost2010PropOp34
 70
     1
102
RTVSPost2010Prop35
280
     0
102
RTVSPost2010PropOp35
 70
     1
102
RTVSPost2010Prop36
280
     0
102
RTVSPost2010PropOp36
 70
     1
102
RTVSPost2010Prop37
 90
       50
102
RTVSPost2010PropOp37
 70
     1
102
RTVSPost2010Prop38
140
0.0
102
RTVSPost2010PropOp38
 70
     1
102
RTVSPost2010Prop39
140
1.0
102
RTVSPost2010PropOp39
 70
     1
102
RTVSPost2010Prop40
 90
        0
102
RTVSPost2010PropOp40
 70
     1
102
RTVSPost2010Prop41ColorIndex
 90
       18
102
RTVSPost2010Prop41ColorRGB
 90
        0
102
RTVSPost2010PropOp41
 70
     1
102
RTVSPost2010Prop42
 90
       50
102
RTVSPost2010PropOp42
 70
     1
102
RTVSPost2010Prop43
 90
        3
102
RTVSPost2010PropOp43
 70
     1
102
RTVSPost2010Prop44ColorIndex
 90
        5
102
RTVSPost2010Prop44ColorRGB
 90
      255
102
RTVSPost2010PropOp44
 70
     1
102
RTVSPost2010Prop45
280
     0
102
RTVSPost2010PropOp45
 70
     1
102
RTVSPost2010Prop46
 90
       50
102
RTVSPost2010PropOp46
 70
     1
102
RTVSPost2010Prop47
 90
       50
102
RTVSPost2010PropOp47
 70
     1
102
RTVSPost2010Prop48
 90
       50
102
RTVSPost2010PropOp48
 70
     1
102
RTVSPost2010Prop49
280
     0
102
RTVSPost2010PropOp49
 70
     1
102
RTVSPost2010Prop50
 90
       50
102
RTVSPost2010PropOp50
 70
     1
102
RTVSPost2010Prop51ColorIndex
 90
      256
102
RTVSPost2010Prop51ColorRGB
 90
-16777216
102
RTVSPost2010PropOp51
 70
     0
102
RTVSPost2010Prop52
140
1.0
102
RTVSPost2010PropOp52
 70
     0
102
RTVSPost2010Prop53
 90
        2
102
RTVSPost2010PropOp53
 70
     1
102
RTVSPost2010Prop54
  1
strokes_ogs.tif
102
RTVSPost2010PropOp54
 70
     1
102
RTVSPost2010Prop55
280
     0
102
RTVSPost2010PropOp55
 70
     1
102
RTVSPost2010Prop56
140
1.0
102
RTVSPost2010PropOp56
 70
     1
102
RTVSPost2010Prop57
140
1.0
102
RTVSPost2010PropOp57
 70
     1
102
RTVSPropertyOp0
 70
     1
102
RTVSPropertyOp1
 70
     1
102
RTVSPropertyOp2
 70
     1
102
RTVSPropertyOp3
 70
     1
102
RTVSPropertyOp4
 70
     1
102
RTVSPropertyOp5
 70
     1
102
RTVSPropertyOp6
 70
     1
102
RTVSPropertyOp7
 70
     1
102
RTVSPropertyOp8
 70
     1
102
RTVSPropertyOp9
 70
     1
102
RTVSPropertyOp10
 70
     1
102
RTVSPropertyOp11
 70
     1
102
RTVSPropertyOp12
 70
     1
102
RTVSPropertyOp13
 70
     1
102
RTVSPropertyOp14
 70
     1
102
RTVSPropertyOp15
 70
     1
102
RTVSPropertyOp16
 70
     1
102
RTVSPropertyOp17
 70
     1
102
RTVSPropertyOp18
 70
     1
102
RTVSPropertyOp19
 70
     1
102
RTVSPropertyOp20
 70
     1
102
RTVSPropertyOp21
 70
     1
102
RTVSPropertyOp22
 70
     1
102
RTVSPropertyOp23
 70
     1
102
RTVSPropertyOp24
 70
     1
102
RTVSPropertyOp25
 70
     1
102
RTVSPropertyOp26
 70
     1
102
RTVSPropertyOp27
 70
     1
102
RTVSPropertyOp28
 70
     1
102
RTVSPropertyOp29
 70
     1
102
RTVSPropertyOp30
 70
     1
102
RTVSPropertyOp31
 70
     1
102
RTVSPropertyOp32
 70
     1
102
RTVSPropertyOp33
 70
     1
102
RTVSPropertyOp34
 70
     1
102
RTVSPropertyOp35
 70
     1
102
RTVSPropertyOp36
 70
     1
102
RTVSPropertyOp37
 70
     1
102
RTVSPropertyOp38
 70
     1
102
RTVSPropertyOp39
 70
     1
102
RTVSPropertyOp40
 70
     1
102
RTVSPropertyOp41
 70
     1
102
RTVSPropertyOp42
 70
     1
102
RTVSPropertyOp43
 70
     1
102
RTVSPropertyOp44
 70
     1
102
RTVSPropertyOp45
 70
     1
102
RTVSPropertyOp46
 70
     1
102
RTVSPropertyOp47
 70
     1
102
RTVSPropertyOp48
 70
     1
102
RTVSPropertyOp49
 70
     1
102
RTVSPropertyOp50
 70
     1
102
RTVSPropertyOp51
 70
     0
102
RTVSPropertyOp52
 70
     0
102
RTVSPropertyOp53
 70
     1
102
RTVSPropertyOp54
 70
     1
102
RTVSPropertyOp55
 70
     1
102
RTVSPropertyOp56
 70
     1
102
RTVSPropertyOp57
 70
     1
102
RTVSPropertyOp58
 70
     1
102
RTVSPropertyOp59
 70
     1
102
RTVSPropertyOp60
 70
     1
102
RTVSPropertyOp61
 70
     1
102
RTVSPropertyOp62
 70
     1
  0
XRECORD
  5
1289D
102
{ACAD_REACTORS
330
1289C
102
}
330
1289C
100
AcDbXrecord
280
     1
102
RTVSPost2010Prop28
280
     0
102
RTVSPost2010PropOp28
 70
     1
102
RTVSPost2010Prop29
280
     1
102
RTVSPost2010PropOp29
 70
     1
102
RTVSPost2010Prop30
280
     1
102
RTVSPost2010PropOp30
 70
     1
102
RTVSPost2010Prop31
280
     0
102
RTVSPost2010PropOp31
 70
     1
102
RTVSPost2010Prop32
280
     0
102
RTVSPost2010PropOp32
 70
     1
102
RTVSPost2010Prop33
280
     0
102
RTVSPost2010PropOp33
 70
     1
102
RTVSPost2010Prop34
280
     0
102
RTVSPost2010PropOp34
 70
     1
102
RTVSPost2010Prop35
280
     0
102
RTVSPost2010PropOp35
 70
     1
102
RTVSPost2010Prop36
280
     0
102
RTVSPost2010PropOp36
 70
     1
102
RTVSPost2010Prop37
 90
       50
102
RTVSPost2010PropOp37
 70
     1
102
RTVSPost2010Prop38
140
0.0
102
RTVSPost2010PropOp38
 70
     1
102
RTVSPost2010Prop39
140
1.0
102
RTVSPost2010PropOp39
 70
     1
102
RTVSPost2010Prop40
 90
        0
102
RTVSPost2010PropOp40
 70
     1
102
RTVSPost2010Prop41ColorIndex
 90
       18
102
RTVSPost2010Prop41ColorRGB
 90
        0
102
RTVSPost2010PropOp41
 70
     1
102
RTVSPost2010Prop42
 90
       50
102
RTVSPost2010PropOp42
 70
     1
102
RTVSPost2010Prop43
 90
        3
102
RTVSPost2010PropOp43
 70
     1
102
RTVSPost2010Prop44ColorIndex
 90
        5
102
RTVSPost2010Prop44ColorRGB
 90
      255
102
RTVSPost2010PropOp44
 70
     1
102
RTVSPost2010Prop45
280
     0
102
RTVSPost2010PropOp45
 70
     1
102
RTVSPost2010Prop46
 90
       50
102
RTVSPost2010PropOp46
 70
     1
102
RTVSPost2010Prop47
 90
       50
102
RTVSPost2010PropOp47
 70
     1
102
RTVSPost2010Prop48
 90
       50
102
RTVSPost2010PropOp48
 70
     1
102
RTVSPost2010Prop49
280
     0
102
RTVSPost2010PropOp49
 70
     1
102
RTVSPost2010Prop50
 90
       50
102
RTVSPost2010PropOp50
 70
     1
102
RTVSPost2010Prop51ColorIndex
 90
      256
102
RTVSPost2010Prop51ColorRGB
 90
-16777216
102
RTVSPost2010PropOp51
 70
     0
102
RTVSPost2010Prop52
140
1.0
102
RTVSPost2010PropOp52
 70
     0
102
RTVSPost2010Prop53
 90
        2
102
RTVSPost2010PropOp53
 70
     1
102
RTVSPost2010Prop54
  1
strokes_ogs.tif
102
RTVSPost2010PropOp54
 70
     1
102
RTVSPost2010Prop55
280
     0
102
RTVSPost2010PropOp55
 70
     1
102
RTVSPost2010Prop56
140
1.0
102
RTVSPost2010PropOp56
 70
     1
102
RTVSPost2010Prop57
140
1.0
102
RTVSPost2010PropOp57
 70
     1
102
RTVSPropertyOp0
 70
     1
102
RTVSPropertyOp1
 70
     1
102
RTVSPropertyOp2
 70
     1
102
RTVSPropertyOp3
 70
     1
102
RTVSPropertyOp4
 70
     1
102
RTVSPropertyOp5
 70
     1
102
RTVSPropertyOp6
 70
     1
102
RTVSPropertyOp7
 70
     1
102
RTVSPropertyOp8
 70
     1
102
RTVSPropertyOp9
 70
     1
102
RTVSPropertyOp10
 70
     1
102
RTVSPropertyOp11
 70
     1
102
RTVSPropertyOp12
 70
     1
102
RTVSPropertyOp13
 70
     1
102
RTVSPropertyOp14
 70
     1
102
RTVSPropertyOp15
 70
     1
102
RTVSPropertyOp16
 70
     1
102
RTVSPropertyOp17
 70
     1
102
RTVSPropertyOp18
 70
     1
102
RTVSPropertyOp19
 70
     1
102
RTVSPropertyOp20
 70
     1
102
RTVSPropertyOp21
 70
     1
102
RTVSPropertyOp22
 70
     1
102
RTVSPropertyOp23
 70
     1
102
RTVSPropertyOp24
 70
     1
102
RTVSPropertyOp25
 70
     1
102
RTVSPropertyOp26
 70
     1
102
RTVSPropertyOp27
 70
     1
102
RTVSPropertyOp28
 70
     1
102
RTVSPropertyOp29
 70
     1
102
RTVSPropertyOp30
 70
     1
102
RTVSPropertyOp31
 70
     1
102
RTVSPropertyOp32
 70
     1
102
RTVSPropertyOp33
 70
     1
102
RTVSPropertyOp34
 70
     1
102
RTVSPropertyOp35
 70
     1
102
RTVSPropertyOp36
 70
     1
102
RTVSPropertyOp37
 70
     1
102
RTVSPropertyOp38
 70
     1
102
RTVSPropertyOp39
 70
     1
102
RTVSPropertyOp40
 70
     1
102
RTVSPropertyOp41
 70
     1
102
RTVSPropertyOp42
 70
     1
102
RTVSPropertyOp43
 70
     1
102
RTVSPropertyOp44
 70
     1
102
RTVSPropertyOp45
 70
     1
102
RTVSPropertyOp46
 70
     1
102
RTVSPropertyOp47
 70
     1
102
RTVSPropertyOp48
 70
     1
102
RTVSPropertyOp49
 70
     1
102
RTVSPropertyOp50
 70
     1
102
RTVSPropertyOp51
 70
     0
102
RTVSPropertyOp52
 70
     0
102
RTVSPropertyOp53
 70
     1
102
RTVSPropertyOp54
 70
     1
102
RTVSPropertyOp55
 70
     1
102
RTVSPropertyOp56
 70
     1
102
RTVSPropertyOp57
 70
     1
102
RTVSPropertyOp58
 70
     1
102
RTVSPropertyOp59
 70
     1
102
RTVSPropertyOp60
 70
     1
102
RTVSPropertyOp61
 70
     1
102
RTVSPropertyOp62
 70
     1
  0
XRECORD
  5
12897
102
{ACAD_REACTORS
330
12896
102
}
330
12896
100
AcDbXrecord
280
     1
102
RTVSPost2010Prop28
280
     0
102
RTVSPost2010PropOp28
 70
     1
102
RTVSPost2010Prop29
280
     1
102
RTVSPost2010PropOp29
 70
     1
102
RTVSPost2010Prop30
280
     1
102
RTVSPost2010PropOp30
 70
     1
102
RTVSPost2010Prop31
280
     0
102
RTVSPost2010PropOp31
 70
     1
102
RTVSPost2010Prop32
280
     0
102
RTVSPost2010PropOp32
 70
     1
102
RTVSPost2010Prop33
280
     0
102
RTVSPost2010PropOp33
 70
     1
102
RTVSPost2010Prop34
280
     0
102
RTVSPost2010PropOp34
 70
     1
102
RTVSPost2010Prop35
280
     0
102
RTVSPost2010PropOp35
 70
     1
102
RTVSPost2010Prop36
280
     0
102
RTVSPost2010PropOp36
 70
     1
102
RTVSPost2010Prop37
 90
       50
102
RTVSPost2010PropOp37
 70
     1
102
RTVSPost2010Prop38
140
0.0
102
RTVSPost2010PropOp38
 70
     1
102
RTVSPost2010Prop39
140
1.0
102
RTVSPost2010PropOp39
 70
     1
102
RTVSPost2010Prop40
 90
        0
102
RTVSPost2010PropOp40
 70
     1
102
RTVSPost2010Prop41ColorIndex
 90
       18
102
RTVSPost2010Prop41ColorRGB
 90
        0
102
RTVSPost2010PropOp41
 70
     1
102
RTVSPost2010Prop42
 90
       50
102
RTVSPost2010PropOp42
 70
     1
102
RTVSPost2010Prop43
 90
        3
102
RTVSPost2010PropOp43
 70
     1
102
RTVSPost2010Prop44ColorIndex
 90
        5
102
RTVSPost2010Prop44ColorRGB
 90
      255
102
RTVSPost2010PropOp44
 70
     1
102
RTVSPost2010Prop45
280
     0
102
RTVSPost2010PropOp45
 70
     1
102
RTVSPost2010Prop46
 90
       50
102
RTVSPost2010PropOp46
 70
     1
102
RTVSPost2010Prop47
 90
       50
102
RTVSPost2010PropOp47
 70
     1
102
RTVSPost2010Prop48
 90
       50
102
RTVSPost2010PropOp48
 70
     1
102
RTVSPost2010Prop49
280
     0
102
RTVSPost2010PropOp49
 70
     1
102
RTVSPost2010Prop50
 90
       50
102
RTVSPost2010PropOp50
 70
     1
102
RTVSPost2010Prop51ColorIndex
 90
      256
102
RTVSPost2010Prop51ColorRGB
 90
-16777216
102
RTVSPost2010PropOp51
 70
     0
102
RTVSPost2010Prop52
140
1.0
102
RTVSPost2010PropOp52
 70
     0
102
RTVSPost2010Prop53
 90
        2
102
RTVSPost2010PropOp53
 70
     1
102
RTVSPost2010Prop54
  1
strokes_ogs.tif
102
RTVSPost2010PropOp54
 70
     1
102
RTVSPost2010Prop55
280
     0
102
RTVSPost2010PropOp55
 70
     1
102
RTVSPost2010Prop56
140
1.0
102
RTVSPost2010PropOp56
 70
     1
102
RTVSPost2010Prop57
140
1.0
102
RTVSPost2010PropOp57
 70
     1
102
RTVSPropertyOp0
 70
     1
102
RTVSPropertyOp1
 70
     1
102
RTVSPropertyOp2
 70
     1
102
RTVSPropertyOp3
 70
     1
102
RTVSPropertyOp4
 70
     1
102
RTVSPropertyOp5
 70
     1
102
RTVSPropertyOp6
 70
     1
102
RTVSPropertyOp7
 70
     1
102
RTVSPropertyOp8
 70
     1
102
RTVSPropertyOp9
 70
     1
102
RTVSPropertyOp10
 70
     1
102
RTVSPropertyOp11
 70
     1
102
RTVSPropertyOp12
 70
     1
102
RTVSPropertyOp13
 70
     1
102
RTVSPropertyOp14
 70
     1
102
RTVSPropertyOp15
 70
     1
102
RTVSPropertyOp16
 70
     1
102
RTVSPropertyOp17
 70
     1
102
RTVSPropertyOp18
 70
     1
102
RTVSPropertyOp19
 70
     1
102
RTVSPropertyOp20
 70
     1
102
RTVSPropertyOp21
 70
     1
102
RTVSPropertyOp22
 70
     1
102
RTVSPropertyOp23
 70
     1
102
RTVSPropertyOp24
 70
     1
102
RTVSPropertyOp25
 70
     1
102
RTVSPropertyOp26
 70
     1
102
RTVSPropertyOp27
 70
     1
102
RTVSPropertyOp28
 70
     1
102
RTVSPropertyOp29
 70
     1
102
RTVSPropertyOp30
 70
     1
102
RTVSPropertyOp31
 70
     1
102
RTVSPropertyOp32
 70
     1
102
RTVSPropertyOp33
 70
     1
102
RTVSPropertyOp34
 70
     1
102
RTVSPropertyOp35
 70
     1
102
RTVSPropertyOp36
 70
     1
102
RTVSPropertyOp37
 70
     1
102
RTVSPropertyOp38
 70
     1
102
RTVSPropertyOp39
 70
     1
102
RTVSPropertyOp40
 70
     1
102
RTVSPropertyOp41
 70
     1
102
RTVSPropertyOp42
 70
     1
102
RTVSPropertyOp43
 70
     1
102
RTVSPropertyOp44
 70
     1
102
RTVSPropertyOp45
 70
     1
102
RTVSPropertyOp46
 70
     1
102
RTVSPropertyOp47
 70
     1
102
RTVSPropertyOp48
 70
     1
102
RTVSPropertyOp49
 70
     1
102
RTVSPropertyOp50
 70
     1
102
RTVSPropertyOp51
 70
     0
102
RTVSPropertyOp52
 70
     0
102
RTVSPropertyOp53
 70
     1
102
RTVSPropertyOp54
 70
     1
102
RTVSPropertyOp55
 70
     1
102
RTVSPropertyOp56
 70
     1
102
RTVSPropertyOp57
 70
     1
102
RTVSPropertyOp58
 70
     1
102
RTVSPropertyOp59
 70
     1
102
RTVSPropertyOp60
 70
     1
102
RTVSPropertyOp61
 70
     1
102
RTVSPropertyOp62
 70
     1
  0
XRECORD
  5
12899
102
{ACAD_REACTORS
330
12898
102
}
330
12898
100
AcDbXrecord
280
     1
102
RTVSPost2010Prop28
280
     0
102
RTVSPost2010PropOp28
 70
     1
102
RTVSPost2010Prop29
280
     1
102
RTVSPost2010PropOp29
 70
     1
102
RTVSPost2010Prop30
280
     1
102
RTVSPost2010PropOp30
 70
     1
102
RTVSPost2010Prop31
280
     0
102
RTVSPost2010PropOp31
 70
     1
102
RTVSPost2010Prop32
280
     0
102
RTVSPost2010PropOp32
 70
     1
102
RTVSPost2010Prop33
280
     0
102
RTVSPost2010PropOp33
 70
     1
102
RTVSPost2010Prop34
280
     0
102
RTVSPost2010PropOp34
 70
     1
102
RTVSPost2010Prop35
280
     0
102
RTVSPost2010PropOp35
 70
     1
102
RTVSPost2010Prop36
280
     0
102
RTVSPost2010PropOp36
 70
     1
102
RTVSPost2010Prop37
 90
       50
102
RTVSPost2010PropOp37
 70
     1
102
RTVSPost2010Prop38
140
0.0
102
RTVSPost2010PropOp38
 70
     1
102
RTVSPost2010Prop39
140
1.0
102
RTVSPost2010PropOp39
 70
     1
102
RTVSPost2010Prop40
 90
        0
102
RTVSPost2010PropOp40
 70
     1
102
RTVSPost2010Prop41ColorIndex
 90
       18
102
RTVSPost2010Prop41ColorRGB
 90
        0
102
RTVSPost2010PropOp41
 70
     1
102
RTVSPost2010Prop42
 90
       50
102
RTVSPost2010PropOp42
 70
     1
102
RTVSPost2010Prop43
 90
        3
102
RTVSPost2010PropOp43
 70
     1
102
RTVSPost2010Prop44ColorIndex
 90
        5
102
RTVSPost2010Prop44ColorRGB
 90
      255
102
RTVSPost2010PropOp44
 70
     1
102
RTVSPost2010Prop45
280
     0
102
RTVSPost2010PropOp45
 70
     1
102
RTVSPost2010Prop46
 90
       50
102
RTVSPost2010PropOp46
 70
     1
102
RTVSPost2010Prop47
 90
       50
102
RTVSPost2010PropOp47
 70
     1
102
RTVSPost2010Prop48
 90
       50
102
RTVSPost2010PropOp48
 70
     1
102
RTVSPost2010Prop49
280
     0
102
RTVSPost2010PropOp49
 70
     1
102
RTVSPost2010Prop50
 90
       50
102
RTVSPost2010PropOp50
 70
     1
102
RTVSPost2010Prop51ColorIndex
 90
      256
102
RTVSPost2010Prop51ColorRGB
 90
-16777216
102
RTVSPost2010PropOp51
 70
     0
102
RTVSPost2010Prop52
140
1.0
102
RTVSPost2010PropOp52
 70
     0
102
RTVSPost2010Prop53
 90
        2
102
RTVSPost2010PropOp53
 70
     1
102
RTVSPost2010Prop54
  1
strokes_ogs.tif
102
RTVSPost2010PropOp54
 70
     1
102
RTVSPost2010Prop55
280
     0
102
RTVSPost2010PropOp55
 70
     1
102
RTVSPost2010Prop56
140
1.0
102
RTVSPost2010PropOp56
 70
     1
102
RTVSPost2010Prop57
140
1.0
102
RTVSPost2010PropOp57
 70
     1
102
RTVSPropertyOp0
 70
     1
102
RTVSPropertyOp1
 70
     1
102
RTVSPropertyOp2
 70
     1
102
RTVSPropertyOp3
 70
     1
102
RTVSPropertyOp4
 70
     1
102
RTVSPropertyOp5
 70
     1
102
RTVSPropertyOp6
 70
     1
102
RTVSPropertyOp7
 70
     1
102
RTVSPropertyOp8
 70
     1
102
RTVSPropertyOp9
 70
     1
102
RTVSPropertyOp10
 70
     1
102
RTVSPropertyOp11
 70
     1
102
RTVSPropertyOp12
 70
     1
102
RTVSPropertyOp13
 70
     1
102
RTVSPropertyOp14
 70
     1
102
RTVSPropertyOp15
 70
     1
102
RTVSPropertyOp16
 70
     1
102
RTVSPropertyOp17
 70
     1
102
RTVSPropertyOp18
 70
     1
102
RTVSPropertyOp19
 70
     1
102
RTVSPropertyOp20
 70
     1
102
RTVSPropertyOp21
 70
     1
102
RTVSPropertyOp22
 70
     1
102
RTVSPropertyOp23
 70
     1
102
RTVSPropertyOp24
 70
     1
102
RTVSPropertyOp25
 70
     1
102
RTVSPropertyOp26
 70
     1
102
RTVSPropertyOp27
 70
     1
102
RTVSPropertyOp28
 70
     1
102
RTVSPropertyOp29
 70
     1
102
RTVSPropertyOp30
 70
     1
102
RTVSPropertyOp31
 70
     1
102
RTVSPropertyOp32
 70
     1
102
RTVSPropertyOp33
 70
     1
102
RTVSPropertyOp34
 70
     1
102
RTVSPropertyOp35
 70
     1
102
RTVSPropertyOp36
 70
     1
102
RTVSPropertyOp37
 70
     1
102
RTVSPropertyOp38
 70
     1
102
RTVSPropertyOp39
 70
     1
102
RTVSPropertyOp40
 70
     1
102
RTVSPropertyOp41
 70
     1
102
RTVSPropertyOp42
 70
     1
102
RTVSPropertyOp43
 70
     1
102
RTVSPropertyOp44
 70
     1
102
RTVSPropertyOp45
 70
     1
102
RTVSPropertyOp46
 70
     1
102
RTVSPropertyOp47
 70
     1
102
RTVSPropertyOp48
 70
     1
102
RTVSPropertyOp49
 70
     1
102
RTVSPropertyOp50
 70
     1
102
RTVSPropertyOp51
 70
     0
102
RTVSPropertyOp52
 70
     0
102
RTVSPropertyOp53
 70
     1
102
RTVSPropertyOp54
 70
     1
102
RTVSPropertyOp55
 70
     1
102
RTVSPropertyOp56
 70
     1
102
RTVSPropertyOp57
 70
     1
102
RTVSPropertyOp58
 70
     1
102
RTVSPropertyOp59
 70
     1
102
RTVSPropertyOp60
 70
     1
102
RTVSPropertyOp61
 70
     1
102
RTVSPropertyOp62
 70
     1
  0
XRECORD
  5
1288F
102
{ACAD_REACTORS
330
1288E
102
}
330
1288E
100
AcDbXrecord
280
     1
102
RTVSPost2010Prop28
280
     0
102
RTVSPost2010PropOp28
 70
     1
102
RTVSPost2010Prop29
280
     1
102
RTVSPost2010PropOp29
 70
     1
102
RTVSPost2010Prop30
280
     1
102
RTVSPost2010PropOp30
 70
     1
102
RTVSPost2010Prop31
280
     0
102
RTVSPost2010PropOp31
 70
     1
102
RTVSPost2010Prop32
280
     0
102
RTVSPost2010PropOp32
 70
     1
102
RTVSPost2010Prop33
280
     0
102
RTVSPost2010PropOp33
 70
     1
102
RTVSPost2010Prop34
280
     0
102
RTVSPost2010PropOp34
 70
     1
102
RTVSPost2010Prop35
280
     0
102
RTVSPost2010PropOp35
 70
     1
102
RTVSPost2010Prop36
280
     0
102
RTVSPost2010PropOp36
 70
     1
102
RTVSPost2010Prop37
 90
       50
102
RTVSPost2010PropOp37
 70
     1
102
RTVSPost2010Prop38
140
0.0
102
RTVSPost2010PropOp38
 70
     1
102
RTVSPost2010Prop39
140
1.0
102
RTVSPost2010PropOp39
 70
     1
102
RTVSPost2010Prop40
 90
        0
102
RTVSPost2010PropOp40
 70
     1
102
RTVSPost2010Prop41ColorIndex
 90
       18
102
RTVSPost2010Prop41ColorRGB
 90
        0
102
RTVSPost2010PropOp41
 70
     1
102
RTVSPost2010Prop42
 90
       50
102
RTVSPost2010PropOp42
 70
     1
102
RTVSPost2010Prop43
 90
        3
102
RTVSPost2010PropOp43
 70
     1
102
RTVSPost2010Prop44ColorIndex
 90
        5
102
RTVSPost2010Prop44ColorRGB
 90
      255
102
RTVSPost2010PropOp44
 70
     1
102
RTVSPost2010Prop45
280
     0
102
RTVSPost2010PropOp45
 70
     1
102
RTVSPost2010Prop46
 90
       50
102
RTVSPost2010PropOp46
 70
     1
102
RTVSPost2010Prop47
 90
       50
102
RTVSPost2010PropOp47
 70
     1
102
RTVSPost2010Prop48
 90
       50
102
RTVSPost2010PropOp48
 70
     1
102
RTVSPost2010Prop49
280
     0
102
RTVSPost2010PropOp49
 70
     1
102
RTVSPost2010Prop50
 90
       50
102
RTVSPost2010PropOp50
 70
     1
102
RTVSPost2010Prop51ColorIndex
 90
      256
102
RTVSPost2010Prop51ColorRGB
 90
-16777216
102
RTVSPost2010PropOp51
 70
     0
102
RTVSPost2010Prop52
140
1.0
102
RTVSPost2010PropOp52
 70
     0
102
RTVSPost2010Prop53
 90
        2
102
RTVSPost2010PropOp53
 70
     1
102
RTVSPost2010Prop54
  1
strokes_ogs.tif
102
RTVSPost2010PropOp54
 70
     1
102
RTVSPost2010Prop55
280
     0
102
RTVSPost2010PropOp55
 70
     1
102
RTVSPost2010Prop56
140
1.0
102
RTVSPost2010PropOp56
 70
     1
102
RTVSPost2010Prop57
140
1.0
102
RTVSPost2010PropOp57
 70
     1
102
RTVSPropertyOp0
 70
     1
102
RTVSPropertyOp1
 70
     1
102
RTVSPropertyOp2
 70
     1
102
RTVSPropertyOp3
 70
     1
102
RTVSPropertyOp4
 70
     1
102
RTVSPropertyOp5
 70
     1
102
RTVSPropertyOp6
 70
     1
102
RTVSPropertyOp7
 70
     1
102
RTVSPropertyOp8
 70
     1
102
RTVSPropertyOp9
 70
     1
102
RTVSPropertyOp10
 70
     1
102
RTVSPropertyOp11
 70
     1
102
RTVSPropertyOp12
 70
     1
102
RTVSPropertyOp13
 70
     1
102
RTVSPropertyOp14
 70
     1
102
RTVSPropertyOp15
 70
     1
102
RTVSPropertyOp16
 70
     1
102
RTVSPropertyOp17
 70
     1
102
RTVSPropertyOp18
 70
     1
102
RTVSPropertyOp19
 70
     1
102
RTVSPropertyOp20
 70
     1
102
RTVSPropertyOp21
 70
     1
102
RTVSPropertyOp22
 70
     1
102
RTVSPropertyOp23
 70
     1
102
RTVSPropertyOp24
 70
     1
102
RTVSPropertyOp25
 70
     1
102
RTVSPropertyOp26
 70
     1
102
RTVSPropertyOp27
 70
     1
102
RTVSPropertyOp28
 70
     1
102
RTVSPropertyOp29
 70
     1
102
RTVSPropertyOp30
 70
     1
102
RTVSPropertyOp31
 70
     1
102
RTVSPropertyOp32
 70
     1
102
RTVSPropertyOp33
 70
     1
102
RTVSPropertyOp34
 70
     1
102
RTVSPropertyOp35
 70
     1
102
RTVSPropertyOp36
 70
     1
102
RTVSPropertyOp37
 70
     1
102
RTVSPropertyOp38
 70
     1
102
RTVSPropertyOp39
 70
     1
102
RTVSPropertyOp40
 70
     1
102
RTVSPropertyOp41
 70
     1
102
RTVSPropertyOp42
 70
     1
102
RTVSPropertyOp43
 70
     1
102
RTVSPropertyOp44
 70
     1
102
RTVSPropertyOp45
 70
     1
102
RTVSPropertyOp46
 70
     1
102
RTVSPropertyOp47
 70
     1
102
RTVSPropertyOp48
 70
     1
102
RTVSPropertyOp49
 70
     1
102
RTVSPropertyOp50
 70
     1
102
RTVSPropertyOp51
 70
     0
102
RTVSPropertyOp52
 70
     0
102
RTVSPropertyOp53
 70
     1
102
RTVSPropertyOp54
 70
     1
102
RTVSPropertyOp55
 70
     1
102
RTVSPropertyOp56
 70
     1
102
RTVSPropertyOp57
 70
     1
102
RTVSPropertyOp58
 70
     1
102
RTVSPropertyOp59
 70
     1
102
RTVSPropertyOp60
 70
     1
102
RTVSPropertyOp61
 70
     1
102
RTVSPropertyOp62
 70
     1
  0
XRECORD
  5
12883
102
{ACAD_REACTORS
330
12882
102
}
330
12882
100
AcDbXrecord
280
     1
102
RTVSPost2010Prop28
280
     0
102
RTVSPost2010PropOp28
 70
     1
102
RTVSPost2010Prop29
280
     1
102
RTVSPost2010PropOp29
 70
     1
102
RTVSPost2010Prop30
280
     1
102
RTVSPost2010PropOp30
 70
     1
102
RTVSPost2010Prop31
280
     0
102
RTVSPost2010PropOp31
 70
     1
102
RTVSPost2010Prop32
280
     0
102
RTVSPost2010PropOp32
 70
     1
102
RTVSPost2010Prop33
280
     0
102
RTVSPost2010PropOp33
 70
     1
102
RTVSPost2010Prop34
280
     0
102
RTVSPost2010PropOp34
 70
     1
102
RTVSPost2010Prop35
280
     0
102
RTVSPost2010PropOp35
 70
     1
102
RTVSPost2010Prop36
280
     0
102
RTVSPost2010PropOp36
 70
     1
102
RTVSPost2010Prop37
 90
       50
102
RTVSPost2010PropOp37
 70
     1
102
RTVSPost2010Prop38
140
0.0
102
RTVSPost2010PropOp38
 70
     1
102
RTVSPost2010Prop39
140
1.0
102
RTVSPost2010PropOp39
 70
     1
102
RTVSPost2010Prop40
 90
        0
102
RTVSPost2010PropOp40
 70
     1
102
RTVSPost2010Prop41ColorIndex
 90
       18
102
RTVSPost2010Prop41ColorRGB
 90
        0
102
RTVSPost2010PropOp41
 70
     1
102
RTVSPost2010Prop42
 90
       50
102
RTVSPost2010PropOp42
 70
     1
102
RTVSPost2010Prop43
 90
        3
102
RTVSPost2010PropOp43
 70
     1
102
RTVSPost2010Prop44ColorIndex
 90
        5
102
RTVSPost2010Prop44ColorRGB
 90
      255
102
RTVSPost2010PropOp44
 70
     1
102
RTVSPost2010Prop45
280
     0
102
RTVSPost2010PropOp45
 70
     1
102
RTVSPost2010Prop46
 90
       50
102
RTVSPost2010PropOp46
 70
     1
102
RTVSPost2010Prop47
 90
       50
102
RTVSPost2010PropOp47
 70
     1
102
RTVSPost2010Prop48
 90
       50
102
RTVSPost2010PropOp48
 70
     1
102
RTVSPost2010Prop49
280
     0
102
RTVSPost2010PropOp49
 70
     1
102
RTVSPost2010Prop50
 90
       50
102
RTVSPost2010PropOp50
 70
     1
102
RTVSPost2010Prop51ColorIndex
 90
      256
102
RTVSPost2010Prop51ColorRGB
 90
-16777216
102
RTVSPost2010PropOp51
 70
     0
102
RTVSPost2010Prop52
140
1.0
102
RTVSPost2010PropOp52
 70
     0
102
RTVSPost2010Prop53
 90
        2
102
RTVSPost2010PropOp53
 70
     1
102
RTVSPost2010Prop54
  1
strokes_ogs.tif
102
RTVSPost2010PropOp54
 70
     1
102
RTVSPost2010Prop55
280
     0
102
RTVSPost2010PropOp55
 70
     1
102
RTVSPost2010Prop56
140
1.0
102
RTVSPost2010PropOp56
 70
     1
102
RTVSPost2010Prop57
140
1.0
102
RTVSPost2010PropOp57
 70
     1
102
RTVSPropertyOp0
 70
     1
102
RTVSPropertyOp1
 70
     1
102
RTVSPropertyOp2
 70
     1
102
RTVSPropertyOp3
 70
     1
102
RTVSPropertyOp4
 70
     1
102
RTVSPropertyOp5
 70
     1
102
RTVSPropertyOp6
 70
     1
102
RTVSPropertyOp7
 70
     1
102
RTVSPropertyOp8
 70
     1
102
RTVSPropertyOp9
 70
     1
102
RTVSPropertyOp10
 70
     1
102
RTVSPropertyOp11
 70
     1
102
RTVSPropertyOp12
 70
     1
102
RTVSPropertyOp13
 70
     1
102
RTVSPropertyOp14
 70
     1
102
RTVSPropertyOp15
 70
     1
102
RTVSPropertyOp16
 70
     1
102
RTVSPropertyOp17
 70
     1
102
RTVSPropertyOp18
 70
     1
102
RTVSPropertyOp19
 70
     1
102
RTVSPropertyOp20
 70
     1
102
RTVSPropertyOp21
 70
     1
102
RTVSPropertyOp22
 70
     1
102
RTVSPropertyOp23
 70
     1
102
RTVSPropertyOp24
 70
     1
102
RTVSPropertyOp25
 70
     1
102
RTVSPropertyOp26
 70
     1
102
RTVSPropertyOp27
 70
     1
102
RTVSPropertyOp28
 70
     1
102
RTVSPropertyOp29
 70
     1
102
RTVSPropertyOp30
 70
     1
102
RTVSPropertyOp31
 70
     1
102
RTVSPropertyOp32
 70
     1
102
RTVSPropertyOp33
 70
     1
102
RTVSPropertyOp34
 70
     1
102
RTVSPropertyOp35
 70
     1
102
RTVSPropertyOp36
 70
     1
102
RTVSPropertyOp37
 70
     1
102
RTVSPropertyOp38
 70
     1
102
RTVSPropertyOp39
 70
     1
102
RTVSPropertyOp40
 70
     1
102
RTVSPropertyOp41
 70
     1
102
RTVSPropertyOp42
 70
     1
102
RTVSPropertyOp43
 70
     1
102
RTVSPropertyOp44
 70
     1
102
RTVSPropertyOp45
 70
     1
102
RTVSPropertyOp46
 70
     1
102
RTVSPropertyOp47
 70
     1
102
RTVSPropertyOp48
 70
     1
102
RTVSPropertyOp49
 70
     1
102
RTVSPropertyOp50
 70
     1
102
RTVSPropertyOp51
 70
     0
102
RTVSPropertyOp52
 70
     0
102
RTVSPropertyOp53
 70
     1
102
RTVSPropertyOp54
 70
     1
102
RTVSPropertyOp55
 70
     1
102
RTVSPropertyOp56
 70
     1
102
RTVSPropertyOp57
 70
     1
102
RTVSPropertyOp58
 70
     1
102
RTVSPropertyOp59
 70
     1
102
RTVSPropertyOp60
 70
     1
102
RTVSPropertyOp61
 70
     1
102
RTVSPropertyOp62
 70
     1
  0
XRECORD
  5
1289B
102
{ACAD_REACTORS
330
1289A
102
}
330
1289A
100
AcDbXrecord
280
     1
102
RTVSPost2010Prop28
280
     0
102
RTVSPost2010PropOp28
 70
     1
102
RTVSPost2010Prop29
280
     1
102
RTVSPost2010PropOp29
 70
     1
102
RTVSPost2010Prop30
280
     1
102
RTVSPost2010PropOp30
 70
     1
102
RTVSPost2010Prop31
280
     0
102
RTVSPost2010PropOp31
 70
     1
102
RTVSPost2010Prop32
280
     0
102
RTVSPost2010PropOp32
 70
     1
102
RTVSPost2010Prop33
280
     0
102
RTVSPost2010PropOp33
 70
     1
102
RTVSPost2010Prop34
280
     0
102
RTVSPost2010PropOp34
 70
     1
102
RTVSPost2010Prop35
280
     0
102
RTVSPost2010PropOp35
 70
     1
102
RTVSPost2010Prop36
280
     0
102
RTVSPost2010PropOp36
 70
     1
102
RTVSPost2010Prop37
 90
       50
102
RTVSPost2010PropOp37
 70
     1
102
RTVSPost2010Prop38
140
0.0
102
RTVSPost2010PropOp38
 70
     1
102
RTVSPost2010Prop39
140
1.0
102
RTVSPost2010PropOp39
 70
     1
102
RTVSPost2010Prop40
 90
        0
102
RTVSPost2010PropOp40
 70
     1
102
RTVSPost2010Prop41ColorIndex
 90
       18
102
RTVSPost2010Prop41ColorRGB
 90
        0
102
RTVSPost2010PropOp41
 70
     1
102
RTVSPost2010Prop42
 90
       50
102
RTVSPost2010PropOp42
 70
     1
102
RTVSPost2010Prop43
 90
        3
102
RTVSPost2010PropOp43
 70
     1
102
RTVSPost2010Prop44ColorIndex
 90
        5
102
RTVSPost2010Prop44ColorRGB
 90
      255
102
RTVSPost2010PropOp44
 70
     1
102
RTVSPost2010Prop45
280
     0
102
RTVSPost2010PropOp45
 70
     1
102
RTVSPost2010Prop46
 90
       50
102
RTVSPost2010PropOp46
 70
     1
102
RTVSPost2010Prop47
 90
       50
102
RTVSPost2010PropOp47
 70
     1
102
RTVSPost2010Prop48
 90
       50
102
RTVSPost2010PropOp48
 70
     1
102
RTVSPost2010Prop49
280
     0
102
RTVSPost2010PropOp49
 70
     1
102
RTVSPost2010Prop50
 90
       50
102
RTVSPost2010PropOp50
 70
     1
102
RTVSPost2010Prop51ColorIndex
 90
      256
102
RTVSPost2010Prop51ColorRGB
 90
-16777216
102
RTVSPost2010PropOp51
 70
     0
102
RTVSPost2010Prop52
140
1.0
102
RTVSPost2010PropOp52
 70
     0
102
RTVSPost2010Prop53
 90
        2
102
RTVSPost2010PropOp53
 70
     1
102
RTVSPost2010Prop54
  1
strokes_ogs.tif
102
RTVSPost2010PropOp54
 70
     1
102
RTVSPost2010Prop55
280
     0
102
RTVSPost2010PropOp55
 70
     1
102
RTVSPost2010Prop56
140
1.0
102
RTVSPost2010PropOp56
 70
     1
102
RTVSPost2010Prop57
140
1.0
102
RTVSPost2010PropOp57
 70
     1
102
RTVSPropertyOp0
 70
     1
102
RTVSPropertyOp1
 70
     1
102
RTVSPropertyOp2
 70
     1
102
RTVSPropertyOp3
 70
     1
102
RTVSPropertyOp4
 70
     1
102
RTVSPropertyOp5
 70
     1
102
RTVSPropertyOp6
 70
     1
102
RTVSPropertyOp7
 70
     1
102
RTVSPropertyOp8
 70
     1
102
RTVSPropertyOp9
 70
     1
102
RTVSPropertyOp10
 70
     1
102
RTVSPropertyOp11
 70
     1
102
RTVSPropertyOp12
 70
     1
102
RTVSPropertyOp13
 70
     1
102
RTVSPropertyOp14
 70
     1
102
RTVSPropertyOp15
 70
     1
102
RTVSPropertyOp16
 70
     1
102
RTVSPropertyOp17
 70
     1
102
RTVSPropertyOp18
 70
     1
102
RTVSPropertyOp19
 70
     1
102
RTVSPropertyOp20
 70
     1
102
RTVSPropertyOp21
 70
     1
102
RTVSPropertyOp22
 70
     1
102
RTVSPropertyOp23
 70
     1
102
RTVSPropertyOp24
 70
     1
102
RTVSPropertyOp25
 70
     1
102
RTVSPropertyOp26
 70
     1
102
RTVSPropertyOp27
 70
     1
102
RTVSPropertyOp28
 70
     1
102
RTVSPropertyOp29
 70
     1
102
RTVSPropertyOp30
 70
     1
102
RTVSPropertyOp31
 70
     1
102
RTVSPropertyOp32
 70
     1
102
RTVSPropertyOp33
 70
     1
102
RTVSPropertyOp34
 70
     1
102
RTVSPropertyOp35
 70
     1
102
RTVSPropertyOp36
 70
     1
102
RTVSPropertyOp37
 70
     1
102
RTVSPropertyOp38
 70
     1
102
RTVSPropertyOp39
 70
     1
102
RTVSPropertyOp40
 70
     1
102
RTVSPropertyOp41
 70
     1
102
RTVSPropertyOp42
 70
     1
102
RTVSPropertyOp43
 70
     1
102
RTVSPropertyOp44
 70
     1
102
RTVSPropertyOp45
 70
     1
102
RTVSPropertyOp46
 70
     1
102
RTVSPropertyOp47
 70
     1
102
RTVSPropertyOp48
 70
     1
102
RTVSPropertyOp49
 70
     1
102
RTVSPropertyOp50
 70
     1
102
RTVSPropertyOp51
 70
     0
102
RTVSPropertyOp52
 70
     0
102
RTVSPropertyOp53
 70
     1
102
RTVSPropertyOp54
 70
     1
102
RTVSPropertyOp55
 70
     1
102
RTVSPropertyOp56
 70
     1
102
RTVSPropertyOp57
 70
     1
102
RTVSPropertyOp58
 70
     1
102
RTVSPropertyOp59
 70
     1
102
RTVSPropertyOp60
 70
     1
102
RTVSPropertyOp61
 70
     1
102
RTVSPropertyOp62
 70
     1
  0
ENDSEC
  0
EOF
