  0
SECTION
  2
HEADER
  9
$ACADVER
  1
AC1015
  9
$ACADMAINTVER
 70
    20
  9
$DWGCODEPAGE
  3
ANSI_932
  9
$INSBASE
 10
0.0
 20
0.0
 30
0.0
  9
$EXTMIN
 10
9.99995
 20
9.999999999999998
 30
0.0
  9
$EXTMAX
 10
783.3840939999999
 20
544.1030879999998
 30
0.0
  9
$LIMMIN
 10
0.0
 20
0.0
  9
$LIMMAX
 10
792.0
 20
546.0
  9
$ORTHOMODE
 70
     1
  9
$REGENMODE
 70
     1
  9
$FILLMODE
 70
     1
  9
$QTEXTMODE
 70
     0
  9
$MIRRTEXT
 70
     1
  9
$LTSCALE
 40
20.0
  9
$ATTMODE
 70
     1
  9
$TEXTSIZE
 40
5.0
  9
$TRACEWID
 40
1.0
  9
$TEXTSTYLE
  7
STANDARD
  9
$CLAYER
  8
0
  9
$CELTYPE
  6
BYLAYER
  9
$CECOLOR
 62
   256
  9
$CELTSCALE
 40
1.0
  9
$DISPSILH
 70
     0
  9
$DIMSCALE
 40
1.0
  9
$DIMASZ
 40
3.0
  9
$DIMEXO
 40
1.0
  9
$DIMDLI
 40
10.0
  9
$DIMRND
 40
0.0
  9
$DIMDLE
 40
0.0
  9
$DIMEXE
 40
1.0
  9
$DIMTP
 40
0.0
  9
$DIMTM
 40
0.0
  9
$DIMTXT
 40
3.2
  9
$DIMCEN
 40
0.0
  9
$DIMTSZ
 40
0.0
  9
$DIMTOL
 70
     0
  9
$DIMLIM
 70
     0
  9
$DIMTIH
 70
     0
  9
$DIMTOH
 70
     0
  9
$DIMSE1
 70
     0
  9
$DIMSE2
 70
     0
  9
$DIMTAD
 70
     3
  9
$DIMZIN
 70
     8
  9
$DIMBLK
  1

  9
$DIMASO
 70
     1
  9
$DIMSHO
 70
     1
  9
$DIMPOST
  1

  9
$DIMAPOST
  1

  9
$DIMALT
 70
     0
  9
$DIMALTD
 70
     2
  9
$DIMALTF
 40
25.4
  9
$DIMLFAC
 40
1.0
  9
$DIMTOFL
 70
     1
  9
$DIMTVP
 40
0.0
  9
$DIMTIX
 70
     0
  9
$DIMSOXD
 70
     0
  9
$DIMSAH
 70
     1
  9
$DIMBLK1
  1

  9
$DIMBLK2
  1

  9
$DIMSTYLE
  2
STANDARD
  9
$DIMCLRD
 70
     0
  9
$DIMCLRE
 70
     0
  9
$DIMCLRT
 70
     0
  9
$DIMTFAC
 40
1.0
  9
$DIMGAP
 40
1.0
  9
$DIMJUST
 70
     0
  9
$DIMSD1
 70
     0
  9
$DIMSD2
 70
     0
  9
$DIMTOLJ
 70
     1
  9
$DIMTZIN
 70
     0
  9
$DIMALTZ
 70
     0
  9
$DIMALTTZ
 70
     0
  9
$DIMUPT
 70
     0
  9
$DIMDEC
 70
     4
  9
$DIMTDEC
 70
     4
  9
$DIMALTU
 70
     2
  9
$DIMALTTD
 70
     2
  9
$DIMTXSTY
  7
STANDARD
  9
$DIMAUNIT
 70
     0
  9
$DIMADEC
 70
     0
  9
$DIMALTRND
 40
0.0
  9
$DIMAZIN
 70
     0
  9
$DIMDSEP
 70
    46
  9
$DIMATFIT
 70
     3
  9
$DIMFRAC
 70
     0
  9
$DIMLDRBLK
  1

  9
$DIMLUNIT
 70
     2
  9
$DIMLWD
 70
    -2
  9
$DIMLWE
 70
    -2
  9
$DIMTMOVE
 70
     0
  9
$LUNITS
 70
     2
  9
$LUPREC
 70
     4
  9
$SKETCHINC
 40
1.0
  9
$FILLETRAD
 40
2.5
  9
$AUNITS
 70
     0
  9
$AUPREC
 70
     2
  9
$MENU
  1
.
  9
$ELEVATION
 40
0.0
  9
$PELEVATION
 40
0.0
  9
$THICKNESS
 40
0.0
  9
$LIMCHECK
 70
     0
  9
$CHAMFERA
 40
10.0
  9
$CHAMFERB
 40
10.0
  9
$CHAMFERC
 40
0.0
  9
$CHAMFERD
 40
0.0
  9
$SKPOLY
 70
     0
  9
$TDCREATE
 40
2451074.630195602
  9
$TDUCREATE
 40
2451074.255195602
  9
$TDUPDATE
 40
2457192.622872164
  9
$TDUUPDATE
 40
2457192.247872165
  9
$TDINDWG
 40
0.0000178935
  9
$TDUSRTIMER
 40
0.0000175694
  9
$USRTIMER
 70
     1
  9
$ANGBASE
 50
0.0
  9
$ANGDIR
 70
     0
  9
$PDMODE
 70
     0
  9
$PDSIZE
 40
0.0
  9
$PLINEWID
 40
0.0
  9
$SPLFRAME
 70
     0
  9
$SPLINETYPE
 70
     6
  9
$SPLINESEGS
 70
     8
  9
$HANDSEED
  5
9D30
  9
$SURFTAB1
 70
     6
  9
$SURFTAB2
 70
     6
  9
$SURFTYPE
 70
     6
  9
$SURFU
 70
     6
  9
$SURFV
 70
     6
  9
$UCSBASE
  2

  9
$UCSNAME
  2

  9
$UCSORG
 10
0.0
 20
0.0
 30
0.0
  9
$UCSXDIR
 10
1.0
 20
0.0
 30
0.0
  9
$UCSYDIR
 10
0.0
 20
1.0
 30
0.0
  9
$UCSORTHOREF
  2

  9
$UCSORTHOVIEW
 70
     0
  9
$UCSORGTOP
 10
0.0
 20
0.0
 30
0.0
  9
$UCSORGBOTTOM
 10
0.0
 20
0.0
 30
0.0
  9
$UCSORGLEFT
 10
0.0
 20
0.0
 30
0.0
  9
$UCSORGRIGHT
 10
0.0
 20
0.0
 30
0.0
  9
$UCSORGFRONT
 10
0.0
 20
0.0
 30
0.0
  9
$UCSORGBACK
 10
0.0
 20
0.0
 30
0.0
  9
$PUCSBASE
  2

  9
$PUCSNAME
  2

  9
$PUCSORG
 10
0.0
 20
0.0
 30
0.0
  9
$PUCSXDIR
 10
1.0
 20
0.0
 30
0.0
  9
$PUCSYDIR
 10
0.0
 20
1.0
 30
0.0
  9
$PUCSORTHOREF
  2

  9
$PUCSORTHOVIEW
 70
     0
  9
$PUCSORGTOP
 10
0.0
 20
0.0
 30
0.0
  9
$PUCSORGBOTTOM
 10
0.0
 20
0.0
 30
0.0
  9
$PUCSORGLEFT
 10
0.0
 20
0.0
 30
0.0
  9
$PUCSORGRIGHT
 10
0.0
 20
0.0
 30
0.0
  9
$PUCSORGFRONT
 10
0.0
 20
0.0
 30
0.0
  9
$PUCSORGBACK
 10
0.0
 20
0.0
 30
0.0
  9
$USERI1
 70
     0
  9
$USERI2
 70
     0
  9
$USERI3
 70
     0
  9
$USERI4
 70
     0
  9
$USERI5
 70
     0
  9
$USERR1
 40
0.0
  9
$USERR2
 40
0.0
  9
$USERR3
 40
0.0
  9
$USERR4
 40
0.0
  9
$USERR5
 40
0.0
  9
$WORLDVIEW
 70
     1
  9
$SHADEDGE
 70
     3
  9
$SHADEDIF
 70
    70
  9
$TILEMODE
 70
     1
  9
$MAXACTVP
 70
    16
  9
$PINSBASE
 10
0.0
 20
0.0
 30
0.0
  9
$PLIMCHECK
 70
     0
  9
$PEXTMIN
 10
1.000000000000000E+20
 20
1.000000000000000E+20
 30
1.000000000000000E+20
  9
$PEXTMAX
 10
-1.000000000000000E+20
 20
-1.000000000000000E+20
 30
-1.000000000000000E+20
  9
$PLIMMIN
 10
0.0
 20
0.0
  9
$PLIMMAX
 10
420.0
 20
297.0
  9
$UNITMODE
 70
     0
  9
$VISRETAIN
 70
     0
  9
$PLINEGEN
 70
     0
  9
$PSLTSCALE
 70
     0
  9
$TREEDEPTH
 70
  3020
  9
$CMLSTYLE
  2
STANDARD
  9
$CMLJUST
 70
     0
  9
$CMLSCALE
 40
1.0
  9
$PROXYGRAPHICS
 70
     1
  9
$MEASUREMENT
 70
     0
  9
$CELWEIGHT
370
    -1
  9
$ENDCAPS
280
     0
  9
$JOINSTYLE
280
     0
  9
$LWDISPLAY
290
     0
  9
$INSUNITS
 70
     0
  9
$HYPERLINKBASE
  1

  9
$STYLESHEET
  1

  9
$XEDIT
290
     1
  9
$CEPSNTYPE
380
     0
  9
$PSTYLEMODE
290
     1
  9
$FINGERPRINTGUID
  2
{4E4F031C-CEAA-4F2E-928E-1ECC87C95DF5}
  9
$VERSIONGUID
  2
{1BB06EF4-7F7B-4880-9DE6-45F89CC8DBD0}
  9
$EXTNAMES
290
     1
  9
$PSVPSCALE
 40
0.0
  9
$OLESTARTUP
290
     0
  0
ENDSEC
  0
SECTION
  2
CLASSES
  0
CLASS
  1
ACDBDICTIONARYWDFLT
  2
AcDbDictionaryWithDefault
  3
ObjectDBX Classes
 90
        0
280
     0
281
     0
  0
CLASS
  1
ACDBPLACEHOLDER
  2
AcDbPlaceHolder
  3
ObjectDBX Classes
 90
        0
280
     0
281
     0
  0
CLASS
  1
LAYOUT
  2
AcDbLayout
  3
ObjectDBX Classes
 90
        0
280
     0
281
     0
  0
CLASS
  1
DICTIONARYVAR
  2
AcDbDictionaryVar
  3
ObjectDBX Classes
 90
        0
280
     0
281
     0
  0
CLASS
  1
MATERIAL
  2
AcDbMaterial
  3
ObjectDBX Classes
 90
     1153
280
     0
281
     0
  0
CLASS
  1
VISUALSTYLE
  2
AcDbVisualStyle
  3
ObjectDBX Classes
 90
     4095
280
     0
281
     0
  0
CLASS
  1
TABLESTYLE
  2
AcDbTableStyle
  3
ObjectDBX Classes
 90
     4095
280
     0
281
     0
  0
CLASS
  1
SCALE
  2
AcDbScale
  3
ObjectDBX Classes
 90
     1153
280
     0
281
     0
  0
CLASS
  1
MLEADERSTYLE
  2
AcDbMLeaderStyle
  3
ACDB_MLEADERSTYLE_CLASS
 90
     4095
280
     0
281
     0
  0
CLASS
  1
ACDBSECTIONVIEWSTYLE
  2
AcDbSectionViewStyle
  3
ObjectDBX Classes
 90
     1025
280
     0
281
     0
  0
CLASS
  1
ACDBDETAILVIEWSTYLE
  2
AcDbDetailViewStyle
  3
ObjectDBX Classes
 90
     1025
280
     0
281
     0
  0
CLASS
  1
CELLSTYLEMAP
  2
AcDbCellStyleMap
  3
ObjectDBX Classes
 90
     1152
280
     0
281
     0
  0
ENDSEC
  0
SECTION
  2
TABLES
  0
TABLE
  2
VPORT
  5
9869
330
0
100
AcDbSymbolTable
 70
     1
  0
VPORT
  5
9C79
330
9869
100
AcDbSymbolTableRecord
100
AcDbViewportTableRecord
  2
*ACTIVE
 70
     0
 10
0.0
 20
0.0
 11
1.0
 21
1.0
 12
558.4826834405666
 22
277.0615094546944
 13
0.0
 23
0.0
 14
10.0
 24
10.0
 15
10.0
 25
10.0
 16
0.0
 26
0.0
 36
1.0
 17
0.0
 27
0.0
 37
0.0
 40
540.1355065935791
 41
1.899603698811096
 42
50.0
 43
0.0
 44
0.0
 50
0.0
 51
0.0
 71
     0
 72
   100
 73
     1
 74
     0
 75
     0
 76
     0
 77
     0
 78
     0
281
     0
 65
     1
110
0.0
120
0.0
130
0.0
111
1.0
121
0.0
131
0.0
112
0.0
122
1.0
132
0.0
 79
     0
146
0.0
1001
ACAD_NAV_VCDISPLAY
1070
     3
  0
ENDTAB
  0
TABLE
  2
LTYPE
  5
9866
330
0
100
AcDbSymbolTable
 70
     4
  0
LTYPE
  5
9874
330
9866
100
AcDbSymbolTableRecord
100
AcDbLinetypeTableRecord
  2
BYBLOCK
 70
     0
  3

 72
    65
 73
     0
 40
0.0
  0
LTYPE
  5
9875
330
9866
100
AcDbSymbolTableRecord
100
AcDbLinetypeTableRecord
  2
BYLAYER
 70
     0
  3

 72
    65
 73
     0
 40
0.0
  0
LTYPE
  5
9876
330
9866
100
AcDbSymbolTableRecord
100
AcDbLinetypeTableRecord
  2
CONTINUOUS
 70
     0
  3
Solid line
 72
    65
 73
     0
 40
0.0
  0
LTYPE
  5
9884
330
9866
100
AcDbSymbolTableRecord
100
AcDbLinetypeTableRecord
  2
DASHED
 70
     0
  3
__ __ __ __ __ __ __ __ __ __ __ __ __ __ __ __
 72
    65
 73
     2
 40
0.75
 49
0.5
 74
     0
 49
-0.25
 74
     0
  0
LTYPE
  5
9885
330
9866
100
AcDbSymbolTableRecord
100
AcDbLinetypeTableRecord
  2
CENTER
 70
     0
  3
____ _ ____ _ ____ _ ____ _ ____ _ ____ _ ____ 
 72
    65
 73
     4
 40
2.0
 49
1.25
 74
     0
 49
-0.25
 74
     0
 49
0.25
 74
     0
 49
-0.25
 74
     0
  0
LTYPE
  5
9886
330
9866
100
AcDbSymbolTableRecord
100
AcDbLinetypeTableRecord
  2
PHANTOM
 70
     0
  3
______  __  __  ______  __  __  ______  __  __ 
 72
    65
 73
     6
 40
2.5
 49
1.25
 74
     0
 49
-0.25
 74
     0
 49
0.25
 74
     0
 49
-0.25
 74
     0
 49
0.25
 74
     0
 49
-0.25
 74
     0
  0
ENDTAB
  0
TABLE
  2
LAYER
  5
9863
330
0
100
AcDbSymbolTable
 70
     8
  0
LAYER
  5
9871
102
{ACAD_XDICTIONARY
360
9CD4
102
}
330
9863
100
AcDbSymbolTableRecord
100
AcDbLayerTableRecord
  2
0
 70
     0
 62
     7
  6
CONTINUOUS
370
    -3
390
9C82
  0
LAYER
  5
9887
102
{ACAD_XDICTIONARY
360
9CD6
102
}
330
9863
100
AcDbSymbolTableRecord
100
AcDbLayerTableRecord
  2
4
 70
     0
 62
     1
  6
CENTER
370
    -3
390
9C82
  0
LAYER
  5
9888
102
{ACAD_XDICTIONARY
360
9CD8
102
}
330
9863
100
AcDbSymbolTableRecord
100
AcDbLayerTableRecord
  2
5
 70
     0
 62
     6
  6
PHANTOM
370
    -3
390
9C82
  0
LAYER
  5
9889
102
{ACAD_XDICTIONARY
360
9CDA
102
}
330
9863
100
AcDbSymbolTableRecord
100
AcDbLayerTableRecord
  2
1
 70
     0
 62
     7
  6
CONTINUOUS
370
    -3
390
9C82
  0
LAYER
  5
988A
102
{ACAD_XDICTIONARY
360
9CDC
102
}
330
9863
100
AcDbSymbolTableRecord
100
AcDbLayerTableRecord
  2
2
 70
     0
 62
     4
  6
CONTINUOUS
370
    -3
390
9C82
  0
LAYER
  5
988B
102
{ACAD_XDICTIONARY
360
9CDE
102
}
330
9863
100
AcDbSymbolTableRecord
100
AcDbLayerTableRecord
  2
3
 70
     0
 62
     2
  6
DASHED
370
    -3
390
9C82
  0
LAYER
  5
988C
102
{ACAD_XDICTIONARY
360
9CE0
102
}
330
9863
100
AcDbSymbolTableRecord
100
AcDbLayerTableRecord
  2
6
 70
     0
 62
     5
  6
CONTINUOUS
370
    -3
390
9C82
  0
LAYER
  5
988D
102
{ACAD_XDICTIONARY
360
9CE2
102
}
330
9863
100
AcDbSymbolTableRecord
100
AcDbLayerTableRecord
  2
7
 70
     0
 62
     3
  6
CONTINUOUS
370
    -3
390
9C82
  0
ENDTAB
  0
TABLE
  2
STYLE
  5
9864
330
0
100
AcDbSymbolTable
 70
     1
  0
STYLE
  5
9872
330
9864
100
AcDbSymbolTableRecord
100
AcDbTextStyleTableRecord
  2
STANDARD
 70
     0
 40
0.0
 41
1.0
 50
0.0
 71
     0
 42
5.0
  3
txt
  4

  0
ENDTAB
  0
TABLE
  2
VIEW
  5
9867
330
0
100
AcDbSymbolTable
 70
     0
  0
ENDTAB
  0
TABLE
  2
UCS
  5
9868
330
0
100
AcDbSymbolTable
 70
     0
  0
ENDTAB
  0
TABLE
  2
APPID
  5
986A
330
0
100
AcDbSymbolTable
 70
     3
  0
APPID
  5
9873
330
986A
100
AcDbSymbolTableRecord
100
AcDbRegAppTableRecord
  2
ACAD
 70
     0
  0
APPID
  5
9CEE
330
986A
100
AcDbSymbolTableRecord
100
AcDbRegAppTableRecord
  2
ACAD_NAV_VCDISPLAY
 70
     0
  0
APPID
  5
9D27
330
986A
100
AcDbSymbolTableRecord
100
AcDbRegAppTableRecord
  2
ACAD_MLEADERVER
 70
     0
  0
ENDTAB
  0
TABLE
  2
DIMSTYLE
  5
986B
330
0
100
AcDbSymbolTable
 70
     1
100
AcDbDimStyleTable
 71
     0
  0
DIMSTYLE
105
988F
330
986B
100
AcDbSymbolTableRecord
100
AcDbDimStyleTableRecord
  2
STANDARD
 70
     0
 41
3.0
 42
1.0
 43
10.0
 44
1.0
 73
     0
 74
     0
 77
     3
 78
     8
140
3.2
141
0.0
147
1.0
172
     1
173
     1
284
     8
285
     8
286
     8
340
9872
  0
ENDTAB
  0
TABLE
  2
BLOCK_RECORD
  5
9862
330
0
100
AcDbSymbolTable
 70
     0
  0
BLOCK_RECORD
  5
987F
102
{ACAD_XDICTIONARY
360
9C7C
102
}
330
9862
100
AcDbSymbolTableRecord
100
AcDbBlockTableRecord
  2
*MODEL_SPACE
340
9CD0
  0
BLOCK_RECORD
  5
987B
102
{ACAD_XDICTIONARY
360
9C7A
102
}
330
9862
100
AcDbSymbolTableRecord
100
AcDbBlockTableRecord
  2
*PAPER_SPACE
340
9CD1
  0
ENDTAB
  0
ENDSEC
  0
SECTION
  2
BLOCKS
  0
BLOCK
  5
9880
330
987F
100
AcDbEntity
  8
0
100
AcDbBlockBegin
  2
*MODEL_SPACE
 70
     0
 10
0.0
 20
0.0
 30
0.0
  3
*MODEL_SPACE
  1

  0
ENDBLK
  5
9881
330
987F
100
AcDbEntity
  8
0
100
AcDbBlockEnd
  0
BLOCK
  5
987C
330
987B
100
AcDbEntity
 67
     1
  8
0
100
AcDbBlockBegin
  2
*PAPER_SPACE
 70
     0
 10
0.0
 20
0.0
 30
0.0
  3
*PAPER_SPACE
  1

  0
ENDBLK
  5
987D
330
987B
100
AcDbEntity
 67
     1
  8
0
100
AcDbBlockEnd
  0
ENDSEC
  0
SECTION
  2
ENTITIES
  0
LINE
  5
9897
330
987F
100
AcDbEntity
  8
4
  6
CENTER
100
AcDbLine
 10
446.4316099999998
 20
420.903076
 30
0.0
 11
446.4316099999998
 21
155.903061
 31
0.0
  0
LINE
  5
9898
330
987F
100
AcDbEntity
  8
1
  6
Continuous
100
AcDbLine
 10
281.3046259999999
 20
415.903076
 30
0.0
 11
278.104614
 21
415.903076
 31
0.0
  0
LINE
  5
9899
330
987F
100
AcDbEntity
  8
1
  6
Continuous
100
AcDbLine
 10
281.3046259999999
 20
160.903061
 30
0.0
 11
278.104614
 21
160.903061
 31
0.0
  0
LINE
  5
989A
330
987F
100
AcDbEntity
  8
1
  6
Continuous
100
AcDbLine
 10
461.4316099999999
 20
400.9030759999998
 30
0.0
 11
461.4316099999999
 21
175.903061
 31
0.0
  0
LINE
  5
989B
330
987F
100
AcDbEntity
  8
1
  6
Continuous
100
AcDbLine
 10
431.43161
 20
400.9030759999998
 30
0.0
 11
431.43161
 21
175.903061
 31
0.0
  0
LINE
  5
989C
330
987F
100
AcDbEntity
  8
1
  6
Continuous
100
AcDbLine
 10
464.631622
 20
400.9030759999998
 30
0.0
 11
464.631622
 21
175.903061
 31
0.0
  0
LINE
  5
989D
330
987F
100
AcDbEntity
  8
1
  6
Continuous
100
AcDbLine
 10
464.631622
 20
400.9030759999998
 30
0.0
 11
461.4316099999999
 21
400.9030759999998
 31
0.0
  0
LINE
  5
989E
330
987F
100
AcDbEntity
  8
1
  6
Continuous
100
AcDbLine
 10
464.631622
 20
175.903061
 30
0.0
 11
461.4316099999999
 21
175.903061
 31
0.0
  0
LINE
  5
989F
330
987F
100
AcDbEntity
  8
1
  6
Continuous
100
AcDbLine
 10
441.4316099999998
 20
300.9030759999999
 30
0.0
 11
441.4316099999998
 21
183.386383
 31
0.0
  0
LINE
  5
98A0
330
987F
100
AcDbEntity
  8
1
  6
Continuous
100
AcDbLine
 10
451.43161
 20
300.9030759999999
 30
0.0
 11
451.43161
 21
183.386383
 31
0.0
  0
LINE
  5
98A1
330
987F
100
AcDbEntity
  8
1
  6
Continuous
100
AcDbLine
 10
278.104614
 20
415.903076
 30
0.0
 11
278.104614
 21
160.903061
 31
0.0
  0
LINE
  5
98A2
330
987F
100
AcDbEntity
  8
1
  6
Continuous
100
AcDbLine
 10
281.3046259999999
 20
415.903076
 30
0.0
 11
281.3046259999999
 21
160.903061
 31
0.0
  0
LINE
  5
98A3
330
987F
100
AcDbEntity
  8
1
  6
Continuous
100
AcDbLine
 10
295.3046259999999
 20
398.9030759999998
 30
0.0
 11
295.3046259999999
 21
184.9030609999998
 31
0.0
  0
LINE
  5
98A4
330
987F
100
AcDbEntity
  8
1
  6
Continuous
100
AcDbLine
 10
293.3046259999999
 20
400.9030759999998
 30
0.0
 11
289.104614
 21
400.9030759999998
 31
0.0
  0
LINE
  5
98A5
330
987F
100
AcDbEntity
  8
4
  6
CENTER
100
AcDbLine
 10
43.200001
 20
420.903076
 30
0.0
 11
43.200001
 21
155.903061
 31
0.0
  0
LINE
  5
98A6
330
987F
100
AcDbEntity
  8
1
  6
Continuous
100
AcDbLine
 10
58.200001
 20
400.9030759999998
 30
0.0
 11
58.200001
 21
175.903061
 31
0.0
  0
LINE
  5
98A7
330
987F
100
AcDbEntity
  8
1
  6
Continuous
100
AcDbLine
 10
25.0
 20
400.9030759999998
 30
0.0
 11
25.0
 21
175.903061
 31
0.0
  0
LINE
  5
98A8
330
987F
100
AcDbEntity
  8
1
  6
Continuous
100
AcDbLine
 10
25.0
 20
400.9030759999998
 30
0.0
 11
28.200001
 21
400.9030759999998
 31
0.0
  0
LINE
  5
98A9
330
987F
100
AcDbEntity
  8
1
  6
Continuous
100
AcDbLine
 10
25.0
 20
175.903061
 30
0.0
 11
28.200001
 21
175.903061
 31
0.0
  0
LINE
  5
98AA
330
987F
100
AcDbEntity
  8
1
  6
Continuous
100
AcDbLine
 10
48.200001
 20
300.9030759999999
 30
0.0
 11
48.200001
 21
183.386383
 31
0.0
  0
LINE
  5
98AB
330
987F
100
AcDbEntity
  8
1
  6
Continuous
100
AcDbLine
 10
38.200001
 20
300.9030759999999
 30
0.0
 11
38.200001
 21
183.386383
 31
0.0
  0
LINE
  5
98AC
330
987F
100
AcDbEntity
  8
1
  6
Continuous
100
AcDbLine
 10
294.104614
 20
184.9030609999998
 30
0.0
 11
294.104614
 21
166.903061
 31
0.0
  0
LINE
  5
98AD
330
987F
100
AcDbEntity
  8
1
  6
Continuous
100
AcDbLine
 10
284.104614
 20
65.699997
 30
0.0
 11
284.104614
 21
52.700001
 31
0.0
  0
LINE
  5
98AE
330
987F
100
AcDbEntity
  8
1
  6
Continuous
100
AcDbLine
 10
294.104614
 20
63.950001
 30
0.0
 11
284.104614
 21
63.950001
 31
0.0
  0
LINE
  5
98AF
330
987F
100
AcDbEntity
  8
1
  6
Continuous
100
AcDbLine
 10
294.104614
 20
54.450001
 30
0.0
 11
284.104614
 21
54.450001
 31
0.0
  0
LINE
  5
98B0
330
987F
100
AcDbEntity
  8
1
  6
Continuous
100
AcDbLine
 10
283.604614
 20
52.200001
 30
0.0
 11
281.3046259999999
 21
52.200001
 31
0.0
  0
LINE
  5
98B1
330
987F
100
AcDbEntity
  8
1
  6
Continuous
100
AcDbLine
 10
283.604614
 20
66.199997
 30
0.0
 11
281.3046259999999
 21
66.199997
 31
0.0
  0
LINE
  5
98B2
330
987F
100
AcDbEntity
  8
1
  6
Continuous
100
AcDbLine
 10
284.104614
 20
52.69999699999999
 30
0.0
 11
283.604614
 21
52.19999699999998
 31
0.0
  0
LINE
  5
98B3
330
987F
100
AcDbEntity
  8
1
  6
Continuous
100
AcDbLine
 10
284.104614
 20
65.700005
 30
0.0
 11
283.604614
 21
66.200005
 31
0.0
  0
LINE
  5
98B4
330
987F
100
AcDbEntity
  8
1
  6
Continuous
100
AcDbLine
 10
283.604614
 20
66.199997
 30
0.0
 11
283.604614
 21
52.200001
 31
0.0
  0
LINE
  5
98B5
330
987F
100
AcDbEntity
  8
1
  6
Continuous
100
AcDbLine
 10
294.104614
 20
68.199997
 30
0.0
 11
294.104614
 21
50.200001
 31
0.0
  0
LINE
  5
98B6
330
987F
100
AcDbEntity
  8
1
  6
Continuous
100
AcDbLine
 10
296.104614
 20
68.199997
 30
0.0
 11
296.104614
 21
50.200001
 31
0.0
  0
LINE
  5
98B7
330
987F
100
AcDbEntity
  8
1
  6
Continuous
100
AcDbLine
 10
296.104614
 20
50.200001
 30
0.0
 11
294.104614
 21
50.200001
 31
0.0
  0
LINE
  5
98B8
330
987F
100
AcDbEntity
  8
1
  6
Continuous
100
AcDbLine
 10
296.104614
 20
68.199997
 30
0.0
 11
294.104614
 21
68.199997
 31
0.0
  0
LINE
  5
98B9
330
987F
100
AcDbEntity
  8
1
  6
Continuous
100
AcDbLine
 10
252.404617
 20
62.200001
 30
0.0
 11
252.404617
 21
56.200001
 31
0.0
  0
LINE
  5
98BA
330
987F
100
AcDbEntity
  8
1
  6
Continuous
100
AcDbLine
 10
244.104614
 20
61.700001
 30
0.0
 11
244.104614
 21
56.700001
 31
0.0
  0
LINE
  5
98BB
330
987F
100
AcDbEntity
  8
1
  6
Continuous
100
AcDbLine
 10
244.604614
 20
62.19999699999998
 30
0.0
 11
244.104614
 21
61.69999699999999
 31
0.0
  0
LINE
  5
98BC
330
987F
100
AcDbEntity
  8
1
  6
Continuous
100
AcDbLine
 10
244.104614
 20
56.699993
 30
0.0
 11
244.604614
 21
56.199989
 31
0.0
  0
LINE
  5
98BD
330
987F
100
AcDbEntity
  8
1
  6
Continuous
100
AcDbLine
 10
253.104614
 20
56.700001
 30
0.0
 11
253.0546109999999
 21
56.700001
 31
0.0
  0
LINE
  5
98BE
330
987F
100
AcDbEntity
  8
1
  6
Continuous
100
AcDbLine
 10
253.104614
 20
61.700001
 30
0.0
 11
253.0546109999999
 21
61.700001
 31
0.0
  0
LINE
  5
98BF
330
987F
100
AcDbEntity
  8
1
  6
Continuous
100
AcDbLine
 10
252.404617
 20
62.200001
 30
0.0
 11
244.604614
 21
62.200001
 31
0.0
  0
LINE
  5
98C0
330
987F
100
AcDbEntity
  8
1
  6
Continuous
100
AcDbLine
 10
252.404617
 20
56.200001
 30
0.0
 11
244.604614
 21
56.200001
 31
0.0
  0
LINE
  5
98C1
330
987F
100
AcDbEntity
  8
1
  6
Continuous
100
AcDbLine
 10
244.604614
 20
62.200001
 30
0.0
 11
244.604614
 21
56.200001
 31
0.0
  0
LINE
  5
98C2
330
987F
100
AcDbEntity
  8
1
  6
Continuous
100
AcDbLine
 10
278.104614
 20
68.199997
 30
0.0
 11
269.104614
 21
68.199997
 31
0.0
  0
LINE
  5
98C3
330
987F
100
AcDbEntity
  8
1
  6
Continuous
100
AcDbLine
 10
278.104614
 20
50.200001
 30
0.0
 11
269.104614
 21
50.200001
 31
0.0
  0
LINE
  5
98C4
330
987F
100
AcDbEntity
  8
1
  6
Continuous
100
AcDbLine
 10
269.104614
 20
68.199997
 30
0.0
 11
269.104614
 21
50.200001
 31
0.0
  0
LINE
  5
98C5
330
987F
100
AcDbEntity
  8
1
  6
Continuous
100
AcDbLine
 10
253.104614
 20
63.200001
 30
0.0
 11
253.104614
 21
55.200001
 31
0.0
  0
LINE
  5
98C6
330
987F
100
AcDbEntity
  8
1
  6
Continuous
100
AcDbLine
 10
269.104614
 20
64.19999699999999
 30
0.0
 11
254.104614
 21
64.19999699999999
 31
0.0
  0
LINE
  5
98C7
330
987F
100
AcDbEntity
  8
1
  6
Continuous
100
AcDbLine
 10
269.104614
 20
54.200001
 30
0.0
 11
254.104614
 21
54.200001
 31
0.0
  0
LINE
  5
98C8
330
987F
100
AcDbEntity
  8
2
  6
Continuous
100
AcDbLine
 10
269.104614
 20
63.38799999999999
 30
0.0
 11
253.292618
 21
63.38799999999999
 31
0.0
  0
LINE
  5
98C9
330
987F
100
AcDbEntity
  8
2
  6
Continuous
100
AcDbLine
 10
269.104614
 20
55.012001
 30
0.0
 11
253.292618
 21
55.012001
 31
0.0
  0
LINE
  5
98CA
330
987F
100
AcDbEntity
  8
1
  6
Continuous
100
AcDbLine
 10
254.104614
 20
64.19999699999999
 30
0.0
 11
253.104614
 21
63.200001
 31
0.0
  0
LINE
  5
98CB
330
987F
100
AcDbEntity
  8
1
  6
Continuous
100
AcDbLine
 10
254.104614
 20
54.200001
 30
0.0
 11
253.104614
 21
55.199989
 31
0.0
  0
LINE
  5
98CC
330
987F
100
AcDbEntity
  8
1
  6
Continuous
100
AcDbLine
 10
254.104614
 20
64.19999699999999
 30
0.0
 11
254.104614
 21
54.200001
 31
0.0
  0
LINE
  5
98CD
330
987F
100
AcDbEntity
  8
4
  6
CENTER
100
AcDbLine
 10
303.104614
 20
400.9030759999998
 30
0.0
 11
104.8217619999998
 21
400.9030759999998
 31
0.0
  0
LINE
  5
98CE
330
987F
100
AcDbEntity
  8
1
  6
Continuous
100
AcDbLine
 10
288.104614
 20
409.9030759999997
 30
0.0
 11
288.104614
 21
391.903076
 31
0.0
  0
LINE
  5
98CF
330
987F
100
AcDbEntity
  8
1
  6
Continuous
100
AcDbLine
 10
290.104614
 20
391.903076
 30
0.0
 11
288.104614
 21
391.903076
 31
0.0
  0
LINE
  5
98D0
330
987F
100
AcDbEntity
  8
1
  6
Continuous
100
AcDbLine
 10
290.104614
 20
409.9030759999997
 30
0.0
 11
288.104614
 21
409.9030759999997
 31
0.0
  0
LINE
  5
98D1
330
987F
100
AcDbEntity
  8
1
  6
Continuous
100
AcDbLine
 10
290.104614
 20
409.9030759999997
 30
0.0
 11
290.104614
 21
402.403076
 31
0.0
  0
LINE
  5
98D2
330
987F
100
AcDbEntity
  8
1
  6
Continuous
100
AcDbLine
 10
293.029419
 20
399.403076
 30
0.0
 11
289.104614
 21
399.403076
 31
0.0
  0
LINE
  5
98D3
330
987F
100
AcDbEntity
  8
1
  6
Continuous
100
AcDbLine
 10
293.029419
 20
402.403076
 30
0.0
 11
289.104614
 21
402.403076
 31
0.0
  0
LINE
  5
98D4
330
987F
100
AcDbEntity
  8
1
  6
Continuous
100
AcDbLine
 10
289.104614
 20
402.403076
 30
0.0
 11
289.104614
 21
399.403076
 31
0.0
  0
LINE
  5
98D5
330
987F
100
AcDbEntity
  8
1
  6
Continuous
100
AcDbLine
 10
287.268311
 20
405.9030759999997
 30
0.0
 11
287.166016
 21
405.9030759999997
 31
0.0
  0
LINE
  5
98D6
330
987F
100
AcDbEntity
  8
1
  6
Continuous
100
AcDbLine
 10
288.104614
 20
395.903076
 30
0.0
 11
288.040924
 21
395.903076
 31
0.0
  0
LINE
  5
98D7
330
987F
100
AcDbEntity
  8
1
  6
Continuous
100
AcDbLine
 10
276.104614
 20
405.9030759999997
 30
0.0
 11
276.104614
 21
395.903076
 31
0.0
  0
LINE
  5
98D8
330
987F
100
AcDbEntity
  8
1
  6
Continuous
100
AcDbLine
 10
259.104614
 20
403.903076
 30
0.0
 11
259.104614
 21
397.903076
 31
0.0
  0
LINE
  5
98D9
330
987F
100
AcDbEntity
  8
1
  6
Continuous
100
AcDbLine
 10
260.104614
 20
404.9030759999998
 30
0.0
 11
259.104614
 21
403.903076
 31
0.0
  0
LINE
  5
98DA
330
987F
100
AcDbEntity
  8
1
  6
Continuous
100
AcDbLine
 10
259.104614
 20
397.903076
 30
0.0
 11
260.104614
 21
396.9030759999998
 31
0.0
  0
LINE
  5
98DB
330
987F
100
AcDbEntity
  8
1
  6
Continuous
100
AcDbLine
 10
290.104614
 20
399.403076
 30
0.0
 11
290.104614
 21
391.903076
 31
0.0
  0
LINE
  5
98DC
330
987F
100
AcDbEntity
  8
1
  6
Continuous
100
AcDbLine
 10
167.104614
 20
411.403076
 30
0.0
 11
167.104614
 21
390.4030759999998
 31
0.0
  0
LINE
  5
98DD
330
987F
100
AcDbEntity
  8
1
  6
Continuous
100
AcDbLine
 10
169.104614
 20
515.4030759999999
 30
0.0
 11
167.104614
 21
515.4030759999999
 31
0.0
  0
LINE
  5
98DE
330
987F
100
AcDbEntity
  8
1
  6
Continuous
100
AcDbLine
 10
169.104614
 20
536.4030759999999
 30
0.0
 11
167.104614
 21
536.4030759999999
 31
0.0
  0
LINE
  5
98DF
330
987F
100
AcDbEntity
  8
1
  6
Continuous
100
AcDbLine
 10
165.104614
 20
408.603058
 30
0.0
 11
165.104614
 21
393.2030639999999
 31
0.0
  0
LINE
  5
98E0
330
987F
100
AcDbEntity
  8
1
  6
Continuous
100
AcDbLine
 10
288.104614
 20
400.9030759999998
 30
0.0
 11
287.70578
 21
400.9030759999998
 31
0.0
  0
LINE
  5
98E1
330
987F
100
AcDbEntity
  8
1
  6
Continuous
100
AcDbLine
 10
287.0965879999999
 20
406.696655
 30
0.0
 11
288.102692
 21
395.1966549999998
 31
0.0
  0
LINE
  5
98E2
330
987F
100
AcDbEntity
  8
1
  6
Continuous
100
AcDbLine
 10
286.1004029999999
 20
406.6094969999999
 30
0.0
 11
287.106506
 21
395.1094969999999
 31
0.0
  0
LINE
  5
98E3
330
987F
100
AcDbEntity
  8
1
  6
Continuous
100
AcDbLine
 10
282.300812
 20
406.696625
 30
0.0
 11
283.306915
 21
395.1966549999998
 31
0.0
  0
LINE
  5
98E4
330
987F
100
AcDbEntity
  8
1
  6
Continuous
100
AcDbLine
 10
281.3046259999999
 20
406.609467
 30
0.0
 11
282.3107299999999
 21
395.1094969999999
 31
0.0
  0
LINE
  5
98E5
330
987F
100
AcDbEntity
  8
1
  6
Continuous
100
AcDbLine
 10
284.6987
 20
406.696625
 30
0.0
 11
285.7048029999999
 21
395.1966549999998
 31
0.0
  0
LINE
  5
98E6
330
987F
100
AcDbEntity
  8
1
  6
Continuous
100
AcDbLine
 10
283.702515
 20
406.609467
 30
0.0
 11
284.708618
 21
395.1094969999999
 31
0.0
  0
LINE
  5
98E7
330
987F
100
AcDbEntity
  8
1
  6
Continuous
100
AcDbLine
 10
287.2065119999998
 20
406.6094969999999
 30
0.0
 11
287.70578
 21
400.9030759999998
 31
0.0
  0
LINE
  5
98E8
330
987F
100
AcDbEntity
  8
1
  6
Continuous
100
AcDbLine
 10
287.2046509999999
 20
406.65741
 30
0.0
 11
287.19809
 21
405.9030759999997
 31
0.0
  0
LINE
  5
98E9
330
987F
100
AcDbEntity
  8
1
  6
Continuous
100
AcDbLine
 10
281.302704
 20
400.9030759999998
 30
0.0
 11
281.701569
 21
400.9030759999998
 31
0.0
  0
LINE
  5
98EA
330
987F
100
AcDbEntity
  8
1
  6
Continuous
100
AcDbLine
 10
282.2008059999999
 20
395.1966549999998
 30
0.0
 11
281.701569
 21
400.9030459999998
 31
0.0
  0
LINE
  5
98EB
330
987F
100
AcDbEntity
  8
1
  6
Continuous
100
AcDbLine
 10
282.209259
 20
395.903076
 30
0.0
 11
282.202698
 21
395.1487119999999
 31
0.0
  0
LINE
  5
98EC
330
987F
100
AcDbEntity
  8
1
  6
Continuous
100
AcDbLine
 10
285.801147
 20
395.903046
 30
0.0
 11
285.703094
 21
395.0929869999998
 31
0.0
  0
LINE
  5
98ED
330
987F
100
AcDbEntity
  8
1
  6
Continuous
100
AcDbLine
 10
286.004089
 20
405.9030759999997
 30
0.0
 11
286.1021119999999
 21
406.713135
 31
0.0
  0
LINE
  5
98EE
330
987F
100
AcDbEntity
  8
1
  6
Continuous
100
AcDbLine
 10
283.4032589999998
 20
395.903076
 30
0.0
 11
283.3052059999999
 21
395.0930179999998
 31
0.0
  0
LINE
  5
98EF
330
987F
100
AcDbEntity
  8
1
  6
Continuous
100
AcDbLine
 10
283.606201
 20
405.9030759999997
 30
0.0
 11
283.704224
 21
406.713135
 31
0.0
  0
LINE
  5
98F0
330
987F
100
AcDbEntity
  8
1
  6
Continuous
100
AcDbLine
 10
51.700001
 20
180.8105469999999
 30
0.0
 11
51.700001
 21
170.9955899999999
 31
0.0
  0
LINE
  5
98F1
330
987F
100
AcDbEntity
  8
1
  6
Continuous
100
AcDbLine
 10
34.700001
 20
180.8105469999999
 30
0.0
 11
34.700001
 21
170.9955899999999
 31
0.0
  0
LINE
  5
98F2
330
987F
100
AcDbEntity
  8
1
  6
Continuous
100
AcDbLine
 10
43.200001
 20
166.0881039999999
 30
0.0
 11
34.700001
 21
170.9955899999999
 31
0.0
  0
LINE
  5
98F3
330
987F
100
AcDbEntity
  8
1
  6
Continuous
100
AcDbLine
 10
51.700001
 20
180.8105469999999
 30
0.0
 11
43.200001
 21
185.718018
 31
0.0
  0
LINE
  5
98F4
330
987F
100
AcDbEntity
  8
1
  6
Continuous
100
AcDbLine
 10
51.699993
 20
170.9955899999999
 30
0.0
 11
43.19999699999999
 21
166.08812
 31
0.0
  0
LINE
  5
98F5
330
987F
100
AcDbEntity
  8
1
  6
Continuous
100
AcDbLine
 10
43.199993
 20
185.718018
 30
0.0
 11
34.69999699999998
 21
180.8105469999999
 31
0.0
  0
LINE
  5
98F6
330
987F
100
AcDbEntity
  8
1
  6
Continuous
100
AcDbLine
 10
169.104614
 20
68.199997
 30
0.0
 11
169.104614
 21
50.200001
 31
0.0
  0
LINE
  5
98F7
330
987F
100
AcDbEntity
  8
1
  6
Continuous
100
AcDbLine
 10
167.104614
 20
393.2030639999999
 30
0.0
 11
165.104614
 21
393.2030639999999
 31
0.0
  0
LINE
  5
98F8
330
987F
100
AcDbEntity
  8
1
  6
Continuous
100
AcDbLine
 10
167.104614
 20
408.603058
 30
0.0
 11
165.104614
 21
408.603058
 31
0.0
  0
LINE
  5
98F9
330
987F
100
AcDbEntity
  8
1
  6
Continuous
100
AcDbLine
 10
43.199989
 20
408.40863
 30
0.0
 11
36.699989
 21
404.6558529999998
 31
0.0
  0
LINE
  5
98FA
330
987F
100
AcDbEntity
  8
1
  6
Continuous
100
AcDbLine
 10
49.699989
 20
397.150299
 30
0.0
 11
43.199989
 21
393.3975219999999
 31
0.0
  0
LINE
  5
98FB
330
987F
100
AcDbEntity
  8
1
  6
Continuous
100
AcDbLine
 10
43.20000499999999
 20
408.4086
 30
0.0
 11
49.700005
 21
404.655823
 31
0.0
  0
LINE
  5
98FC
330
987F
100
AcDbEntity
  8
1
  6
Continuous
100
AcDbLine
 10
36.70000499999999
 20
397.1502689999999
 30
0.0
 11
43.20000499999999
 21
393.397491
 31
0.0
  0
LINE
  5
98FD
330
987F
100
AcDbEntity
  8
1
  6
Continuous
100
AcDbLine
 10
49.700001
 20
404.6558529999998
 30
0.0
 11
49.700001
 21
397.150299
 31
0.0
  0
LINE
  5
98FE
330
987F
100
AcDbEntity
  8
1
  6
Continuous
100
AcDbLine
 10
36.700001
 20
404.6558529999998
 30
0.0
 11
36.700001
 21
397.150299
 31
0.0
  0
LINE
  5
98FF
330
987F
100
AcDbEntity
  8
1
  6
Continuous
100
AcDbLine
 10
158.604614
 20
407.403076
 30
0.0
 11
158.604614
 21
394.403076
 31
0.0
  0
LINE
  5
9900
330
987F
100
AcDbEntity
  8
1
  6
Continuous
100
AcDbLine
 10
158.604614
 20
532.4030759999999
 30
0.0
 11
158.604614
 21
519.4030759999999
 31
0.0
  0
LINE
  5
9901
330
987F
100
AcDbEntity
  8
1
  6
Continuous
100
AcDbLine
 10
165.104614
 20
533.603058
 30
0.0
 11
165.104614
 21
518.2030639999998
 31
0.0
  0
LINE
  5
9902
330
987F
100
AcDbEntity
  8
1
  6
Continuous
100
AcDbLine
 10
159.1851649999999
 20
408.40863
 30
0.0
 11
165.104614
 21
408.40863
 31
0.0
  0
LINE
  5
9903
330
987F
100
AcDbEntity
  8
1
  6
Continuous
100
AcDbLine
 10
159.1851649999999
 20
393.3975219999999
 30
0.0
 11
165.104614
 21
393.3975219999999
 31
0.0
  0
LINE
  5
9904
330
987F
100
AcDbEntity
  8
1
  6
Continuous
100
AcDbLine
 10
159.1851649999999
 20
397.150299
 30
0.0
 11
165.104614
 21
397.150299
 31
0.0
  0
LINE
  5
9905
330
987F
100
AcDbEntity
  8
1
  6
Continuous
100
AcDbLine
 10
159.1851649999999
 20
404.6558529999998
 30
0.0
 11
165.104614
 21
404.6558529999998
 31
0.0
  0
LINE
  5
9906
330
987F
100
AcDbEntity
  8
1
  6
Continuous
100
AcDbLine
 10
165.104614
 20
532.4030759999999
 30
0.0
 11
158.604614
 21
532.4030759999999
 31
0.0
  0
LINE
  5
9907
330
987F
100
AcDbEntity
  8
1
  6
Continuous
100
AcDbLine
 10
165.104614
 20
519.4030759999999
 30
0.0
 11
158.604614
 21
519.4030759999999
 31
0.0
  0
LINE
  5
9908
330
987F
100
AcDbEntity
  8
1
  6
Continuous
100
AcDbLine
 10
158.6046299999999
 20
407.403076
 30
0.0
 11
159.185181
 21
408.4086
 31
0.0
  0
LINE
  5
9909
330
987F
100
AcDbEntity
  8
1
  6
Continuous
100
AcDbLine
 10
158.604614
 20
394.403076
 30
0.0
 11
159.185181
 21
393.397491
 31
0.0
  0
LINE
  5
990A
330
987F
100
AcDbEntity
  8
1
  6
Continuous
100
AcDbLine
 10
165.1046299999999
 20
400.2851559999998
 30
0.0
 11
167.104599
 21
400.8210449999998
 31
0.0
  0
LINE
  5
990B
330
987F
100
AcDbEntity
  8
1
  6
Continuous
100
AcDbLine
 10
165.1046749999999
 20
400.9851379999998
 30
0.0
 11
167.104614
 21
401.5209959999998
 31
0.0
  0
LINE
  5
990C
330
987F
100
AcDbEntity
  8
1
  6
Continuous
100
AcDbLine
 10
114.1046219999999
 20
407.403076
 30
0.0
 11
114.1046219999999
 21
394.403076
 31
0.0
  0
LINE
  5
990D
330
987F
100
AcDbEntity
  8
1
  6
Continuous
100
AcDbLine
 10
118.5240629999998
 20
408.40863
 30
0.0
 11
114.6851729999999
 21
408.40863
 31
0.0
  0
LINE
  5
990E
330
987F
100
AcDbEntity
  8
1
  6
Continuous
100
AcDbLine
 10
118.5240629999998
 20
393.3975219999999
 30
0.0
 11
114.6851729999999
 21
393.3975219999999
 31
0.0
  0
LINE
  5
990F
330
987F
100
AcDbEntity
  8
1
  6
Continuous
100
AcDbLine
 10
118.5240629999998
 20
404.6558529999998
 30
0.0
 11
114.6851729999999
 21
404.6558529999998
 31
0.0
  0
LINE
  5
9910
330
987F
100
AcDbEntity
  8
1
  6
Continuous
100
AcDbLine
 10
118.5240629999998
 20
397.150299
 30
0.0
 11
114.6851729999999
 21
397.150299
 31
0.0
  0
LINE
  5
9911
330
987F
100
AcDbEntity
  8
1
  6
Continuous
100
AcDbLine
 10
119.104622
 20
394.403076
 30
0.0
 11
118.5240709999999
 21
393.3975219999999
 31
0.0
  0
LINE
  5
9912
330
987F
100
AcDbEntity
  8
1
  6
Continuous
100
AcDbLine
 10
119.104607
 20
407.403076
 30
0.0
 11
118.524055
 21
408.4086
 31
0.0
  0
LINE
  5
9913
330
987F
100
AcDbEntity
  8
1
  6
Continuous
100
AcDbLine
 10
114.1046219999999
 20
407.403076
 30
0.0
 11
114.6851729999999
 21
408.4086
 31
0.0
  0
LINE
  5
9914
330
987F
100
AcDbEntity
  8
1
  6
Continuous
100
AcDbLine
 10
114.1046219999999
 20
394.403076
 30
0.0
 11
114.6851879999999
 21
393.3975219999999
 31
0.0
  0
LINE
  5
9915
330
987F
100
AcDbEntity
  8
1
  6
Continuous
100
AcDbLine
 10
455.305725
 20
402.403076
 30
0.0
 11
437.5574949999998
 21
402.403076
 31
0.0
  0
LINE
  5
9916
330
987F
100
AcDbEntity
  8
1
  6
Continuous
100
AcDbLine
 10
455.305725
 20
399.403076
 30
0.0
 11
437.5574949999998
 21
399.403076
 31
0.0
  0
LINE
  5
9917
330
987F
100
AcDbEntity
  8
1
  6
Continuous
100
AcDbLine
 10
455.305725
 20
177.403061
 30
0.0
 11
437.5574949999998
 21
177.403061
 31
0.0
  0
LINE
  5
9918
330
987F
100
AcDbEntity
  8
1
  6
Continuous
100
AcDbLine
 10
455.305725
 20
174.403061
 30
0.0
 11
437.5574949999998
 21
174.403061
 31
0.0
  0
LINE
  5
9919
330
987F
100
AcDbEntity
  8
1
  6
Continuous
100
AcDbLine
 10
281.3046259999999
 20
540.9030759999999
 30
0.0
 11
281.3046259999999
 21
510.903076
 31
0.0
  0
LINE
  5
991A
330
987F
100
AcDbEntity
  8
1
  6
Continuous
100
AcDbLine
 10
278.104614
 20
540.9030759999999
 30
0.0
 11
278.104614
 21
510.903076
 31
0.0
  0
LINE
  5
991B
330
987F
100
AcDbEntity
  8
1
  6
Continuous
100
AcDbLine
 10
295.3046259999999
 20
540.9030759999999
 30
0.0
 11
278.104614
 21
540.9030759999999
 31
0.0
  0
LINE
  5
991C
330
987F
100
AcDbEntity
  8
1
  6
Continuous
100
AcDbLine
 10
281.3046259999999
 20
510.903076
 30
0.0
 11
278.104614
 21
510.903076
 31
0.0
  0
LINE
  5
991D
330
987F
100
AcDbEntity
  8
1
  6
Continuous
100
AcDbLine
 10
295.3046259999999
 20
544.1030879999998
 30
0.0
 11
281.3046259999999
 21
544.1030879999998
 31
0.0
  0
LINE
  5
991E
330
987F
100
AcDbEntity
  8
1
  6
Continuous
100
AcDbLine
 10
295.3046259999999
 20
544.1030879999998
 30
0.0
 11
295.3046259999999
 21
540.9030759999999
 31
0.0
  0
LINE
  5
991F
330
987F
100
AcDbEntity
  8
1
  6
Continuous
100
AcDbLine
 10
295.3046259999999
 20
44.200001
 30
0.0
 11
278.104614
 21
44.200001
 31
0.0
  0
LINE
  5
9920
330
987F
100
AcDbEntity
  8
1
  6
Continuous
100
AcDbLine
 10
278.104614
 20
44.200001
 30
0.0
 11
278.104614
 21
74.19999699999998
 31
0.0
  0
LINE
  5
9921
330
987F
100
AcDbEntity
  8
1
  6
Continuous
100
AcDbLine
 10
281.3046259999999
 20
44.200001
 30
0.0
 11
281.3046259999999
 21
74.19999699999998
 31
0.0
  0
LINE
  5
9922
330
987F
100
AcDbEntity
  8
1
  6
Continuous
100
AcDbLine
 10
295.3046259999999
 20
41.0
 30
0.0
 11
295.3046259999999
 21
44.200001
 31
0.0
  0
LINE
  5
9923
330
987F
100
AcDbEntity
  8
1
  6
Continuous
100
AcDbLine
 10
295.3046259999999
 20
41.0
 30
0.0
 11
281.3046259999999
 21
41.0
 31
0.0
  0
LINE
  5
9924
330
987F
100
AcDbEntity
  8
1
  6
Continuous
100
AcDbLine
 10
281.3046259999999
 20
74.19999699999998
 30
0.0
 11
278.104614
 21
74.19999699999998
 31
0.0
  0
LINE
  5
9925
330
987F
100
AcDbEntity
  8
1
  6
Continuous
100
AcDbLine
 10
169.104614
 20
411.403076
 30
0.0
 11
167.104614
 21
411.403076
 31
0.0
  0
LINE
  5
9926
330
987F
100
AcDbEntity
  8
1
  6
Continuous
100
AcDbLine
 10
169.104614
 20
390.4030759999998
 30
0.0
 11
167.104614
 21
390.4030759999998
 31
0.0
  0
LINE
  5
9927
330
987F
100
AcDbEntity
  8
1
  6
Continuous
100
AcDbLine
 10
288.104614
 20
534.9030759999999
 30
0.0
 11
288.104614
 21
516.9030759999999
 31
0.0
  0
LINE
  5
9928
330
987F
100
AcDbEntity
  8
1
  6
Continuous
100
AcDbLine
 10
290.104614
 20
516.9030759999999
 30
0.0
 11
288.104614
 21
516.9030759999999
 31
0.0
  0
LINE
  5
9929
330
987F
100
AcDbEntity
  8
1
  6
Continuous
100
AcDbLine
 10
290.104614
 20
534.9030759999999
 30
0.0
 11
288.104614
 21
534.9030759999999
 31
0.0
  0
LINE
  5
992A
330
987F
100
AcDbEntity
  8
1
  6
Continuous
100
AcDbLine
 10
287.2046199999999
 20
530.9030759999999
 30
0.0
 11
286.266022
 21
530.9030759999999
 31
0.0
  0
LINE
  5
992B
330
987F
100
AcDbEntity
  8
1
  6
Continuous
100
AcDbLine
 10
287.2046199999999
 20
520.9030759999999
 30
0.0
 11
287.1408999999998
 21
520.9030759999999
 31
0.0
  0
LINE
  5
992C
330
987F
100
AcDbEntity
  8
1
  6
Continuous
100
AcDbLine
 10
290.104614
 20
534.9030759999999
 30
0.0
 11
290.104614
 21
516.9030759999999
 31
0.0
  0
LINE
  5
992D
330
987F
100
AcDbEntity
  8
1
  6
Continuous
100
AcDbLine
 10
167.104614
 20
518.2030639999998
 30
0.0
 11
165.104614
 21
518.2030639999998
 31
0.0
  0
LINE
  5
992E
330
987F
100
AcDbEntity
  8
1
  6
Continuous
100
AcDbLine
 10
167.104614
 20
533.603058
 30
0.0
 11
165.104614
 21
533.603058
 31
0.0
  0
LINE
  5
992F
330
987F
100
AcDbEntity
  8
1
  6
Continuous
100
AcDbLine
 10
165.104645
 20
525.9851069999998
 30
0.0
 11
167.1046299999999
 21
526.5209959999999
 31
0.0
  0
LINE
  5
9930
330
987F
100
AcDbEntity
  8
1
  6
Continuous
100
AcDbLine
 10
165.104599
 20
525.2851259999999
 30
0.0
 11
167.104614
 21
525.8210449999998
 31
0.0
  0
LINE
  5
9931
330
987F
100
AcDbEntity
  8
1
  6
Continuous
100
AcDbLine
 10
114.1046139999998
 20
532.4030759999999
 30
0.0
 11
114.1046139999998
 21
519.4030759999999
 31
0.0
  0
LINE
  5
9932
330
987F
100
AcDbEntity
  8
1
  6
Continuous
100
AcDbLine
 10
286.196594
 20
531.696655
 30
0.0
 11
287.202698
 21
520.1966549999998
 31
0.0
  0
LINE
  5
9933
330
987F
100
AcDbEntity
  8
1
  6
Continuous
100
AcDbLine
 10
285.200378
 20
531.6094969999998
 30
0.0
 11
286.206512
 21
520.1094969999997
 31
0.0
  0
LINE
  5
9934
330
987F
100
AcDbEntity
  8
1
  6
Continuous
100
AcDbLine
 10
282.2046199999999
 20
531.6530759999999
 30
0.0
 11
282.2046199999999
 21
520.1530759999999
 31
0.0
  0
LINE
  5
9935
330
987F
100
AcDbEntity
  8
1
  6
Continuous
100
AcDbLine
 10
287.2046199999999
 20
531.6530759999999
 30
0.0
 11
287.2046199999999
 21
520.1530759999999
 31
0.0
  0
LINE
  5
9936
330
987F
100
AcDbEntity
  8
1
  6
Continuous
100
AcDbLine
 10
283.696594
 20
531.696655
 30
0.0
 11
284.7027279999998
 21
520.1966549999998
 31
0.0
  0
LINE
  5
9937
330
987F
100
AcDbEntity
  8
1
  6
Continuous
100
AcDbLine
 10
282.7004089999999
 20
531.6094969999998
 30
0.0
 11
283.7065119999999
 21
520.1094969999997
 31
0.0
  0
LINE
  5
9938
330
987F
100
AcDbEntity
  8
1
  6
Continuous
100
AcDbLine
 10
287.2046199999999
 20
531.6530759999999
 30
0.0
 11
287.139771
 21
530.9030759999999
 31
0.0
  0
LINE
  5
9939
330
987F
100
AcDbEntity
  8
1
  6
Continuous
100
AcDbLine
 10
284.8062439999998
 20
520.9030759999999
 30
0.0
 11
284.7074579999999
 21
520.142517
 31
0.0
  0
LINE
  5
993A
330
987F
100
AcDbEntity
  8
1
  6
Continuous
100
AcDbLine
 10
285.097687
 20
530.9030759999999
 30
0.0
 11
285.2025759999999
 21
531.71698
 31
0.0
  0
LINE
  5
993B
330
987F
100
AcDbEntity
  8
1
  6
Continuous
100
AcDbLine
 10
282.306244
 20
520.903015
 30
0.0
 11
282.2004699999999
 21
520.0886839999998
 31
0.0
  0
LINE
  5
993C
330
987F
100
AcDbEntity
  8
1
  6
Continuous
100
AcDbLine
 10
282.702667
 20
531.7174679999999
 30
0.0
 11
282.596893
 21
530.9030759999999
 31
0.0
  0
LINE
  5
993D
330
987F
100
AcDbEntity
  8
1
  6
Continuous
100
AcDbLine
 10
253.104614
 20
179.903061
 30
0.0
 11
253.104614
 21
171.903061
 31
0.0
  0
LINE
  5
993E
330
987F
100
AcDbEntity
  8
1
  6
Continuous
100
AcDbLine
 10
299.029419
 20
177.403061
 30
0.0
 11
296.104614
 21
177.403061
 31
0.0
  0
LINE
  5
993F
330
987F
100
AcDbEntity
  8
1
  6
Continuous
100
AcDbLine
 10
299.029419
 20
174.403061
 30
0.0
 11
296.104614
 21
174.403061
 31
0.0
  0
LINE
  5
9940
330
987F
100
AcDbEntity
  8
1
  6
Continuous
100
AcDbLine
 10
296.104614
 20
184.9030609999998
 30
0.0
 11
294.104614
 21
184.9030609999998
 31
0.0
  0
LINE
  5
9941
330
987F
100
AcDbEntity
  8
1
  6
Continuous
100
AcDbLine
 10
296.104614
 20
166.903061
 30
0.0
 11
294.104614
 21
166.903061
 31
0.0
  0
LINE
  5
9942
330
987F
100
AcDbEntity
  8
1
  6
Continuous
100
AcDbLine
 10
283.604614
 20
168.903061
 30
0.0
 11
281.3046259999999
 21
168.903061
 31
0.0
  0
LINE
  5
9943
330
987F
100
AcDbEntity
  8
1
  6
Continuous
100
AcDbLine
 10
294.104614
 20
171.153061
 30
0.0
 11
284.104614
 21
171.153061
 31
0.0
  0
LINE
  5
9944
330
987F
100
AcDbEntity
  8
1
  6
Continuous
100
AcDbLine
 10
294.104614
 20
180.653061
 30
0.0
 11
284.104614
 21
180.653061
 31
0.0
  0
LINE
  5
9945
330
987F
100
AcDbEntity
  8
1
  6
Continuous
100
AcDbLine
 10
284.104614
 20
182.403061
 30
0.0
 11
284.104614
 21
169.403061
 31
0.0
  0
LINE
  5
9946
330
987F
100
AcDbEntity
  8
1
  6
Continuous
100
AcDbLine
 10
283.604614
 20
182.903061
 30
0.0
 11
281.3046259999999
 21
182.903061
 31
0.0
  0
LINE
  5
9947
330
987F
100
AcDbEntity
  8
1
  6
Continuous
100
AcDbLine
 10
284.104614
 20
169.4030759999999
 30
0.0
 11
283.604614
 21
168.903061
 31
0.0
  0
LINE
  5
9948
330
987F
100
AcDbEntity
  8
1
  6
Continuous
100
AcDbLine
 10
284.104614
 20
182.403076
 30
0.0
 11
283.604614
 21
182.903076
 31
0.0
  0
LINE
  5
9949
330
987F
100
AcDbEntity
  8
1
  6
Continuous
100
AcDbLine
 10
283.604614
 20
182.903061
 30
0.0
 11
283.604614
 21
168.903061
 31
0.0
  0
LINE
  5
994A
330
987F
100
AcDbEntity
  8
1
  6
Continuous
100
AcDbLine
 10
244.104614
 20
178.403061
 30
0.0
 11
244.104614
 21
173.403061
 31
0.0
  0
LINE
  5
994B
330
987F
100
AcDbEntity
  8
1
  6
Continuous
100
AcDbLine
 10
252.404617
 20
178.903061
 30
0.0
 11
252.404617
 21
172.903061
 31
0.0
  0
LINE
  5
994C
330
987F
100
AcDbEntity
  8
1
  6
Continuous
100
AcDbLine
 10
253.104614
 20
178.403061
 30
0.0
 11
253.0546109999999
 21
178.403061
 31
0.0
  0
LINE
  5
994D
330
987F
100
AcDbEntity
  8
1
  6
Continuous
100
AcDbLine
 10
296.104614
 20
184.9030609999998
 30
0.0
 11
296.104614
 21
166.903061
 31
0.0
  0
LINE
  5
994E
330
987F
100
AcDbEntity
  8
1
  6
Continuous
100
AcDbLine
 10
244.604614
 20
178.903061
 30
0.0
 11
244.604614
 21
172.903061
 31
0.0
  0
LINE
  5
994F
330
987F
100
AcDbEntity
  8
1
  6
Continuous
100
AcDbLine
 10
252.404617
 20
178.903061
 30
0.0
 11
244.604614
 21
178.903061
 31
0.0
  0
LINE
  5
9950
330
987F
100
AcDbEntity
  8
1
  6
Continuous
100
AcDbLine
 10
253.104614
 20
173.403061
 30
0.0
 11
253.0546109999999
 21
173.403061
 31
0.0
  0
LINE
  5
9951
330
987F
100
AcDbEntity
  8
1
  6
Continuous
100
AcDbLine
 10
252.404617
 20
172.903061
 30
0.0
 11
244.604614
 21
172.903061
 31
0.0
  0
LINE
  5
9952
330
987F
100
AcDbEntity
  8
1
  6
Continuous
100
AcDbLine
 10
244.604614
 20
178.903061
 30
0.0
 11
244.10463
 21
178.403076
 31
0.0
  0
LINE
  5
9953
330
987F
100
AcDbEntity
  8
1
  6
Continuous
100
AcDbLine
 10
244.104614
 20
173.403061
 30
0.0
 11
244.604614
 21
172.903061
 31
0.0
  0
LINE
  5
9954
330
987F
100
AcDbEntity
  8
4
  6
CENTER
100
AcDbLine
 10
304.1046140000001
 20
175.903061
 30
0.0
 11
150.018158
 21
175.903061
 31
0.0
  0
LINE
  5
9955
330
987F
100
AcDbEntity
  8
1
  6
Continuous
100
AcDbLine
 10
278.104614
 20
184.9030609999998
 30
0.0
 11
269.104614
 21
184.9030609999998
 31
0.0
  0
LINE
  5
9956
330
987F
100
AcDbEntity
  8
1
  6
Continuous
100
AcDbLine
 10
278.104614
 20
166.903061
 30
0.0
 11
269.104614
 21
166.903061
 31
0.0
  0
LINE
  5
9957
330
987F
100
AcDbEntity
  8
1
  6
Continuous
100
AcDbLine
 10
269.104614
 20
180.903061
 30
0.0
 11
254.104614
 21
180.903061
 31
0.0
  0
LINE
  5
9958
330
987F
100
AcDbEntity
  8
1
  6
Continuous
100
AcDbLine
 10
269.104614
 20
170.903061
 30
0.0
 11
254.104614
 21
170.903061
 31
0.0
  0
LINE
  5
9959
330
987F
100
AcDbEntity
  8
2
  6
Continuous
100
AcDbLine
 10
269.104614
 20
180.0910639999999
 30
0.0
 11
253.292618
 21
180.0910639999999
 31
0.0
  0
LINE
  5
995A
330
987F
100
AcDbEntity
  8
2
  6
Continuous
100
AcDbLine
 10
269.104614
 20
171.715073
 30
0.0
 11
253.292618
 21
171.715073
 31
0.0
  0
LINE
  5
995B
330
987F
100
AcDbEntity
  8
1
  6
Continuous
100
AcDbLine
 10
254.10463
 20
180.9030759999999
 30
0.0
 11
253.1046299999999
 21
179.9030759999999
 31
0.0
  0
LINE
  5
995C
330
987F
100
AcDbEntity
  8
1
  6
Continuous
100
AcDbLine
 10
254.104614
 20
170.903061
 30
0.0
 11
253.104614
 21
171.903061
 31
0.0
  0
LINE
  5
995D
330
987F
100
AcDbEntity
  8
1
  6
Continuous
100
AcDbLine
 10
254.104614
 20
180.903061
 30
0.0
 11
254.104614
 21
170.903061
 31
0.0
  0
LINE
  5
995E
330
987F
100
AcDbEntity
  8
1
  6
Continuous
100
AcDbLine
 10
252.45462
 20
181.403061
 30
0.0
 11
252.45462
 21
170.403061
 31
0.0
  0
LINE
  5
995F
330
987F
100
AcDbEntity
  8
1
  6
Continuous
100
AcDbLine
 10
253.0546109999999
 20
170.403061
 30
0.0
 11
252.45462
 21
170.403061
 31
0.0
  0
LINE
  5
9960
330
987F
100
AcDbEntity
  8
1
  6
Continuous
100
AcDbLine
 10
253.0546109999999
 20
181.403061
 30
0.0
 11
252.45462
 21
181.403061
 31
0.0
  0
LINE
  5
9961
330
987F
100
AcDbEntity
  8
1
  6
Continuous
100
AcDbLine
 10
163.104614
 20
184.403061
 30
0.0
 11
163.104614
 21
167.403061
 31
0.0
  0
LINE
  5
9962
330
987F
100
AcDbEntity
  8
1
  6
Continuous
100
AcDbLine
 10
168.345428
 20
185.718018
 30
0.0
 11
163.863815
 21
185.718018
 31
0.0
  0
LINE
  5
9963
330
987F
100
AcDbEntity
  8
1
  6
Continuous
100
AcDbLine
 10
168.345428
 20
166.0881039999999
 30
0.0
 11
163.863815
 21
166.0881039999999
 31
0.0
  0
LINE
  5
9964
330
987F
100
AcDbEntity
  8
1
  6
Continuous
100
AcDbLine
 10
168.345428
 20
180.8105469999999
 30
0.0
 11
163.863815
 21
180.8105469999999
 31
0.0
  0
LINE
  5
9965
330
987F
100
AcDbEntity
  8
1
  6
Continuous
100
AcDbLine
 10
168.345428
 20
170.9955899999999
 30
0.0
 11
163.863815
 21
170.9955899999999
 31
0.0
  0
LINE
  5
9966
330
987F
100
AcDbEntity
  8
1
  6
Continuous
100
AcDbLine
 10
169.104614
 20
167.403061
 30
0.0
 11
168.345428
 21
166.0881039999999
 31
0.0
  0
LINE
  5
9967
330
987F
100
AcDbEntity
  8
1
  6
Continuous
100
AcDbLine
 10
169.104614
 20
184.403061
 30
0.0
 11
168.3454129999998
 21
185.718018
 31
0.0
  0
LINE
  5
9968
330
987F
100
AcDbEntity
  8
1
  6
Continuous
100
AcDbLine
 10
163.104614
 20
167.403061
 30
0.0
 11
163.8638
 21
166.0881039999999
 31
0.0
  0
LINE
  5
9969
330
987F
100
AcDbEntity
  8
1
  6
Continuous
100
AcDbLine
 10
163.104614
 20
184.403061
 30
0.0
 11
163.863815
 21
185.718018
 31
0.0
  0
LINE
  5
996A
330
987F
100
AcDbEntity
  8
1
  6
Continuous
100
AcDbLine
 10
169.104614
 20
67.69999699999999
 30
0.0
 11
163.104614
 21
67.69999699999999
 31
0.0
  0
LINE
  5
996B
330
987F
100
AcDbEntity
  8
1
  6
Continuous
100
AcDbLine
 10
169.104614
 20
50.700001
 30
0.0
 11
163.104614
 21
50.700001
 31
0.0
  0
LINE
  5
996C
330
987F
100
AcDbEntity
  8
1
  6
Continuous
100
AcDbLine
 10
163.104614
 20
67.69999699999999
 30
0.0
 11
163.104614
 21
50.700001
 31
0.0
  0
LINE
  5
996D
330
987F
100
AcDbEntity
  8
1
  6
Continuous
100
AcDbLine
 10
168.345428
 20
59.200001
 30
0.0
 11
163.863815
 21
59.200001
 31
0.0
  0
LINE
  5
996E
330
987F
100
AcDbEntity
  8
1
  6
Continuous
100
AcDbLine
 10
252.45462
 20
64.69999699999999
 30
0.0
 11
253.0546109999999
 21
64.69999699999999
 31
0.0
  0
LINE
  5
996F
330
987F
100
AcDbEntity
  8
1
  6
Continuous
100
AcDbLine
 10
252.45462
 20
55.425251
 30
0.0
 11
253.0546109999999
 21
55.425251
 31
0.0
  0
LINE
  5
9970
330
987F
100
AcDbEntity
  8
1
  6
Continuous
100
AcDbLine
 10
252.45462
 20
64.69999699999999
 30
0.0
 11
252.45462
 21
55.425251
 31
0.0
  0
LINE
  5
9971
330
987F
100
AcDbEntity
  8
1
  6
Continuous
100
AcDbLine
 10
253.0546109999999
 20
64.69999699999999
 30
0.0
 11
253.0546109999999
 21
55.425251
 31
0.0
  0
LINE
  5
9972
330
987F
100
AcDbEntity
  8
1
  6
Continuous
100
AcDbLine
 10
43.200001
 20
179.7825009999999
 30
0.0
 11
43.200001
 21
178.903061
 31
0.0
  0
LINE
  5
9973
330
987F
100
AcDbEntity
  8
1
  6
Continuous
100
AcDbLine
 10
41.440086
 20
173.473511
 30
0.0
 11
39.625252
 21
172.4257199999999
 31
0.0
  0
LINE
  5
9974
330
987F
100
AcDbEntity
  8
1
  6
Continuous
100
AcDbLine
 10
39.625252
 20
179.380417
 30
0.0
 11
41.440083
 21
178.332611
 31
0.0
  0
LINE
  5
9975
330
987F
100
AcDbEntity
  8
1
  6
Continuous
100
AcDbLine
 10
46.84547399999998
 20
177.229919
 30
0.0
 11
46.019081
 21
176.929138
 31
0.0
  0
LINE
  5
9976
330
987F
100
AcDbEntity
  8
1
  6
Continuous
100
AcDbLine
 10
46.019077
 20
174.876999
 30
0.0
 11
46.84547399999998
 21
174.5762179999999
 31
0.0
  0
LINE
  5
9977
330
987F
100
AcDbEntity
  8
1
  6
Continuous
100
AcDbLine
 10
43.200001
 20
172.903061
 30
0.0
 11
43.200001
 21
172.023636
 31
0.0
  0
LINE
  5
9978
330
987F
100
AcDbEntity
  8
5
  6
PHANTOM
100
AcDbLine
 10
263.104614
 20
318.072266
 30
0.0
 11
263.104614
 21
283.524994
 31
0.0
  0
LINE
  5
9979
330
987F
100
AcDbEntity
  8
1
  6
Continuous
100
AcDbLine
 10
252.45462
 20
178.403061
 30
0.0
 11
252.404617
 21
178.403061
 31
0.0
  0
LINE
  5
997A
330
987F
100
AcDbEntity
  8
1
  6
Continuous
100
AcDbLine
 10
252.45462
 20
173.403061
 30
0.0
 11
252.404617
 21
173.403061
 31
0.0
  0
LINE
  5
997B
330
987F
100
AcDbEntity
  8
5
  6
PHANTOM
100
AcDbLine
 10
277.604614
 20
307.903076
 30
0.0
 11
277.604614
 21
293.9030759999998
 31
0.0
  0
LINE
  5
997C
330
987F
100
AcDbEntity
  8
5
  6
PHANTOM
100
AcDbLine
 10
278.104614
 20
307.4030759999998
 30
0.0
 11
277.604614
 21
307.903076
 31
0.0
  0
LINE
  5
997D
330
987F
100
AcDbEntity
  8
5
  6
PHANTOM
100
AcDbLine
 10
278.104614
 20
294.403076
 30
0.0
 11
277.6046449999999
 21
293.9030759999998
 31
0.0
  0
LINE
  5
997E
330
987F
100
AcDbEntity
  8
5
  6
PHANTOM
100
AcDbLine
 10
277.604614
 20
307.903076
 30
0.0
 11
272.104614
 21
307.903076
 31
0.0
  0
LINE
  5
997F
330
987F
100
AcDbEntity
  8
5
  6
PHANTOM
100
AcDbLine
 10
288.104614
 20
305.653076
 30
0.0
 11
281.3046259999999
 21
305.653076
 31
0.0
  0
LINE
  5
9980
330
987F
100
AcDbEntity
  8
5
  6
PHANTOM
100
AcDbLine
 10
290.104614
 20
309.903076
 30
0.0
 11
288.104614
 21
309.903076
 31
0.0
  0
LINE
  5
9981
330
987F
100
AcDbEntity
  8
5
  6
PHANTOM
100
AcDbLine
 10
290.104614
 20
291.903076
 30
0.0
 11
288.104614
 21
291.903076
 31
0.0
  0
LINE
  5
9982
330
987F
100
AcDbEntity
  8
5
  6
PHANTOM
100
AcDbLine
 10
277.604614
 20
293.9030759999998
 30
0.0
 11
272.104614
 21
293.9030759999998
 31
0.0
  0
LINE
  5
9983
330
987F
100
AcDbEntity
  8
5
  6
PHANTOM
100
AcDbLine
 10
293.029419
 20
302.403076
 30
0.0
 11
290.104614
 21
302.403076
 31
0.0
  0
LINE
  5
9984
330
987F
100
AcDbEntity
  8
5
  6
PHANTOM
100
AcDbLine
 10
288.104614
 20
296.153076
 30
0.0
 11
281.3046259999999
 21
296.153076
 31
0.0
  0
LINE
  5
9985
330
987F
100
AcDbEntity
  8
5
  6
PHANTOM
100
AcDbLine
 10
293.029419
 20
299.403076
 30
0.0
 11
290.104614
 21
299.403076
 31
0.0
  0
LINE
  5
9986
330
987F
100
AcDbEntity
  8
5
  6
PHANTOM
100
AcDbLine
 10
290.104614
 20
309.903076
 30
0.0
 11
290.104614
 21
291.903076
 31
0.0
  0
LINE
  5
9987
330
987F
100
AcDbEntity
  8
5
  6
PHANTOM
100
AcDbLine
 10
288.104614
 20
309.903076
 30
0.0
 11
288.104614
 21
291.903076
 31
0.0
  0
LINE
  5
9988
330
987F
100
AcDbEntity
  8
4
  6
CENTER
100
AcDbLine
 10
298.1046140000001
 20
300.9030759999999
 30
0.0
 11
258.104614
 21
300.9030759999999
 31
0.0
  0
LINE
  5
9989
330
987F
100
AcDbEntity
  8
5
  6
PHANTOM
100
AcDbLine
 10
272.104614
 20
309.903076
 30
0.0
 11
263.104614
 21
309.903076
 31
0.0
  0
LINE
  5
998A
330
987F
100
AcDbEntity
  8
5
  6
PHANTOM
100
AcDbLine
 10
272.104614
 20
291.903076
 30
0.0
 11
263.104614
 21
291.903076
 31
0.0
  0
LINE
  5
998B
330
987F
100
AcDbEntity
  8
5
  6
PHANTOM
100
AcDbLine
 10
272.104614
 20
309.903076
 30
0.0
 11
272.104614
 21
291.903076
 31
0.0
  0
LINE
  5
998C
330
987F
100
AcDbEntity
  8
1
  6
Continuous
100
AcDbLine
 10
252.45462
 20
61.700001
 30
0.0
 11
252.404617
 21
61.700001
 31
0.0
  0
LINE
  5
998D
330
987F
100
AcDbEntity
  8
1
  6
Continuous
100
AcDbLine
 10
252.45462
 20
56.700001
 30
0.0
 11
252.404617
 21
56.700001
 31
0.0
  0
LINE
  5
998E
330
987F
100
AcDbEntity
  8
5
  6
PHANTOM
100
AcDbLine
 10
260.104614
 20
318.072266
 30
0.0
 11
260.104614
 21
283.524994
 31
0.0
  0
LINE
  5
998F
330
987F
100
AcDbEntity
  8
1
  6
Continuous
100
AcDbLine
 10
282.241302
 20
395.903076
 30
0.0
 11
282.139008
 21
395.903076
 31
0.0
  0
LINE
  5
9990
330
987F
100
AcDbEntity
  8
1
  6
Continuous
100
AcDbLine
 10
284.6391909999999
 20
395.903076
 30
0.0
 11
283.245117
 21
395.903076
 31
0.0
  0
LINE
  5
9991
330
987F
100
AcDbEntity
  8
1
  6
Continuous
100
AcDbLine
 10
287.0370789999999
 20
395.903076
 30
0.0
 11
285.6430049999999
 21
395.903076
 31
0.0
  0
LINE
  5
9992
330
987F
100
AcDbEntity
  8
1
  6
Continuous
100
AcDbLine
 10
286.1622009999999
 20
405.9030759999997
 30
0.0
 11
284.7681269999998
 21
405.9030759999997
 31
0.0
  0
LINE
  5
9993
330
987F
100
AcDbEntity
  8
1
  6
Continuous
100
AcDbLine
 10
283.764313
 20
405.9030759999997
 30
0.0
 11
282.370239
 21
405.9030759999997
 31
0.0
  0
LINE
  5
9994
330
987F
100
AcDbEntity
  8
1
  6
Continuous
100
AcDbLine
 10
282.7622069999998
 20
530.9030759999999
 30
0.0
 11
282.2046199999999
 21
530.9030759999999
 31
0.0
  0
LINE
  5
9995
330
987F
100
AcDbEntity
  8
1
  6
Continuous
100
AcDbLine
 10
285.2622069999998
 20
530.9030759999999
 30
0.0
 11
283.766022
 21
530.9030759999999
 31
0.0
  0
LINE
  5
9996
330
987F
100
AcDbEntity
  8
1
  6
Continuous
100
AcDbLine
 10
286.137085
 20
520.9030759999999
 30
0.0
 11
284.6408999999998
 21
520.9030759999999
 31
0.0
  0
LINE
  5
9997
330
987F
100
AcDbEntity
  8
1
  6
Continuous
100
AcDbLine
 10
283.637085
 20
520.9030759999999
 30
0.0
 11
282.2046199999999
 21
520.9030759999999
 31
0.0
  0
LINE
  5
9998
330
987F
100
AcDbEntity
  8
1
  6
Continuous
100
AcDbLine
 10
253.104614
 20
521.9030759999999
 30
0.0
 11
253.104614
 21
529.9030759999999
 31
0.0
  0
LINE
  5
9999
330
987F
100
AcDbEntity
  8
1
  6
Continuous
100
AcDbLine
 10
296.104614
 20
516.9030759999999
 30
0.0
 11
294.104614
 21
516.9030759999999
 31
0.0
  0
LINE
  5
999A
330
987F
100
AcDbEntity
  8
1
  6
Continuous
100
AcDbLine
 10
296.104614
 20
534.9030759999999
 30
0.0
 11
294.104614
 21
534.9030759999999
 31
0.0
  0
LINE
  5
999B
330
987F
100
AcDbEntity
  8
1
  6
Continuous
100
AcDbLine
 10
283.604614
 20
532.9030760000001
 30
0.0
 11
281.3046259999999
 21
532.9030760000001
 31
0.0
  0
LINE
  5
999C
330
987F
100
AcDbEntity
  8
1
  6
Continuous
100
AcDbLine
 10
294.104614
 20
530.6530759999999
 30
0.0
 11
292.332672
 21
530.6530759999999
 31
0.0
  0
LINE
  5
999D
330
987F
100
AcDbEntity
  8
1
  6
Continuous
100
AcDbLine
 10
294.104614
 20
521.1530759999999
 30
0.0
 11
292.332672
 21
521.1530759999999
 31
0.0
  0
LINE
  5
999E
330
987F
100
AcDbEntity
  8
1
  6
Continuous
100
AcDbLine
 10
284.104614
 20
519.4030759999999
 30
0.0
 11
284.104614
 21
519.6631469999998
 31
0.0
  0
LINE
  5
999F
330
987F
100
AcDbEntity
  8
4
  6
CENTER
100
AcDbLine
 10
304.1046140000001
 20
525.9030759999999
 30
0.0
 11
101.4795679999999
 21
525.9030759999999
 31
0.0
  0
LINE
  5
99A0
330
987F
100
AcDbEntity
  8
1
  6
Continuous
100
AcDbLine
 10
283.604614
 20
518.9030759999999
 30
0.0
 11
281.3046259999999
 21
518.9030759999999
 31
0.0
  0
LINE
  5
99A1
330
987F
100
AcDbEntity
  8
1
  6
Continuous
100
AcDbLine
 10
284.1046449999998
 20
532.4030759999999
 30
0.0
 11
283.604614
 21
532.9030760000001
 31
0.0
  0
LINE
  5
99A2
330
987F
100
AcDbEntity
  8
1
  6
Continuous
100
AcDbLine
 10
284.104614
 20
519.4030759999999
 30
0.0
 11
283.604614
 21
518.9030759999999
 31
0.0
  0
LINE
  5
99A3
330
987F
100
AcDbEntity
  8
1
  6
Continuous
100
AcDbLine
 10
283.604614
 20
518.9030759999999
 30
0.0
 11
283.604614
 21
520.9030759999999
 31
0.0
  0
LINE
  5
99A4
330
987F
100
AcDbEntity
  8
1
  6
Continuous
100
AcDbLine
 10
244.104614
 20
523.4030759999999
 30
0.0
 11
244.104614
 21
528.4030759999999
 31
0.0
  0
LINE
  5
99A5
330
987F
100
AcDbEntity
  8
1
  6
Continuous
100
AcDbLine
 10
252.404617
 20
522.9030759999999
 30
0.0
 11
252.404617
 21
528.9030760000001
 31
0.0
  0
LINE
  5
99A6
330
987F
100
AcDbEntity
  8
1
  6
Continuous
100
AcDbLine
 10
253.104614
 20
523.4030759999999
 30
0.0
 11
253.0546109999999
 21
523.4030759999999
 31
0.0
  0
LINE
  5
99A7
330
987F
100
AcDbEntity
  8
1
  6
Continuous
100
AcDbLine
 10
296.104614
 20
516.9030759999999
 30
0.0
 11
296.104614
 21
534.9030759999999
 31
0.0
  0
LINE
  5
99A8
330
987F
100
AcDbEntity
  8
1
  6
Continuous
100
AcDbLine
 10
294.104614
 20
516.9030759999999
 30
0.0
 11
294.104614
 21
534.9030759999999
 31
0.0
  0
LINE
  5
99A9
330
987F
100
AcDbEntity
  8
1
  6
Continuous
100
AcDbLine
 10
244.604614
 20
522.9030759999999
 30
0.0
 11
244.604614
 21
528.9030760000001
 31
0.0
  0
LINE
  5
99AA
330
987F
100
AcDbEntity
  8
1
  6
Continuous
100
AcDbLine
 10
252.404617
 20
522.9030759999999
 30
0.0
 11
244.604614
 21
522.9030759999999
 31
0.0
  0
LINE
  5
99AB
330
987F
100
AcDbEntity
  8
1
  6
Continuous
100
AcDbLine
 10
253.104614
 20
528.4030759999999
 30
0.0
 11
253.0546109999999
 21
528.4030759999999
 31
0.0
  0
LINE
  5
99AC
330
987F
100
AcDbEntity
  8
1
  6
Continuous
100
AcDbLine
 10
252.404617
 20
528.9030760000001
 30
0.0
 11
244.604614
 21
528.9030760000001
 31
0.0
  0
LINE
  5
99AD
330
987F
100
AcDbEntity
  8
1
  6
Continuous
100
AcDbLine
 10
244.6046299999999
 20
522.9030759999999
 30
0.0
 11
244.10463
 21
523.4030759999999
 31
0.0
  0
LINE
  5
99AE
330
987F
100
AcDbEntity
  8
1
  6
Continuous
100
AcDbLine
 10
244.10463
 20
528.4030759999999
 30
0.0
 11
244.604614
 21
528.9030760000001
 31
0.0
  0
LINE
  5
99AF
330
987F
100
AcDbEntity
  8
1
  6
Continuous
100
AcDbLine
 10
252.45462
 20
528.4030759999999
 30
0.0
 11
252.404617
 21
528.4030759999999
 31
0.0
  0
LINE
  5
99B0
330
987F
100
AcDbEntity
  8
1
  6
Continuous
100
AcDbLine
 10
278.104614
 20
516.9030759999999
 30
0.0
 11
269.104614
 21
516.9030759999999
 31
0.0
  0
LINE
  5
99B1
330
987F
100
AcDbEntity
  8
1
  6
Continuous
100
AcDbLine
 10
278.104614
 20
534.9030759999999
 30
0.0
 11
269.104614
 21
534.9030759999999
 31
0.0
  0
LINE
  5
99B2
330
987F
100
AcDbEntity
  8
1
  6
Continuous
100
AcDbLine
 10
269.104614
 20
520.9030759999999
 30
0.0
 11
254.104614
 21
520.9030759999999
 31
0.0
  0
LINE
  5
99B3
330
987F
100
AcDbEntity
  8
1
  6
Continuous
100
AcDbLine
 10
269.104614
 20
530.9030759999999
 30
0.0
 11
254.104614
 21
530.9030759999999
 31
0.0
  0
LINE
  5
99B4
330
987F
100
AcDbEntity
  8
2
  6
Continuous
100
AcDbLine
 10
269.104614
 20
521.715088
 30
0.0
 11
253.292618
 21
521.715088
 31
0.0
  0
LINE
  5
99B5
330
987F
100
AcDbEntity
  8
2
  6
Continuous
100
AcDbLine
 10
269.104614
 20
530.0910639999998
 30
0.0
 11
253.292618
 21
530.0910639999998
 31
0.0
  0
LINE
  5
99B6
330
987F
100
AcDbEntity
  8
1
  6
Continuous
100
AcDbLine
 10
254.104614
 20
520.9030759999999
 30
0.0
 11
253.104614
 21
521.9030759999999
 31
0.0
  0
LINE
  5
99B7
330
987F
100
AcDbEntity
  8
1
  6
Continuous
100
AcDbLine
 10
254.10463
 20
530.9030759999999
 30
0.0
 11
253.104614
 21
529.9030759999999
 31
0.0
  0
LINE
  5
99B8
330
987F
100
AcDbEntity
  8
1
  6
Continuous
100
AcDbLine
 10
254.104614
 20
520.9030759999999
 30
0.0
 11
254.104614
 21
530.9030759999999
 31
0.0
  0
LINE
  5
99B9
330
987F
100
AcDbEntity
  8
1
  6
Continuous
100
AcDbLine
 10
253.0546109999999
 20
520.4030760000001
 30
0.0
 11
253.0546109999999
 21
529.6777949999998
 31
0.0
  0
LINE
  5
99BA
330
987F
100
AcDbEntity
  8
1
  6
Continuous
100
AcDbLine
 10
252.45462
 20
520.4030760000001
 30
0.0
 11
252.45462
 21
529.6777949999998
 31
0.0
  0
LINE
  5
99BB
330
987F
100
AcDbEntity
  8
1
  6
Continuous
100
AcDbLine
 10
252.45462
 20
529.6777949999998
 30
0.0
 11
253.0546109999999
 21
529.6777949999998
 31
0.0
  0
LINE
  5
99BC
330
987F
100
AcDbEntity
  8
1
  6
Continuous
100
AcDbLine
 10
252.45462
 20
520.4030760000001
 30
0.0
 11
253.0546109999999
 21
520.4030760000001
 31
0.0
  0
LINE
  5
99BD
330
987F
100
AcDbEntity
  8
1
  6
Continuous
100
AcDbLine
 10
252.45462
 20
523.4030759999999
 30
0.0
 11
252.404617
 21
523.4030759999999
 31
0.0
  0
LINE
  5
99BE
330
987F
100
AcDbEntity
  8
1
  6
Continuous
100
AcDbLine
 10
284.104614
 20
530.9030759999999
 30
0.0
 11
284.104614
 21
532.4030759999999
 31
0.0
  0
LINE
  5
99BF
330
987F
100
AcDbEntity
  8
1
  6
Continuous
100
AcDbLine
 10
283.604614
 20
531.944702
 30
0.0
 11
283.604614
 21
532.9030760000001
 31
0.0
  0
LINE
  5
99C0
330
987F
100
AcDbEntity
  8
4
  6
CENTER
100
AcDbLine
 10
309.104614
 20
59.200001
 30
0.0
 11
150.018158
 21
59.200001
 31
0.0
  0
LINE
  5
99C1
330
987F
100
AcDbEntity
  8
1
  6
Continuous
100
AcDbLine
 10
288.104614
 20
68.199997
 30
0.0
 11
288.104614
 21
63.950001
 31
0.0
  0
LINE
  5
99C2
330
987F
100
AcDbEntity
  8
1
  6
Continuous
100
AcDbLine
 10
290.104614
 20
50.200001
 30
0.0
 11
288.104614
 21
50.200001
 31
0.0
  0
LINE
  5
99C3
330
987F
100
AcDbEntity
  8
1
  6
Continuous
100
AcDbLine
 10
290.104614
 20
68.199997
 30
0.0
 11
288.104614
 21
68.199997
 31
0.0
  0
LINE
  5
99C4
330
987F
100
AcDbEntity
  8
1
  6
Continuous
100
AcDbLine
 10
287.2046199999999
 20
64.19999699999999
 30
0.0
 11
286.266022
 21
64.19999699999999
 31
0.0
  0
LINE
  5
99C5
330
987F
100
AcDbEntity
  8
1
  6
Continuous
100
AcDbLine
 10
287.2046199999999
 20
54.200001
 30
0.0
 11
287.1408999999998
 21
54.200001
 31
0.0
  0
LINE
  5
99C6
330
987F
100
AcDbEntity
  8
1
  6
Continuous
100
AcDbLine
 10
290.104614
 20
68.199997
 30
0.0
 11
290.104614
 21
63.950001
 31
0.0
  0
LINE
  5
99C7
330
987F
100
AcDbEntity
  8
1
  6
Continuous
100
AcDbLine
 10
286.196594
 20
64.993576
 30
0.0
 11
286.2879029999998
 21
63.950001
 31
0.0
  0
LINE
  5
99C8
330
987F
100
AcDbEntity
  8
1
  6
Continuous
100
AcDbLine
 10
285.097687
 20
64.200005
 30
0.0
 11
285.2025759999999
 21
65.013924
 31
0.0
  0
LINE
  5
99C9
330
987F
100
AcDbEntity
  8
1
  6
Continuous
100
AcDbLine
 10
287.2046199999999
 20
64.949997
 30
0.0
 11
287.2046199999999
 21
63.950001
 31
0.0
  0
LINE
  5
99CA
330
987F
100
AcDbEntity
  8
1
  6
Continuous
100
AcDbLine
 10
285.2004089999999
 20
64.90642499999998
 30
0.0
 11
285.284088
 21
63.950001
 31
0.0
  0
LINE
  5
99CB
330
987F
100
AcDbEntity
  8
1
  6
Continuous
100
AcDbLine
 10
284.8062439999998
 20
54.19999699999999
 30
0.0
 11
284.7074579999999
 21
53.439461
 31
0.0
  0
LINE
  5
99CC
330
987F
100
AcDbEntity
  8
1
  6
Continuous
100
AcDbLine
 10
287.2046199999999
 20
64.949997
 30
0.0
 11
287.139771
 21
64.19999699999999
 31
0.0
  0
LINE
  5
99CD
330
987F
100
AcDbEntity
  8
1
  6
Continuous
100
AcDbLine
 10
284.619049
 20
54.450001
 30
0.0
 11
284.7027279999998
 21
53.49358
 31
0.0
  0
LINE
  5
99CE
330
987F
100
AcDbEntity
  8
1
  6
Continuous
100
AcDbLine
 10
285.2622069999998
 20
64.19999699999999
 30
0.0
 11
284.104614
 21
64.19999699999999
 31
0.0
  0
LINE
  5
99CF
330
987F
100
AcDbEntity
  8
1
  6
Continuous
100
AcDbLine
 10
286.137085
 20
54.200001
 30
0.0
 11
284.6408999999998
 21
54.200001
 31
0.0
  0
LINE
  5
99D0
330
987F
100
AcDbEntity
  8
1
  6
Continuous
100
AcDbLine
 10
290.104614
 20
54.450001
 30
0.0
 11
290.104614
 21
50.200001
 31
0.0
  0
LINE
  5
99D1
330
987F
100
AcDbEntity
  8
1
  6
Continuous
100
AcDbLine
 10
288.104614
 20
54.450001
 30
0.0
 11
288.104614
 21
50.200001
 31
0.0
  0
LINE
  5
99D2
330
987F
100
AcDbEntity
  8
1
  6
Continuous
100
AcDbLine
 10
287.2046199999999
 20
54.450001
 30
0.0
 11
287.2046199999999
 21
53.450001
 31
0.0
  0
LINE
  5
99D3
330
987F
100
AcDbEntity
  8
1
  6
Continuous
100
AcDbLine
 10
287.119049
 20
54.450001
 30
0.0
 11
287.2027279999999
 21
53.49357600000001
 31
0.0
  0
LINE
  5
99D4
330
987F
100
AcDbEntity
  8
1
  6
Continuous
100
AcDbLine
 10
286.1152339999998
 20
54.450001
 30
0.0
 11
286.206512
 21
53.406422
 31
0.0
  0
LINE
  5
99D5
330
987F
100
AcDbEntity
  8
1
  6
Continuous
100
AcDbLine
 10
616.5585939999998
 20
415.903076
 30
0.0
 11
619.7586059999999
 21
415.903076
 31
0.0
  0
LINE
  5
99D6
330
987F
100
AcDbEntity
  8
1
  6
Continuous
100
AcDbLine
 10
616.5585939999998
 20
160.903061
 30
0.0
 11
619.7586059999999
 21
160.903061
 31
0.0
  0
LINE
  5
99D7
330
987F
100
AcDbEntity
  8
1
  6
Continuous
100
AcDbLine
 10
619.7586059999999
 20
415.903076
 30
0.0
 11
619.7586059999999
 21
160.903061
 31
0.0
  0
LINE
  5
99D8
330
987F
100
AcDbEntity
  8
1
  6
Continuous
100
AcDbLine
 10
616.5585939999998
 20
415.903076
 30
0.0
 11
616.5585939999998
 21
400.9030759999998
 31
0.0
  0
LINE
  5
99D9
330
987F
100
AcDbEntity
  8
1
  6
Continuous
100
AcDbLine
 10
602.558594
 20
398.9030759999998
 30
0.0
 11
602.558594
 21
177.903061
 31
0.0
  0
LINE
  5
99DA
330
987F
100
AcDbEntity
  8
1
  6
Continuous
100
AcDbLine
 10
604.5585940000002
 20
400.9030759999998
 30
0.0
 11
619.7586059999999
 21
400.9030759999998
 31
0.0
  0
LINE
  5
99DB
330
987F
100
AcDbEntity
  8
1
  6
Continuous
100
AcDbLine
 10
604.5585940000002
 20
175.903061
 30
0.0
 11
619.7586059999999
 21
175.903061
 31
0.0
  0
LINE
  5
99DC
330
987F
100
AcDbEntity
  8
1
  6
Continuous
100
AcDbLine
 10
616.5585939999998
 20
175.903061
 30
0.0
 11
616.5585939999998
 21
160.903061
 31
0.0
  0
LINE
  5
99DD
330
987F
100
AcDbEntity
  8
1
  6
Continuous
100
AcDbLine
 10
276.104614
 20
396.9030759999998
 30
0.0
 11
260.104614
 21
396.9030759999998
 31
0.0
  0
LINE
  5
99DE
330
987F
100
AcDbEntity
  8
1
  6
Continuous
100
AcDbLine
 10
276.104614
 20
404.9030759999998
 30
0.0
 11
260.104614
 21
404.9030759999998
 31
0.0
  0
LINE
  5
99DF
330
987F
100
AcDbEntity
  8
2
  6
Continuous
100
AcDbLine
 10
274.104614
 20
404.226563
 30
0.0
 11
259.4281309999999
 21
404.226563
 31
0.0
  0
LINE
  5
99E0
330
987F
100
AcDbEntity
  8
2
  6
Continuous
100
AcDbLine
 10
274.104614
 20
397.5795589999998
 30
0.0
 11
259.4281309999999
 21
397.5795589999998
 31
0.0
  0
LINE
  5
99E1
330
987F
100
AcDbEntity
  8
1
  6
Continuous
100
AcDbLine
 10
260.104614
 20
404.9030759999998
 30
0.0
 11
260.104614
 21
396.9030759999998
 31
0.0
  0
LINE
  5
99E2
330
987F
100
AcDbEntity
  8
1
  6
Continuous
100
AcDbLine
 10
274.104614
 20
404.9030759999998
 30
0.0
 11
274.104614
 21
396.9030759999998
 31
0.0
  0
LINE
  5
99E3
330
987F
100
AcDbEntity
  8
2
  6
Continuous
100
AcDbLine
 10
274.104614
 20
397.5795589999998
 30
0.0
 11
275.276337
 21
396.903046
 31
0.0
  0
LINE
  5
99E4
330
987F
100
AcDbEntity
  8
2
  6
Continuous
100
AcDbLine
 10
274.104614
 20
404.226563
 30
0.0
 11
275.276337
 21
404.9030759999998
 31
0.0
  0
LINE
  5
99E5
330
987F
100
AcDbEntity
  8
1
  6
Continuous
100
AcDbLine
 10
119.104622
 20
407.403076
 30
0.0
 11
119.104622
 21
394.403076
 31
0.0
  0
LINE
  5
99E6
330
987F
100
AcDbEntity
  8
1
  6
Continuous
100
AcDbLine
 10
278.104614
 20
405.9030759999997
 30
0.0
 11
276.104614
 21
405.9030759999997
 31
0.0
  0
LINE
  5
99E7
330
987F
100
AcDbEntity
  8
1
  6
Continuous
100
AcDbLine
 10
278.104614
 20
395.903076
 30
0.0
 11
276.104614
 21
395.903076
 31
0.0
  0
LINE
  5
99E8
330
987F
100
AcDbEntity
  8
1
  6
Continuous
100
AcDbLine
 10
169.104614
 20
411.403076
 30
0.0
 11
169.104614
 21
390.4030759999998
 31
0.0
  0
LINE
  5
99E9
330
987F
100
AcDbEntity
  8
1
  6
Continuous
100
AcDbLine
 10
269.104614
 20
184.9030609999998
 30
0.0
 11
269.104614
 21
166.903061
 31
0.0
  0
LINE
  5
99EA
330
987F
100
AcDbEntity
  8
1
  6
Continuous
100
AcDbLine
 10
169.104614
 20
184.9030609999998
 30
0.0
 11
169.104614
 21
166.903061
 31
0.0
  0
LINE
  5
99EB
330
987F
100
AcDbEntity
  8
1
  6
Continuous
100
AcDbLine
 10
167.104614
 20
536.4030759999999
 30
0.0
 11
167.104614
 21
515.4030759999999
 31
0.0
  0
LINE
  5
99EC
330
987F
100
AcDbEntity
  8
1
  6
Continuous
100
AcDbLine
 10
169.104614
 20
536.4030759999999
 30
0.0
 11
169.104614
 21
515.4030759999999
 31
0.0
  0
LINE
  5
99ED
330
987F
100
AcDbEntity
  8
1
  6
Continuous
100
AcDbLine
 10
119.104622
 20
532.4030759999999
 30
0.0
 11
119.104622
 21
519.4030759999999
 31
0.0
  0
LINE
  5
99EE
330
987F
100
AcDbEntity
  8
1
  6
Continuous
100
AcDbLine
 10
119.104622
 20
519.4030759999999
 30
0.0
 11
114.1046139999998
 21
519.4030759999999
 31
0.0
  0
LINE
  5
99EF
330
987F
100
AcDbEntity
  8
1
  6
Continuous
100
AcDbLine
 10
119.104622
 20
532.4030759999999
 30
0.0
 11
114.1046139999998
 21
532.4030759999999
 31
0.0
  0
LINE
  5
99F0
330
987F
100
AcDbEntity
  8
1
  6
Continuous
100
AcDbLine
 10
165.104614
 20
525.9030759999999
 30
0.0
 11
159.1851649999999
 21
525.9030759999999
 31
0.0
  0
LINE
  5
99F1
330
987F
100
AcDbEntity
  8
1
  6
Continuous
100
AcDbLine
 10
118.5240629999998
 20
525.9030759999999
 30
0.0
 11
114.6851649999999
 21
525.9030759999999
 31
0.0
  0
LINE
  5
99F2
330
987F
100
AcDbEntity
  8
1
  6
Continuous
100
AcDbLine
 10
276.104614
 20
530.9030759999999
 30
0.0
 11
276.104614
 21
520.9030759999999
 31
0.0
  0
LINE
  5
99F3
330
987F
100
AcDbEntity
  8
1
  6
Continuous
100
AcDbLine
 10
259.104614
 20
528.9030760000001
 30
0.0
 11
259.104614
 21
522.9030759999999
 31
0.0
  0
LINE
  5
99F4
330
987F
100
AcDbEntity
  8
1
  6
Continuous
100
AcDbLine
 10
260.104614
 20
529.9030759999999
 30
0.0
 11
259.104614
 21
528.9030760000001
 31
0.0
  0
LINE
  5
99F5
330
987F
100
AcDbEntity
  8
1
  6
Continuous
100
AcDbLine
 10
259.104614
 20
522.9030759999999
 30
0.0
 11
260.104614
 21
521.9030759999999
 31
0.0
  0
LINE
  5
99F6
330
987F
100
AcDbEntity
  8
1
  6
Continuous
100
AcDbLine
 10
276.104614
 20
521.9030759999999
 30
0.0
 11
260.104614
 21
521.9030759999999
 31
0.0
  0
LINE
  5
99F7
330
987F
100
AcDbEntity
  8
1
  6
Continuous
100
AcDbLine
 10
276.104614
 20
529.9030759999999
 30
0.0
 11
260.104614
 21
529.9030759999999
 31
0.0
  0
LINE
  5
99F8
330
987F
100
AcDbEntity
  8
2
  6
Continuous
100
AcDbLine
 10
274.104614
 20
529.2265630000001
 30
0.0
 11
259.4281309999999
 21
529.2265630000001
 31
0.0
  0
LINE
  5
99F9
330
987F
100
AcDbEntity
  8
2
  6
Continuous
100
AcDbLine
 10
274.104614
 20
522.57959
 30
0.0
 11
259.4281309999999
 21
522.57959
 31
0.0
  0
LINE
  5
99FA
330
987F
100
AcDbEntity
  8
1
  6
Continuous
100
AcDbLine
 10
260.104614
 20
529.9030759999999
 30
0.0
 11
260.104614
 21
521.9030759999999
 31
0.0
  0
LINE
  5
99FB
330
987F
100
AcDbEntity
  8
1
  6
Continuous
100
AcDbLine
 10
274.104614
 20
529.9030759999999
 30
0.0
 11
274.104614
 21
521.9030759999999
 31
0.0
  0
LINE
  5
99FC
330
987F
100
AcDbEntity
  8
2
  6
Continuous
100
AcDbLine
 10
274.104645
 20
522.57959
 30
0.0
 11
275.2763669999998
 21
521.9030759999999
 31
0.0
  0
LINE
  5
99FD
330
987F
100
AcDbEntity
  8
2
  6
Continuous
100
AcDbLine
 10
274.104614
 20
529.2265630000001
 30
0.0
 11
275.276337
 21
529.9030759999999
 31
0.0
  0
LINE
  5
99FE
330
987F
100
AcDbEntity
  8
1
  6
Continuous
100
AcDbLine
 10
278.104614
 20
530.9030759999999
 30
0.0
 11
276.104614
 21
530.9030759999999
 31
0.0
  0
LINE
  5
99FF
330
987F
100
AcDbEntity
  8
1
  6
Continuous
100
AcDbLine
 10
278.104614
 20
520.9030759999999
 30
0.0
 11
276.104614
 21
520.9030759999999
 31
0.0
  0
LINE
  5
9A00
330
987F
100
AcDbEntity
  8
1
  6
Continuous
100
AcDbLine
 10
269.104614
 20
534.9030759999999
 30
0.0
 11
269.104614
 21
529.9030759999999
 31
0.0
  0
LINE
  5
9A01
330
987F
100
AcDbEntity
  8
1
  6
Continuous
100
AcDbLine
 10
269.104614
 20
521.9030759999999
 30
0.0
 11
269.104614
 21
516.9030759999999
 31
0.0
  0
LINE
  5
9A02
330
987F
100
AcDbEntity
  8
1
  6
Continuous
100
AcDbLine
 10
603.7586059999997
 20
176.0700379999999
 30
0.0
 11
603.7586059999997
 21
166.903061
 31
0.0
  0
LINE
  5
9A03
330
987F
100
AcDbEntity
  8
1
  6
Continuous
100
AcDbLine
 10
723.7586059999999
 20
411.403076
 30
0.0
 11
723.7586059999999
 21
390.4030759999998
 31
0.0
  0
LINE
  5
9A04
330
987F
100
AcDbEntity
  8
4
  6
CENTER
100
AcDbLine
 10
594.7586059999999
 20
400.9030759999998
 30
0.0
 11
783.3840939999999
 21
400.9030759999998
 31
0.0
  0
LINE
  5
9A05
330
987F
100
AcDbEntity
  8
1
  6
Continuous
100
AcDbLine
 10
609.758606
 20
409.9030759999997
 30
0.0
 11
609.758606
 21
400.9030759999998
 31
0.0
  0
LINE
  5
9A06
330
987F
100
AcDbEntity
  8
1
  6
Continuous
100
AcDbLine
 10
607.7586059999998
 20
409.9030759999997
 30
0.0
 11
609.758606
 21
409.9030759999997
 31
0.0
  0
LINE
  5
9A07
330
987F
100
AcDbEntity
  8
1
  6
Continuous
100
AcDbLine
 10
607.7586059999998
 20
409.9030759999997
 30
0.0
 11
607.7586059999998
 21
402.403076
 31
0.0
  0
LINE
  5
9A08
330
987F
100
AcDbEntity
  8
1
  6
Continuous
100
AcDbLine
 10
604.833801
 20
402.403076
 30
0.0
 11
608.7586059999997
 21
402.403076
 31
0.0
  0
LINE
  5
9A09
330
987F
100
AcDbEntity
  8
1
  6
Continuous
100
AcDbLine
 10
608.7586059999997
 20
402.403076
 30
0.0
 11
608.7586059999997
 21
400.9030759999998
 31
0.0
  0
LINE
  5
9A0A
330
987F
100
AcDbEntity
  8
1
  6
Continuous
100
AcDbLine
 10
610.5949099999998
 20
405.9030759999997
 30
0.0
 11
610.6972049999999
 21
405.9030759999997
 31
0.0
  0
LINE
  5
9A0B
330
987F
100
AcDbEntity
  8
1
  6
Continuous
100
AcDbLine
 10
613.1645509999997
 20
406.696625
 30
0.0
 11
612.657654
 21
400.9030759999998
 31
0.0
  0
LINE
  5
9A0C
330
987F
100
AcDbEntity
  8
1
  6
Continuous
100
AcDbLine
 10
621.758606
 20
405.9030759999997
 30
0.0
 11
621.758606
 21
395.903076
 31
0.0
  0
LINE
  5
9A0D
330
987F
100
AcDbEntity
  8
1
  6
Continuous
100
AcDbLine
 10
638.758606
 20
403.903076
 30
0.0
 11
638.758606
 21
397.903076
 31
0.0
  0
LINE
  5
9A0E
330
987F
100
AcDbEntity
  8
1
  6
Continuous
100
AcDbLine
 10
725.758606
 20
411.403076
 30
0.0
 11
725.758606
 21
390.4030759999998
 31
0.0
  0
LINE
  5
9A0F
330
987F
100
AcDbEntity
  8
1
  6
Continuous
100
AcDbLine
 10
637.7586059999997
 20
404.9030459999998
 30
0.0
 11
638.758606
 21
403.903046
 31
0.0
  0
LINE
  5
9A10
330
987F
100
AcDbEntity
  8
1
  6
Continuous
100
AcDbLine
 10
638.758606
 20
397.903076
 30
0.0
 11
637.7586059999997
 21
396.903046
 31
0.0
  0
LINE
  5
9A11
330
987F
100
AcDbEntity
  8
1
  6
Continuous
100
AcDbLine
 10
770.2586059999996
 20
407.403076
 30
0.0
 11
770.2586059999996
 21
394.403076
 31
0.0
  0
LINE
  5
9A12
330
987F
100
AcDbEntity
  8
1
  6
Continuous
100
AcDbLine
 10
727.7586059999999
 20
408.603058
 30
0.0
 11
727.7586059999999
 21
393.2030639999999
 31
0.0
  0
LINE
  5
9A13
330
987F
100
AcDbEntity
  8
1
  6
Continuous
100
AcDbLine
 10
610.7666019999998
 20
406.696655
 30
0.0
 11
610.259766
 21
400.9030759999998
 31
0.0
  0
LINE
  5
9A14
330
987F
100
AcDbEntity
  8
1
  6
Continuous
100
AcDbLine
 10
611.762817
 20
406.6094969999999
 30
0.0
 11
611.26355
 21
400.9030759999998
 31
0.0
  0
LINE
  5
9A15
330
987F
100
AcDbEntity
  8
1
  6
Continuous
100
AcDbLine
 10
615.5623779999999
 20
406.696625
 30
0.0
 11
615.0555419999998
 21
400.9030459999998
 31
0.0
  0
LINE
  5
9A16
330
987F
100
AcDbEntity
  8
1
  6
Continuous
100
AcDbLine
 10
616.5585939999998
 20
406.609467
 30
0.0
 11
616.0593259999999
 21
400.9030759999998
 31
0.0
  0
LINE
  5
9A17
330
987F
100
AcDbEntity
  8
1
  6
Continuous
100
AcDbLine
 10
614.160706
 20
406.609467
 30
0.0
 11
613.6614990000001
 21
400.9030759999998
 31
0.0
  0
LINE
  5
9A18
330
987F
100
AcDbEntity
  8
1
  6
Continuous
100
AcDbLine
 10
610.6566769999998
 20
406.6094969999999
 30
0.0
 11
610.1574099999997
 21
400.9030759999998
 31
0.0
  0
LINE
  5
9A19
330
987F
100
AcDbEntity
  8
1
  6
Continuous
100
AcDbLine
 10
610.6585690000001
 20
406.65741
 30
0.0
 11
610.665161
 21
405.9030759999997
 31
0.0
  0
LINE
  5
9A1A
330
987F
100
AcDbEntity
  8
1
  6
Continuous
100
AcDbLine
 10
614.257019
 20
405.9030759999997
 30
0.0
 11
614.158997
 21
406.713135
 31
0.0
  0
LINE
  5
9A1B
330
987F
100
AcDbEntity
  8
1
  6
Continuous
100
AcDbLine
 10
611.859192
 20
405.9030759999997
 30
0.0
 11
611.761108
 21
406.713135
 31
0.0
  0
LINE
  5
9A1C
330
987F
100
AcDbEntity
  8
1
  6
Continuous
100
AcDbLine
 10
725.758606
 20
393.2030639999999
 30
0.0
 11
727.7586059999999
 21
393.2030639999999
 31
0.0
  0
LINE
  5
9A1D
330
987F
100
AcDbEntity
  8
1
  6
Continuous
100
AcDbLine
 10
725.758606
 20
408.603058
 30
0.0
 11
727.7586059999999
 21
408.603058
 31
0.0
  0
LINE
  5
9A1E
330
987F
100
AcDbEntity
  8
1
  6
Continuous
100
AcDbLine
 10
734.258606
 20
394.403046
 30
0.0
 11
733.67804
 21
393.397491
 31
0.0
  0
LINE
  5
9A1F
330
987F
100
AcDbEntity
  8
1
  6
Continuous
100
AcDbLine
 10
734.258606
 20
407.403076
 30
0.0
 11
733.67804
 21
408.4086
 31
0.0
  0
LINE
  5
9A20
330
987F
100
AcDbEntity
  8
1
  6
Continuous
100
AcDbLine
 10
733.67804
 20
404.6558529999998
 30
0.0
 11
727.7586059999999
 21
404.6558529999998
 31
0.0
  0
LINE
  5
9A21
330
987F
100
AcDbEntity
  8
1
  6
Continuous
100
AcDbLine
 10
733.67804
 20
397.150299
 30
0.0
 11
727.7586059999999
 21
397.150299
 31
0.0
  0
LINE
  5
9A22
330
987F
100
AcDbEntity
  8
1
  6
Continuous
100
AcDbLine
 10
733.67804
 20
393.3975219999999
 30
0.0
 11
727.7586059999999
 21
393.3975219999999
 31
0.0
  0
LINE
  5
9A23
330
987F
100
AcDbEntity
  8
1
  6
Continuous
100
AcDbLine
 10
733.67804
 20
408.40863
 30
0.0
 11
727.7586059999999
 21
408.40863
 31
0.0
  0
LINE
  5
9A24
330
987F
100
AcDbEntity
  8
1
  6
Continuous
100
AcDbLine
 10
734.258606
 20
407.403076
 30
0.0
 11
734.258606
 21
394.403076
 31
0.0
  0
LINE
  5
9A25
330
987F
100
AcDbEntity
  8
1
  6
Continuous
100
AcDbLine
 10
770.2586059999996
 20
407.403046
 30
0.0
 11
770.8391719999997
 21
408.40863
 31
0.0
  0
LINE
  5
9A26
330
987F
100
AcDbEntity
  8
1
  6
Continuous
100
AcDbLine
 10
775.2586059999996
 20
394.403076
 30
0.0
 11
774.67804
 21
393.397491
 31
0.0
  0
LINE
  5
9A27
330
987F
100
AcDbEntity
  8
1
  6
Continuous
100
AcDbLine
 10
775.2586059999996
 20
407.403076
 30
0.0
 11
774.67804
 21
408.4086
 31
0.0
  0
LINE
  5
9A28
330
987F
100
AcDbEntity
  8
1
  6
Continuous
100
AcDbLine
 10
770.2586059999996
 20
394.403076
 30
0.0
 11
770.8391719999997
 21
393.3975219999999
 31
0.0
  0
LINE
  5
9A29
330
987F
100
AcDbEntity
  8
1
  6
Continuous
100
AcDbLine
 10
727.758545
 20
400.820984
 30
0.0
 11
725.758606
 21
400.2851259999998
 31
0.0
  0
LINE
  5
9A2A
330
987F
100
AcDbEntity
  8
1
  6
Continuous
100
AcDbLine
 10
727.7586059999999
 20
401.5209959999998
 30
0.0
 11
725.758606
 21
400.9851069999998
 31
0.0
  0
LINE
  5
9A2B
330
987F
100
AcDbEntity
  8
1
  6
Continuous
100
AcDbLine
 10
775.2586059999996
 20
407.403076
 30
0.0
 11
775.2586059999996
 21
394.403076
 31
0.0
  0
LINE
  5
9A2C
330
987F
100
AcDbEntity
  8
1
  6
Continuous
100
AcDbLine
 10
770.8391719999997
 20
408.40863
 30
0.0
 11
774.67804
 21
408.40863
 31
0.0
  0
LINE
  5
9A2D
330
987F
100
AcDbEntity
  8
1
  6
Continuous
100
AcDbLine
 10
770.8391719999997
 20
393.3975219999999
 30
0.0
 11
774.67804
 21
393.3975219999999
 31
0.0
  0
LINE
  5
9A2E
330
987F
100
AcDbEntity
  8
1
  6
Continuous
100
AcDbLine
 10
770.8391719999997
 20
404.6558529999998
 30
0.0
 11
774.67804
 21
404.6558529999998
 31
0.0
  0
LINE
  5
9A2F
330
987F
100
AcDbEntity
  8
1
  6
Continuous
100
AcDbLine
 10
770.8391719999997
 20
397.150299
 30
0.0
 11
774.67804
 21
397.150299
 31
0.0
  0
LINE
  5
9A30
330
987F
100
AcDbEntity
  8
1
  6
Continuous
100
AcDbLine
 10
614.258606
 20
175.903061
 30
0.0
 11
614.258606
 21
168.903061
 31
0.0
  0
LINE
  5
9A31
330
987F
100
AcDbEntity
  8
1
  6
Continuous
100
AcDbLine
 10
613.758606
 20
169.4030909999999
 30
0.0
 11
614.258606
 21
168.903076
 31
0.0
  0
LINE
  5
9A32
330
987F
100
AcDbEntity
  8
1
  6
Continuous
100
AcDbLine
 10
723.7586059999999
 20
411.403076
 30
0.0
 11
725.758606
 21
411.403076
 31
0.0
  0
LINE
  5
9A33
330
987F
100
AcDbEntity
  8
1
  6
Continuous
100
AcDbLine
 10
723.7586059999999
 20
390.4030759999998
 30
0.0
 11
725.758606
 21
390.4030759999998
 31
0.0
  0
LINE
  5
9A34
330
987F
100
AcDbEntity
  8
1
  6
Continuous
100
AcDbLine
 10
644.7586059999999
 20
179.903061
 30
0.0
 11
644.7586059999999
 21
171.903061
 31
0.0
  0
LINE
  5
9A35
330
987F
100
AcDbEntity
  8
1
  6
Continuous
100
AcDbLine
 10
613.758606
 20
175.903061
 30
0.0
 11
613.758606
 21
169.403061
 31
0.0
  0
LINE
  5
9A36
330
987F
100
AcDbEntity
  8
1
  6
Continuous
100
AcDbLine
 10
601.758606
 20
184.9030609999998
 30
0.0
 11
602.558594
 21
184.9030609999998
 31
0.0
  0
LINE
  5
9A37
330
987F
100
AcDbEntity
  8
1
  6
Continuous
100
AcDbLine
 10
628.7586059999997
 20
184.9030609999998
 30
0.0
 11
628.7586059999997
 21
166.903061
 31
0.0
  0
LINE
  5
9A38
330
987F
100
AcDbEntity
  8
1
  6
Continuous
100
AcDbLine
 10
601.758606
 20
166.903061
 30
0.0
 11
603.7586059999997
 21
166.903061
 31
0.0
  0
LINE
  5
9A39
330
987F
100
AcDbEntity
  8
1
  6
Continuous
100
AcDbLine
 10
614.258606
 20
168.903061
 30
0.0
 11
616.5585939999998
 21
168.903061
 31
0.0
  0
LINE
  5
9A3A
330
987F
100
AcDbEntity
  8
1
  6
Continuous
100
AcDbLine
 10
598.8338009999997
 20
177.403061
 30
0.0
 11
601.758606
 21
177.403061
 31
0.0
  0
LINE
  5
9A3B
330
987F
100
AcDbEntity
  8
1
  6
Continuous
100
AcDbLine
 10
603.7586059999997
 20
171.153061
 30
0.0
 11
613.758606
 21
171.153061
 31
0.0
  0
LINE
  5
9A3C
330
987F
100
AcDbEntity
  8
1
  6
Continuous
100
AcDbLine
 10
598.8338009999997
 20
174.403061
 30
0.0
 11
601.758606
 21
174.403061
 31
0.0
  0
LINE
  5
9A3D
330
987F
100
AcDbEntity
  8
1
  6
Continuous
100
AcDbLine
 10
645.4586179999997
 20
178.903061
 30
0.0
 11
653.2586059999998
 21
178.903061
 31
0.0
  0
LINE
  5
9A3E
330
987F
100
AcDbEntity
  8
1
  6
Continuous
100
AcDbLine
 10
601.758606
 20
184.9030609999998
 30
0.0
 11
601.758606
 21
166.903061
 31
0.0
  0
LINE
  5
9A3F
330
987F
100
AcDbEntity
  8
1
  6
Continuous
100
AcDbLine
 10
653.7586059999997
 20
178.403061
 30
0.0
 11
653.7586059999997
 21
173.403061
 31
0.0
  0
LINE
  5
9A40
330
987F
100
AcDbEntity
  8
1
  6
Continuous
100
AcDbLine
 10
645.4085690000002
 20
173.403061
 30
0.0
 11
645.4586179999997
 21
173.403061
 31
0.0
  0
LINE
  5
9A41
330
987F
100
AcDbEntity
  8
1
  6
Continuous
100
AcDbLine
 10
653.2586059999998
 20
178.903061
 30
0.0
 11
653.2586059999998
 21
172.903061
 31
0.0
  0
LINE
  5
9A42
330
987F
100
AcDbEntity
  8
1
  6
Continuous
100
AcDbLine
 10
645.4586179999997
 20
178.903061
 30
0.0
 11
645.4586179999997
 21
172.903061
 31
0.0
  0
LINE
  5
9A43
330
987F
100
AcDbEntity
  8
1
  6
Continuous
100
AcDbLine
 10
644.7586059999999
 20
178.403061
 30
0.0
 11
644.8085940000002
 21
178.403061
 31
0.0
  0
LINE
  5
9A44
330
987F
100
AcDbEntity
  8
1
  6
Continuous
100
AcDbLine
 10
644.7586059999999
 20
173.403061
 30
0.0
 11
644.8085940000002
 21
173.403061
 31
0.0
  0
LINE
  5
9A45
330
987F
100
AcDbEntity
  8
1
  6
Continuous
100
AcDbLine
 10
645.4586179999997
 20
172.903061
 30
0.0
 11
653.2586059999998
 21
172.903061
 31
0.0
  0
LINE
  5
9A46
330
987F
100
AcDbEntity
  8
1
  6
Continuous
100
AcDbLine
 10
653.2586059999998
 20
178.9030759999999
 30
0.0
 11
653.7586059999997
 21
178.403076
 31
0.0
  0
LINE
  5
9A47
330
987F
100
AcDbEntity
  8
1
  6
Continuous
100
AcDbLine
 10
653.7586059999997
 20
173.4030909999999
 30
0.0
 11
653.2586059999998
 21
172.9030459999999
 31
0.0
  0
LINE
  5
9A48
330
987F
100
AcDbEntity
  8
4
  6
CENTER
100
AcDbLine
 10
593.758606
 20
175.903061
 30
0.0
 11
743.0419919999997
 21
175.903061
 31
0.0
  0
LINE
  5
9A49
330
987F
100
AcDbEntity
  8
1
  6
Continuous
100
AcDbLine
 10
619.7586059999999
 20
184.9030609999998
 30
0.0
 11
628.7586059999997
 21
184.9030609999998
 31
0.0
  0
LINE
  5
9A4A
330
987F
100
AcDbEntity
  8
1
  6
Continuous
100
AcDbLine
 10
619.7586059999999
 20
166.903061
 30
0.0
 11
628.7586059999997
 21
166.903061
 31
0.0
  0
LINE
  5
9A4B
330
987F
100
AcDbEntity
  8
1
  6
Continuous
100
AcDbLine
 10
645.4085690000002
 20
178.403061
 30
0.0
 11
645.4586179999997
 21
178.403061
 31
0.0
  0
LINE
  5
9A4C
330
987F
100
AcDbEntity
  8
1
  6
Continuous
100
AcDbLine
 10
628.7586059999997
 20
180.903061
 30
0.0
 11
643.758606
 21
180.903061
 31
0.0
  0
LINE
  5
9A4D
330
987F
100
AcDbEntity
  8
1
  6
Continuous
100
AcDbLine
 10
628.7586059999997
 20
170.903061
 30
0.0
 11
643.758606
 21
170.903061
 31
0.0
  0
LINE
  5
9A4E
330
987F
100
AcDbEntity
  8
2
  6
Continuous
100
AcDbLine
 10
628.7586059999997
 20
180.0910639999999
 30
0.0
 11
644.570618
 21
180.0910639999999
 31
0.0
  0
LINE
  5
9A4F
330
987F
100
AcDbEntity
  8
2
  6
Continuous
100
AcDbLine
 10
628.7586059999997
 20
171.715073
 30
0.0
 11
644.570618
 21
171.715073
 31
0.0
  0
LINE
  5
9A50
330
987F
100
AcDbEntity
  8
1
  6
Continuous
100
AcDbLine
 10
643.758606
 20
180.9030459999999
 30
0.0
 11
644.7586059999999
 21
179.9030459999999
 31
0.0
  0
LINE
  5
9A51
330
987F
100
AcDbEntity
  8
1
  6
Continuous
100
AcDbLine
 10
643.758606
 20
170.903076
 30
0.0
 11
644.7586059999999
 21
171.903061
 31
0.0
  0
LINE
  5
9A52
330
987F
100
AcDbEntity
  8
1
  6
Continuous
100
AcDbLine
 10
643.758606
 20
180.903061
 30
0.0
 11
643.758606
 21
170.903061
 31
0.0
  0
LINE
  5
9A53
330
987F
100
AcDbEntity
  8
1
  6
Continuous
100
AcDbLine
 10
645.4085690000002
 20
181.403061
 30
0.0
 11
645.4085690000002
 21
170.403061
 31
0.0
  0
LINE
  5
9A54
330
987F
100
AcDbEntity
  8
1
  6
Continuous
100
AcDbLine
 10
644.8085940000002
 20
170.403061
 30
0.0
 11
645.4085690000002
 21
170.403061
 31
0.0
  0
LINE
  5
9A55
330
987F
100
AcDbEntity
  8
1
  6
Continuous
100
AcDbLine
 10
644.8085940000002
 20
181.403061
 30
0.0
 11
645.4085690000002
 21
181.403061
 31
0.0
  0
LINE
  5
9A56
330
987F
100
AcDbEntity
  8
1
  6
Continuous
100
AcDbLine
 10
644.8085940000002
 20
181.403061
 30
0.0
 11
644.8085940000002
 21
170.403061
 31
0.0
  0
LINE
  5
9A57
330
987F
100
AcDbEntity
  8
1
  6
Continuous
100
AcDbLine
 10
729.758606
 20
184.403061
 30
0.0
 11
729.758606
 21
167.403061
 31
0.0
  0
LINE
  5
9A58
330
987F
100
AcDbEntity
  8
1
  6
Continuous
100
AcDbLine
 10
724.5177609999997
 20
185.718018
 30
0.0
 11
728.9993899999997
 21
185.718018
 31
0.0
  0
LINE
  5
9A59
330
987F
100
AcDbEntity
  8
1
  6
Continuous
100
AcDbLine
 10
724.5177609999997
 20
166.0881039999999
 30
0.0
 11
728.9993899999997
 21
166.0881039999999
 31
0.0
  0
LINE
  5
9A5A
330
987F
100
AcDbEntity
  8
1
  6
Continuous
100
AcDbLine
 10
724.5177609999997
 20
180.8105469999999
 30
0.0
 11
728.9993899999997
 21
180.8105469999999
 31
0.0
  0
LINE
  5
9A5B
330
987F
100
AcDbEntity
  8
1
  6
Continuous
100
AcDbLine
 10
724.5177609999997
 20
170.9955899999999
 30
0.0
 11
728.9993899999997
 21
170.9955899999999
 31
0.0
  0
LINE
  5
9A5C
330
987F
100
AcDbEntity
  8
1
  6
Continuous
100
AcDbLine
 10
723.7586059999999
 20
167.4030759999999
 30
0.0
 11
724.5177609999997
 21
166.08812
 31
0.0
  0
LINE
  5
9A5D
330
987F
100
AcDbEntity
  8
1
  6
Continuous
100
AcDbLine
 10
723.7586059999999
 20
184.4030459999999
 30
0.0
 11
724.5177609999997
 21
185.718002
 31
0.0
  0
LINE
  5
9A5E
330
987F
100
AcDbEntity
  8
1
  6
Continuous
100
AcDbLine
 10
729.758606
 20
167.403061
 30
0.0
 11
728.999451
 21
166.08812
 31
0.0
  0
LINE
  5
9A5F
330
987F
100
AcDbEntity
  8
1
  6
Continuous
100
AcDbLine
 10
729.758606
 20
184.403076
 30
0.0
 11
728.999451
 21
185.718033
 31
0.0
  0
LINE
  5
9A60
330
987F
100
AcDbEntity
  8
1
  6
Continuous
100
AcDbLine
 10
611.7009889999999
 20
405.9030759999997
 30
0.0
 11
613.095093
 21
405.9030759999997
 31
0.0
  0
LINE
  5
9A61
330
987F
100
AcDbEntity
  8
1
  6
Continuous
100
AcDbLine
 10
614.0988769999998
 20
405.9030759999997
 30
0.0
 11
615.4929809999997
 21
405.9030759999997
 31
0.0
  0
LINE
  5
9A62
330
987F
100
AcDbEntity
  8
1
  6
Continuous
100
AcDbLine
 10
621.758606
 20
396.9030759999998
 30
0.0
 11
637.7586059999997
 21
396.9030759999998
 31
0.0
  0
LINE
  5
9A63
330
987F
100
AcDbEntity
  8
1
  6
Continuous
100
AcDbLine
 10
621.758606
 20
404.9030759999998
 30
0.0
 11
637.7586059999997
 21
404.9030759999998
 31
0.0
  0
LINE
  5
9A64
330
987F
100
AcDbEntity
  8
2
  6
Continuous
100
AcDbLine
 10
623.7586059999999
 20
404.226563
 30
0.0
 11
638.43512
 21
404.226563
 31
0.0
  0
LINE
  5
9A65
330
987F
100
AcDbEntity
  8
2
  6
Continuous
100
AcDbLine
 10
623.7586059999999
 20
397.5795589999998
 30
0.0
 11
638.43512
 21
397.5795589999998
 31
0.0
  0
LINE
  5
9A66
330
987F
100
AcDbEntity
  8
1
  6
Continuous
100
AcDbLine
 10
637.7586059999997
 20
404.9030759999998
 30
0.0
 11
637.7586059999997
 21
396.9030759999998
 31
0.0
  0
LINE
  5
9A67
330
987F
100
AcDbEntity
  8
1
  6
Continuous
100
AcDbLine
 10
623.7586059999999
 20
404.9030759999998
 30
0.0
 11
623.7586059999999
 21
396.9030759999998
 31
0.0
  0
LINE
  5
9A68
330
987F
100
AcDbEntity
  8
2
  6
Continuous
100
AcDbLine
 10
623.7586059999999
 20
397.5795899999998
 30
0.0
 11
622.586853
 21
396.9030759999998
 31
0.0
  0
LINE
  5
9A69
330
987F
100
AcDbEntity
  8
2
  6
Continuous
100
AcDbLine
 10
623.7586059999999
 20
404.226563
 30
0.0
 11
622.586853
 21
404.9030459999998
 31
0.0
  0
LINE
  5
9A6A
330
987F
100
AcDbEntity
  8
1
  6
Continuous
100
AcDbLine
 10
619.7586059999999
 20
405.9030759999997
 30
0.0
 11
621.758606
 21
405.9030759999997
 31
0.0
  0
LINE
  5
9A6B
330
987F
100
AcDbEntity
  8
1
  6
Continuous
100
AcDbLine
 10
619.7586059999999
 20
395.903076
 30
0.0
 11
621.758606
 21
395.903076
 31
0.0
  0
LINE
  5
9A6C
330
987F
100
AcDbEntity
  8
1
  6
Continuous
100
AcDbLine
 10
448.9316099999999
 20
348.418304
 30
0.0
 11
448.9316099999999
 21
349.900909
 31
0.0
  0
LINE
  5
9A6D
330
987F
100
AcDbEntity
  8
1
  6
Continuous
100
AcDbLine
 10
450.18161
 20
323.674927
 30
0.0
 11
450.18161
 21
324.6068119999999
 31
0.0
  0
LINE
  5
9A6E
330
987F
100
AcDbEntity
  8
1
  6
Continuous
100
AcDbLine
 10
445.9316099999998
 20
350.184387
 30
0.0
 11
445.9316099999998
 21
352.0490419999999
 31
0.0
  0
LINE
  5
9A6F
330
987F
100
AcDbEntity
  8
1
  6
Continuous
100
AcDbLine
 10
450.6751099999998
 20
326.7886349999999
 30
0.0
 11
450.6751099999998
 21
328.1055299999998
 31
0.0
  0
LINE
  5
9A70
330
987F
100
AcDbEntity
  8
1
  6
Continuous
100
AcDbLine
 10
448.9293819999998
 20
327.458008
 30
0.0
 11
451.429413
 21
328.3828129999998
 31
0.0
  0
LINE
  5
9A71
330
987F
100
AcDbEntity
  8
1
  6
Continuous
100
AcDbLine
 10
448.933807
 20
327.458008
 30
0.0
 11
451.429413
 21
326.488922
 31
0.0
  0
LINE
  5
9A72
330
987F
100
AcDbEntity
  8
1
  6
Continuous
100
AcDbLine
 10
448.9316099999999
 20
329.9780269999998
 30
0.0
 11
448.9316099999999
 21
331.946747
 31
0.0
  0
LINE
  5
9A73
330
987F
100
AcDbEntity
  8
1
  6
Continuous
100
AcDbLine
 10
448.9316099999999
 20
330.9580379999998
 30
0.0
 11
451.43161
 21
330.9580379999998
 31
0.0
  0
LINE
  5
9A74
330
987F
100
AcDbEntity
  8
1
  6
Continuous
100
AcDbLine
 10
448.9129029999999
 20
323.674927
 30
0.0
 11
451.4129029999998
 21
323.674927
 31
0.0
  0
LINE
  5
9A75
330
987F
100
AcDbEntity
  8
1
  6
Continuous
100
AcDbLine
 10
443.9497679999998
 20
337.569946
 30
0.0
 11
447.9497679999998
 21
337.569946
 31
0.0
  0
LINE
  5
9A76
330
987F
100
AcDbEntity
  8
1
  6
Continuous
100
AcDbLine
 10
443.9497679999998
 20
335.1545409999999
 30
0.0
 11
443.9497679999998
 21
340.006683
 31
0.0
  0
LINE
  5
9A77
330
987F
100
AcDbEntity
  8
1
  6
Continuous
100
AcDbLine
 10
443.93161
 20
360.8282469999999
 30
0.0
 11
446.076416
 21
360.8282469999999
 31
0.0
  0
LINE
  5
9A78
330
987F
100
AcDbEntity
  8
1
  6
Continuous
100
AcDbLine
 10
443.93161
 20
360.804932
 30
0.0
 11
443.93161
 21
363.903076
 31
0.0
  0
LINE
  5
9A79
330
987F
100
AcDbEntity
  8
1
  6
Continuous
100
AcDbLine
 10
448.9316099999999
 20
337.4244689999998
 30
0.0
 11
451.43161
 21
337.4244689999998
 31
0.0
  0
LINE
  5
9A7A
330
987F
100
AcDbEntity
  8
1
  6
Continuous
100
AcDbLine
 10
451.43161
 20
336.87561
 30
0.0
 11
451.43161
 21
337.9733279999999
 31
0.0
  0
LINE
  5
9A7B
330
987F
100
AcDbEntity
  8
1
  6
Continuous
100
AcDbLine
 10
449.6599429999998
 20
336.7333069999999
 30
0.0
 11
448.9316099999999
 21
337.4244689999998
 31
0.0
  0
LINE
  5
9A7C
330
987F
100
AcDbEntity
  8
1
  6
Continuous
100
AcDbLine
 10
451.43161
 20
342.47757
 30
0.0
 11
450.0651859999998
 21
343.784485
 31
0.0
  0
LINE
  5
9A7D
330
987F
100
AcDbEntity
  8
1
  6
Continuous
100
AcDbLine
 10
450.8585509999998
 20
345.088104
 30
0.0
 11
450.8585509999998
 21
346.7143249999999
 31
0.0
  0
LINE
  5
9A7E
330
987F
100
AcDbEntity
  8
1
  6
Continuous
100
AcDbLine
 10
448.9316099999999
 20
346.4613339999999
 30
0.0
 11
451.43161
 21
346.4613339999999
 31
0.0
  0
LINE
  5
9A7F
330
987F
100
AcDbEntity
  8
1
  6
Continuous
100
AcDbLine
 10
448.9316099999999
 20
346.4613339999999
 30
0.0
 11
450.8585509999998
 21
345.088074
 31
0.0
  0
LINE
  5
9A80
330
987F
100
AcDbEntity
  8
1
  6
Continuous
100
AcDbLine
 10
448.9316099999999
 20
339.4183039999999
 30
0.0
 11
448.9316099999999
 21
340.900909
 31
0.0
  0
LINE
  5
9A81
330
987F
100
AcDbEntity
  8
1
  6
Continuous
100
AcDbLine
 10
448.9316099999999
 20
339.4183039999999
 30
0.0
 11
450.3599549999998
 21
339.4183039999999
 31
0.0
  0
LINE
  5
9A82
330
987F
100
AcDbEntity
  8
1
  6
Continuous
100
AcDbLine
 10
451.43161
 20
342.4776
 30
0.0
 11
451.43161
 21
343.961517
 31
0.0
  0
LINE
  5
9A83
330
987F
100
AcDbEntity
  8
1
  6
Continuous
100
AcDbLine
 10
450.18161
 20
352.154114
 30
0.0
 11
450.18161
 21
352.519989
 31
0.0
  0
LINE
  5
9A84
330
987F
100
AcDbEntity
  8
1
  6
Continuous
100
AcDbLine
 10
451.43161
 20
354.4776
 30
0.0
 11
451.43161
 21
355.961517
 31
0.0
  0
LINE
  5
9A85
330
987F
100
AcDbEntity
  8
1
  6
Continuous
100
AcDbLine
 10
451.43158
 20
354.47757
 30
0.0
 11
450.0651859999998
 21
355.784454
 31
0.0
  0
LINE
  5
9A86
330
987F
100
AcDbEntity
  8
1
  6
Continuous
100
AcDbLine
 10
448.9316099999999
 20
348.418304
 30
0.0
 11
450.3599549999998
 21
348.418304
 31
0.0
  0
LINE
  5
9A87
330
987F
100
AcDbEntity
  8
1
  6
Continuous
100
AcDbLine
 10
448.9129029999999
 20
323.674927
 30
0.0
 11
448.9129029999999
 21
324.6068119999999
 31
0.0
  0
LINE
  5
9A88
330
987F
100
AcDbEntity
  8
1
  6
Continuous
100
AcDbLine
 10
442.606598
 20
321.2872009999999
 30
0.0
 11
447.257965
 21
321.2872009999999
 31
0.0
  0
LINE
  5
9A89
330
987F
100
AcDbEntity
  8
1
  6
Continuous
100
AcDbLine
 10
442.662079
 20
320.621368
 30
0.0
 11
447.2024839999998
 21
320.621368
 31
0.0
  0
LINE
  5
9A8A
330
987F
100
AcDbEntity
  8
1
  6
Continuous
100
AcDbLine
 10
447.0049129999998
 20
319.9541929999999
 30
0.0
 11
445.731415
 21
319.9541929999999
 31
0.0
  0
LINE
  5
9A8B
330
987F
100
AcDbEntity
  8
1
  6
Continuous
100
AcDbLine
 10
443.2007139999998
 20
319.2869869999999
 30
0.0
 11
446.663849
 21
319.2869869999999
 31
0.0
  0
LINE
  5
9A8C
330
987F
100
AcDbEntity
  8
1
  6
Continuous
100
AcDbLine
 10
444.9316099999998
 20
321.2872009999999
 30
0.0
 11
444.9316099999998
 21
320.621368
 31
0.0
  0
LINE
  5
9A8D
330
987F
100
AcDbEntity
  8
1
  6
Continuous
100
AcDbLine
 10
444.131775
 20
319.9541929999999
 30
0.0
 11
442.85965
 21
319.9541929999999
 31
0.0
  0
LINE
  5
9A8E
330
987F
100
AcDbEntity
  8
1
  6
Continuous
100
AcDbLine
 10
443.2873230000001
 20
318.6211549999999
 30
0.0
 11
446.575897
 21
318.6211549999999
 31
0.0
  0
LINE
  5
9A8F
330
987F
100
AcDbEntity
  8
1
  6
Continuous
100
AcDbLine
 10
446.161774
 20
317.953949
 30
0.0
 11
443.7027889999998
 21
317.953949
 31
0.0
  0
LINE
  5
9A90
330
987F
100
AcDbEntity
  8
1
  6
Continuous
100
AcDbLine
 10
443.103271
 20
317.288116
 30
0.0
 11
445.9777219999998
 21
317.288116
 31
0.0
  0
LINE
  5
9A91
330
987F
100
AcDbEntity
  8
1
  6
Continuous
100
AcDbLine
 10
442.74057
 20
323.9532469999998
 30
0.0
 11
446.914215
 21
323.9532469999998
 31
0.0
  0
LINE
  5
9A92
330
987F
100
AcDbEntity
  8
1
  6
Continuous
100
AcDbLine
 10
446.814087
 20
323.287415
 30
0.0
 11
444.9316099999998
 21
323.287415
 31
0.0
  0
LINE
  5
9A93
330
987F
100
AcDbEntity
  8
1
  6
Continuous
100
AcDbLine
 10
442.737854
 20
322.620239
 30
0.0
 11
447.126709
 21
322.620239
 31
0.0
  0
LINE
  5
9A94
330
987F
100
AcDbEntity
  8
1
  6
Continuous
100
AcDbLine
 10
442.606598
 20
321.9544069999999
 30
0.0
 11
447.257965
 21
321.9544069999999
 31
0.0
  0
LINE
  5
9A95
330
987F
100
AcDbEntity
  8
1
  6
Continuous
100
AcDbLine
 10
444.9316099999998
 20
327.3379209999998
 30
0.0
 11
444.9316099999998
 21
325.960236
 31
0.0
  0
LINE
  5
9A96
330
987F
100
AcDbEntity
  8
1
  6
Continuous
100
AcDbLine
 10
446.1793819999998
 20
325.6259769999999
 30
0.0
 11
443.3698729999998
 21
326.379791
 31
0.0
  0
LINE
  5
9A97
330
987F
100
AcDbEntity
  8
1
  6
Continuous
100
AcDbLine
 10
444.9316099999998
 20
324.953369
 30
0.0
 11
446.531219
 21
324.953369
 31
0.0
  0
LINE
  5
9A98
330
987F
100
AcDbEntity
  8
1
  6
Continuous
100
AcDbLine
 10
444.598694
 20
325.2876279999999
 30
0.0
 11
443.1749879999999
 21
325.2876279999999
 31
0.0
  0
LINE
  5
9A99
330
987F
100
AcDbEntity
  8
1
  6
Continuous
100
AcDbLine
 10
443.054535
 20
324.6204529999999
 30
0.0
 11
444.598694
 21
324.6204529999999
 31
0.0
  0
LINE
  5
9A9A
330
987F
100
AcDbEntity
  8
1
  6
Continuous
100
AcDbLine
 10
444.9316099999998
 20
323.287415
 30
0.0
 11
444.9316099999998
 21
322.954498
 31
0.0
  0
LINE
  5
9A9B
330
987F
100
AcDbEntity
  8
1
  6
Continuous
100
AcDbLine
 10
444.131775
 20
323.287415
 30
0.0
 11
443.0504759999998
 21
323.287415
 31
0.0
  0
LINE
  5
9A9C
330
987F
100
AcDbEntity
  8
1
  6
Continuous
100
AcDbLine
 10
443.9497679999998
 20
341.9934079999998
 30
0.0
 11
447.9497679999998
 21
341.9934079999998
 31
0.0
  0
LINE
  5
9A9D
330
987F
100
AcDbEntity
  8
1
  6
Continuous
100
AcDbLine
 10
443.9497679999998
 20
346.9930729999999
 30
0.0
 11
447.9497679999998
 21
346.9930729999999
 31
0.0
  0
LINE
  5
9A9E
330
987F
100
AcDbEntity
  8
1
  6
Continuous
100
AcDbLine
 10
443.9497679999998
 20
341.9934079999998
 30
0.0
 11
447.9497679999998
 21
344.4932559999998
 31
0.0
  0
LINE
  5
9A9F
330
987F
100
AcDbEntity
  8
1
  6
Continuous
100
AcDbLine
 10
447.9497679999998
 20
344.4932559999998
 30
0.0
 11
443.9497679999998
 21
346.9931029999998
 31
0.0
  0
LINE
  5
9AA0
330
987F
100
AcDbEntity
  8
1
  6
Continuous
100
AcDbLine
 10
253.0546109999999
 20
181.403061
 30
0.0
 11
253.0546109999999
 21
170.403061
 31
0.0
  0
LINE
  5
9AA1
330
987F
100
AcDbEntity
  8
4
  6
CENTER
100
AcDbLine
 10
438.93161
 20
300.9030759999999
 30
0.0
 11
453.9316099999998
 21
300.9030759999999
 31
0.0
  0
LINE
  5
9AA2
330
987F
100
AcDbEntity
  8
4
  6
CENTER
100
AcDbLine
 10
36.200001
 20
300.9030759999999
 30
0.0
 11
50.200001
 21
300.9030759999999
 31
0.0
  0
LINE
  5
9AA3
330
987F
100
AcDbEntity
  8
4
  6
CENTER
100
AcDbLine
 10
247.104614
 20
63.200001
 30
0.0
 11
247.104614
 21
55.200001
 31
0.0
  0
LINE
  5
9AA4
330
987F
100
AcDbEntity
  8
4
  6
CENTER
100
AcDbLine
 10
247.104614
 20
529.9030759999999
 30
0.0
 11
247.104614
 21
521.9030759999999
 31
0.0
  0
LINE
  5
9AA5
330
987F
100
AcDbEntity
  8
4
  6
CENTER
100
AcDbLine
 10
22.200001
 20
400.9030759999998
 30
0.0
 11
64.19999699999999
 21
400.9030759999998
 31
0.0
  0
LINE
  5
9AA6
330
987F
100
AcDbEntity
  8
4
  6
CENTER
100
AcDbLine
 10
28.200001
 20
175.903061
 30
0.0
 11
61.200001
 21
175.903061
 31
0.0
  0
LINE
  5
9AA7
330
987F
100
AcDbEntity
  8
4
  6
CENTER
100
AcDbLine
 10
247.104614
 20
178.903061
 30
0.0
 11
247.104614
 21
172.903061
 31
0.0
  0
LINE
  5
9AA8
330
987F
100
AcDbEntity
  8
4
  6
CENTER
100
AcDbLine
 10
650.758606
 20
178.903061
 30
0.0
 11
650.758606
 21
172.903061
 31
0.0
  0
LINE
  5
9AA9
330
987F
100
AcDbEntity
  8
1
  6
Continuous
100
AcDbLine
 10
616.496765
 20
405.9030759999997
 30
0.0
 11
616.5585939999998
 21
405.9030759999997
 31
0.0
  0
ARC
  5
9AAA
330
987F
100
AcDbEntity
  8
1
  6
Continuous
100
AcDbCircle
 10
446.4316099999998
 20
400.9030759999998
 30
0.0
 40
15.0
100
AcDbArc
 50
0.0
 51
180.000005
  0
ARC
  5
9AAB
330
987F
100
AcDbEntity
  8
1
  6
Continuous
100
AcDbCircle
 10
446.4316099999998
 20
175.903061
 30
0.0
 40
15.0
100
AcDbArc
 50
179.9999909999999
 51
0.00001
  0
ARC
  5
9AAC
330
987F
100
AcDbEntity
  8
1
  6
Continuous
100
AcDbCircle
 10
446.4316099999998
 20
300.9030759999999
 30
0.0
 40
5.0
100
AcDbArc
 50
0.0
 51
180.000005
  0
ARC
  5
9AAD
330
987F
100
AcDbEntity
  8
1
  6
Continuous
100
AcDbCircle
 10
293.3046259999999
 20
398.9030759999998
 30
0.0
 40
2.0
100
AcDbArc
 50
0.0
 51
90.00000300000001
  0
ARC
  5
9AAE
330
987F
100
AcDbEntity
  8
1
  6
Continuous
100
AcDbCircle
 10
43.200001
 20
400.9030759999998
 30
0.0
 40
15.0
100
AcDbArc
 50
0.0
 51
180.000005
  0
ARC
  5
9AAF
330
987F
100
AcDbEntity
  8
1
  6
Continuous
100
AcDbCircle
 10
43.200001
 20
175.903061
 30
0.0
 40
15.0
100
AcDbArc
 50
180.000005
 51
0.00001
  0
ARC
  5
9AB0
330
987F
100
AcDbEntity
  8
1
  6
Continuous
100
AcDbCircle
 10
43.200001
 20
300.9030759999999
 30
0.0
 40
5.0
100
AcDbArc
 50
0.0
 51
180.000005
  0
ARC
  5
9AB1
330
987F
100
AcDbEntity
  8
1
  6
Continuous
100
AcDbCircle
 10
284.104614
 20
59.200001
 30
0.0
 40
15.0
100
AcDbArc
 50
323.1301029999999
 51
36.86989699999998
  0
ARC
  5
9AB2
330
987F
100
AcDbEntity
  8
1
  6
Continuous
100
AcDbCircle
 10
278.104614
 20
400.9030759999998
 30
0.0
 40
15.0
100
AcDbArc
 50
323.1301029999999
 51
354.2608289999998
  0
ARC
  5
9AB3
330
987F
100
AcDbEntity
  8
1
  6
Continuous
100
AcDbCircle
 10
278.104614
 20
400.9030759999998
 30
0.0
 40
15.0
100
AcDbArc
 50
5.739170999999998
 51
36.86989699999998
  0
ARC
  5
9AB4
330
987F
100
AcDbEntity
  8
1
  6
Continuous
100
AcDbCircle
 10
286.598511
 20
406.653076
 30
0.0
 40
0.5
100
AcDbArc
 50
5.0
 51
185.0000039999999
  0
ARC
  5
9AB5
330
987F
100
AcDbEntity
  8
1
  6
Continuous
100
AcDbCircle
 10
287.6046140000001
 20
395.153076
 30
0.0
 40
0.5
100
AcDbArc
 50
184.999994
 51
5.0
  0
ARC
  5
9AB6
330
987F
100
AcDbEntity
  8
1
  6
Continuous
100
AcDbCircle
 10
281.802704
 20
406.653076
 30
0.0
 40
0.5
100
AcDbArc
 50
5.0
 51
185.0000039999999
  0
ARC
  5
9AB7
330
987F
100
AcDbEntity
  8
1
  6
Continuous
100
AcDbCircle
 10
282.808838
 20
395.153076
 30
0.0
 40
0.5
100
AcDbArc
 50
184.999994
 51
5.0
  0
ARC
  5
9AB8
330
987F
100
AcDbEntity
  8
1
  6
Continuous
100
AcDbCircle
 10
284.2006229999999
 20
406.653076
 30
0.0
 40
0.5
100
AcDbArc
 50
5.0
 51
185.0000039999999
  0
ARC
  5
9AB9
330
987F
100
AcDbEntity
  8
1
  6
Continuous
100
AcDbCircle
 10
285.206726
 20
395.153076
 30
0.0
 40
0.5
100
AcDbArc
 50
184.999994
 51
5.0
  0
ARC
  5
9ABA
330
987F
100
AcDbEntity
  8
1
  6
Continuous
100
AcDbCircle
 10
287.7046199999999
 20
406.653076
 30
0.0
 40
0.5
100
AcDbArc
 50
36.86989699999998
 51
185.0000039999999
  0
ARC
  5
9ABB
330
987F
100
AcDbEntity
  8
1
  6
Continuous
100
AcDbCircle
 10
281.7027279999999
 20
395.153076
 30
0.0
 40
0.5
100
AcDbArc
 50
216.8699029999999
 51
5.000010999999997
  0
ARC
  5
9ABC
330
987F
100
AcDbEntity
  8
1
  6
Continuous
100
AcDbCircle
 10
287.7046199999999
 20
406.653076
 30
0.0
 40
0.5
100
AcDbArc
 50
36.86989699999998
 51
185.0000039999999
  0
CIRCLE
  5
9ABD
330
987F
100
AcDbEntity
  8
1
  6
Continuous
100
AcDbCircle
 10
43.200001
 20
175.903061
 30
0.0
 40
8.5
  0
CIRCLE
  5
9ABE
330
987F
100
AcDbEntity
  8
1
  6
Continuous
100
AcDbCircle
 10
43.200001
 20
400.9030759999998
 30
0.0
 40
6.5
  0
ARC
  5
9ABF
330
987F
100
AcDbEntity
  8
1
  6
Continuous
100
AcDbCircle
 10
161.927185
 20
406.532227
 30
0.0
 40
3.322566999999998
100
AcDbArc
 50
145.615713
 51
214.384284
  0
ARC
  5
9AC0
330
987F
100
AcDbEntity
  8
1
  6
Continuous
100
AcDbCircle
 10
171.0240479999999
 20
400.9030759999998
 30
0.0
 40
12.41943599999999
100
AcDbArc
 50
162.412036
 51
197.587974
  0
ARC
  5
9AC1
330
987F
100
AcDbEntity
  8
1
  6
Continuous
100
AcDbCircle
 10
161.9271699999998
 20
395.273895
 30
0.0
 40
3.322562999999998
100
AcDbArc
 50
145.615699
 51
214.3842970000001
  0
ARC
  5
9AC2
330
987F
100
AcDbEntity
  8
1
  6
Continuous
100
AcDbCircle
 10
167.991745
 20
529.1530759999999
 30
0.0
 40
9.387140999999999
100
AcDbArc
 50
159.7438219999999
 51
200.256188
  0
ARC
  5
9AC3
330
987F
100
AcDbEntity
  8
1
  6
Continuous
100
AcDbCircle
 10
167.991745
 20
522.6530760000001
 30
0.0
 40
9.387140999999999
100
AcDbArc
 50
159.7438219999999
 51
200.256188
  0
ARC
  5
9AC4
330
987F
100
AcDbEntity
  8
1
  6
Continuous
100
AcDbCircle
 10
115.782051
 20
406.532227
 30
0.0
 40
3.322569999999998
100
AcDbArc
 50
325.6157519999998
 51
34.38424799999999
  0
ARC
  5
9AC5
330
987F
100
AcDbEntity
  8
1
  6
Continuous
100
AcDbCircle
 10
106.6851729999999
 20
400.9030759999998
 30
0.0
 40
12.419443
100
AcDbArc
 50
342.4120459999999
 51
17.587954
  0
ARC
  5
9AC6
330
987F
100
AcDbEntity
  8
1
  6
Continuous
100
AcDbCircle
 10
115.782051
 20
395.273895
 30
0.0
 40
3.322569999999998
100
AcDbArc
 50
325.6157519999998
 51
34.38424799999999
  0
ARC
  5
9AC7
330
987F
100
AcDbEntity
  8
1
  6
Continuous
100
AcDbCircle
 10
117.427185
 20
395.273895
 30
0.0
 40
3.322569999999998
100
AcDbArc
 50
145.615754
 51
214.384243
  0
ARC
  5
9AC8
330
987F
100
AcDbEntity
  8
1
  6
Continuous
100
AcDbCircle
 10
126.5240629999998
 20
400.9030759999998
 30
0.0
 40
12.419443
100
AcDbArc
 50
162.4120489999999
 51
197.5879469999999
  0
ARC
  5
9AC9
330
987F
100
AcDbEntity
  8
1
  6
Continuous
100
AcDbCircle
 10
117.427185
 20
406.532227
 30
0.0
 40
3.322569999999998
100
AcDbArc
 50
145.615754
 51
214.384243
  0
CIRCLE
  5
9ACA
330
987F
100
AcDbEntity
  8
1
  6
Continuous
100
AcDbCircle
 10
446.4316099999998
 20
400.9030759999998
 30
0.0
 40
9.0
  0
CIRCLE
  5
9ACB
330
987F
100
AcDbEntity
  8
1
  6
Continuous
100
AcDbCircle
 10
446.4316099999998
 20
175.903061
 30
0.0
 40
9.0
  0
ARC
  5
9ACC
330
987F
100
AcDbEntity
  8
1
  6
Continuous
100
AcDbCircle
 10
281.3046259999999
 20
540.9030759999999
 30
0.0
 40
3.2
100
AcDbArc
 50
90.00000300000001
 51
180.000005
  0
ARC
  5
9ACD
330
987F
100
AcDbEntity
  8
1
  6
Continuous
100
AcDbCircle
 10
281.3046259999999
 20
44.200001
 30
0.0
 40
3.2
100
AcDbArc
 50
180.000005
 51
270.000001
  0
ARC
  5
9ACE
330
987F
100
AcDbEntity
  8
1
  6
Continuous
100
AcDbCircle
 10
278.104614
 20
525.9030759999999
 30
0.0
 40
15.0
100
AcDbArc
 50
323.1301029999999
 51
36.86989699999998
  0
ARC
  5
9ACF
330
987F
100
AcDbEntity
  8
1
  6
Continuous
100
AcDbCircle
 10
123.4917449999999
 20
522.6530760000001
 30
0.0
 40
9.387140999999999
100
AcDbArc
 50
159.7438219999999
 51
200.256188
  0
ARC
  5
9AD0
330
987F
100
AcDbEntity
  8
1
  6
Continuous
100
AcDbCircle
 10
123.4917449999999
 20
529.1530759999999
 30
0.0
 40
9.387140999999999
100
AcDbArc
 50
159.7438219999999
 51
200.256188
  0
ARC
  5
9AD1
330
987F
100
AcDbEntity
  8
1
  6
Continuous
100
AcDbCircle
 10
109.717476
 20
522.6530760000001
 30
0.0
 40
9.387140999999999
100
AcDbArc
 50
339.7438119999999
 51
20.256178
  0
ARC
  5
9AD2
330
987F
100
AcDbEntity
  8
1
  6
Continuous
100
AcDbCircle
 10
109.717476
 20
529.1530759999999
 30
0.0
 40
9.387140999999999
100
AcDbArc
 50
339.7438119999999
 51
20.256178
  0
ARC
  5
9AD3
330
987F
100
AcDbEntity
  8
1
  6
Continuous
100
AcDbCircle
 10
285.698486
 20
531.6530759999999
 30
0.0
 40
0.5
100
AcDbArc
 50
5.0
 51
185.0000039999999
  0
ARC
  5
9AD4
330
987F
100
AcDbEntity
  8
1
  6
Continuous
100
AcDbCircle
 10
286.7046199999998
 20
520.1530759999999
 30
0.0
 40
0.5
100
AcDbArc
 50
184.999994
 51
5.0
  0
ARC
  5
9AD5
330
987F
100
AcDbEntity
  8
1
  6
Continuous
100
AcDbCircle
 10
287.7046199999999
 20
531.6530759999999
 30
0.0
 40
0.5
100
AcDbArc
 50
36.86989699999998
 51
185.0000039999999
  0
ARC
  5
9AD6
330
987F
100
AcDbEntity
  8
1
  6
Continuous
100
AcDbCircle
 10
287.7046199999999
 20
531.6530759999999
 30
0.0
 40
0.5
100
AcDbArc
 50
36.86989699999998
 51
185.0000039999999
  0
ARC
  5
9AD7
330
987F
100
AcDbEntity
  8
1
  6
Continuous
100
AcDbCircle
 10
281.7046199999999
 20
531.6530759999999
 30
0.0
 40
0.5
100
AcDbArc
 50
0.0
 51
143.130097
  0
ARC
  5
9AD8
330
987F
100
AcDbEntity
  8
1
  6
Continuous
100
AcDbCircle
 10
281.7046199999999
 20
520.1530759999999
 30
0.0
 40
0.5
100
AcDbArc
 50
216.8699029999999
 51
352.598592
  0
ARC
  5
9AD9
330
987F
100
AcDbEntity
  8
1
  6
Continuous
100
AcDbCircle
 10
287.7046199999999
 20
531.6530759999999
 30
0.0
 40
0.5
100
AcDbArc
 50
36.86989699999998
 51
185.0000039999999
  0
ARC
  5
9ADA
330
987F
100
AcDbEntity
  8
1
  6
Continuous
100
AcDbCircle
 10
287.7046199999999
 20
520.1530759999999
 30
0.0
 40
0.5
100
AcDbArc
 50
174.999992
 51
323.130102
  0
ARC
  5
9ADB
330
987F
100
AcDbEntity
  8
1
  6
Continuous
100
AcDbCircle
 10
283.198486
 20
531.6530759999999
 30
0.0
 40
0.5
100
AcDbArc
 50
5.0
 51
172.59858
  0
ARC
  5
9ADC
330
987F
100
AcDbEntity
  8
1
  6
Continuous
100
AcDbCircle
 10
284.20462
 20
520.1530759999999
 30
0.0
 40
0.5
100
AcDbArc
 50
184.999994
 51
5.0
  0
ARC
  5
9ADD
330
987F
100
AcDbEntity
  8
1
  6
Continuous
100
AcDbCircle
 10
284.104614
 20
175.903061
 30
0.0
 40
15.0
100
AcDbArc
 50
5.739170999999998
 51
36.86989699999998
  0
ARC
  5
9ADE
330
987F
100
AcDbEntity
  8
1
  6
Continuous
100
AcDbCircle
 10
284.104614
 20
175.903061
 30
0.0
 40
15.0
100
AcDbArc
 50
323.1301029999999
 51
354.2608289999998
  0
CIRCLE
  5
9ADF
330
987F
100
AcDbEntity
  8
1
  6
Continuous
100
AcDbCircle
 10
247.104614
 20
175.903061
 30
0.0
 40
1.5
  0
ARC
  5
9AE0
330
987F
100
AcDbEntity
  8
1
  6
Continuous
100
AcDbCircle
 10
167.4495239999999
 20
183.264282
 30
0.0
 40
4.344898999999998
100
AcDbArc
 50
145.615754
 51
214.384243
  0
ARC
  5
9AE1
330
987F
100
AcDbEntity
  8
1
  6
Continuous
100
AcDbCircle
 10
164.7597199999998
 20
183.264282
 30
0.0
 40
4.344898999999998
100
AcDbArc
 50
325.6157519999998
 51
34.38424799999999
  0
ARC
  5
9AE2
330
987F
100
AcDbEntity
  8
1
  6
Continuous
100
AcDbCircle
 10
152.8638149999999
 20
175.903061
 30
0.0
 40
16.24081
100
AcDbArc
 50
342.4120459999999
 51
17.587954
  0
ARC
  5
9AE3
330
987F
100
AcDbEntity
  8
1
  6
Continuous
100
AcDbCircle
 10
164.7597199999998
 20
168.541855
 30
0.0
 40
4.344898999999998
100
AcDbArc
 50
325.6157519999998
 51
34.38424799999999
  0
ARC
  5
9AE4
330
987F
100
AcDbEntity
  8
1
  6
Continuous
100
AcDbCircle
 10
179.3454279999999
 20
175.903061
 30
0.0
 40
16.24081
100
AcDbArc
 50
162.4120489999999
 51
197.5879469999999
  0
ARC
  5
9AE5
330
987F
100
AcDbEntity
  8
1
  6
Continuous
100
AcDbCircle
 10
167.4495239999999
 20
168.541855
 30
0.0
 40
4.344898999999998
100
AcDbArc
 50
145.615754
 51
214.384243
  0
ARC
  5
9AE6
330
987F
100
AcDbEntity
  8
1
  6
Continuous
100
AcDbCircle
 10
156.829117
 20
63.450001
 30
0.0
 40
12.27549699999999
100
AcDbArc
 50
339.7438259999999
 51
20.25617399999999
  0
ARC
  5
9AE7
330
987F
100
AcDbEntity
  8
1
  6
Continuous
100
AcDbCircle
 10
156.829117
 20
54.950001
 30
0.0
 40
12.27549699999999
100
AcDbArc
 50
339.7438259999999
 51
20.25617399999999
  0
ARC
  5
9AE8
330
987F
100
AcDbEntity
  8
1
  6
Continuous
100
AcDbCircle
 10
175.380112
 20
63.450001
 30
0.0
 40
12.27549699999999
100
AcDbArc
 50
159.7438219999999
 51
200.2561739999999
  0
ARC
  5
9AE9
330
987F
100
AcDbEntity
  8
1
  6
Continuous
100
AcDbCircle
 10
175.380112
 20
54.950001
 30
0.0
 40
12.27549699999999
100
AcDbArc
 50
159.7438219999999
 51
200.2561739999999
  0
CIRCLE
  5
9AEA
330
987F
100
AcDbEntity
  8
1
  6
Continuous
100
AcDbCircle
 10
43.200001
 20
400.9030759999998
 30
0.0
 40
7.7
  0
CIRCLE
  5
9AEB
330
987F
100
AcDbEntity
  8
1
  6
Continuous
100
AcDbCircle
 10
43.200001
 20
400.9030759999998
 30
0.0
 40
4.0
  0
CIRCLE
  5
9AEC
330
987F
100
AcDbEntity
  8
2
  6
Continuous
100
AcDbCircle
 10
43.200001
 20
400.9030759999998
 30
0.0
 40
3.3235
  0
CIRCLE
  5
9AED
330
987F
100
AcDbEntity
  8
1
  6
Continuous
100
AcDbCircle
 10
43.200001
 20
175.903061
 30
0.0
 40
3.0
  0
CIRCLE
  5
9AEE
330
987F
100
AcDbEntity
  8
1
  6
Continuous
100
AcDbCircle
 10
43.200001
 20
175.903061
 30
0.0
 40
2.5
  0
ARC
  5
9AEF
330
987F
100
AcDbEntity
  8
1
  6
Continuous
100
AcDbCircle
 10
43.200001
 20
175.903061
 30
0.0
 40
5.5
100
AcDbArc
 50
228.5691289999998
 51
131.4308299999999
  0
ARC
  5
9AF0
330
987F
100
AcDbEntity
  8
1
  6
Continuous
100
AcDbCircle
 10
43.200001
 20
175.903061
 30
0.0
 40
4.299999999999998
100
AcDbArc
 50
275.8868279999999
 51
334.113161
  0
ARC
  5
9AF1
330
987F
100
AcDbEntity
  8
1
  6
Continuous
100
AcDbCircle
 10
43.200001
 20
175.903061
 30
0.0
 40
4.299999999999998
100
AcDbArc
 50
25.886863
 51
84.113185
  0
ARC
  5
9AF2
330
987F
100
AcDbEntity
  8
1
  6
Continuous
100
AcDbCircle
 10
46.70866799999997
 20
174.2003479999999
 30
0.0
 40
0.4
100
AcDbArc
 50
334.1130719999999
 51
69.999993
  0
ARC
  5
9AF3
330
987F
100
AcDbEntity
  8
1
  6
Continuous
100
AcDbCircle
 10
43.59999799999999
 20
172.023636
 30
0.0
 40
0.4
100
AcDbArc
 50
180.000022
 51
275.8867529999998
  0
ARC
  5
9AF4
330
987F
100
AcDbEntity
  8
1
  6
Continuous
100
AcDbCircle
 10
46.70866799999997
 20
177.6057889999999
 30
0.0
 40
0.4
100
AcDbArc
 50
290.0001229999999
 51
25.886945
  0
ARC
  5
9AF5
330
987F
100
AcDbEntity
  8
1
  6
Continuous
100
AcDbCircle
 10
43.59999799999999
 20
179.7825009999999
 30
0.0
 40
0.4
100
AcDbArc
 50
84.11324
 51
180.000005
  0
ARC
  5
9AF6
330
987F
100
AcDbEntity
  8
1
  6
Continuous
100
AcDbCircle
 10
39.82524899999999
 20
179.726822
 30
0.0
 40
0.4
100
AcDbArc
 50
131.4308709999999
 51
239.999952
  0
ARC
  5
9AF7
330
987F
100
AcDbEntity
  8
1
  6
Continuous
100
AcDbCircle
 10
39.82524899999999
 20
172.0793149999998
 30
0.0
 40
0.4
100
AcDbArc
 50
119.9999349999999
 51
228.5689339999999
  0
ARC
  5
9AF8
330
987F
100
AcDbEntity
  8
1
  6
Continuous
100
AcDbCircle
 10
43.200001
 20
175.903061
 30
0.0
 40
5.0
100
AcDbArc
 50
135.8263169999998
 51
224.1736799999999
  0
ARC
  5
9AF9
330
987F
100
AcDbEntity
  8
2
  6
Continuous
100
AcDbCircle
 10
43.200001
 20
175.903061
 30
0.0
 40
4.187999999999997
100
AcDbArc
 50
21.950642
 51
88.04934799999998
  0
ARC
  5
9AFA
330
987F
100
AcDbEntity
  8
2
  6
Continuous
100
AcDbCircle
 10
43.200001
 20
175.903061
 30
0.0
 40
4.187999999999997
100
AcDbArc
 50
133.00523
 51
226.9948069999998
  0
ARC
  5
9AFB
330
987F
100
AcDbEntity
  8
2
  6
Continuous
100
AcDbCircle
 10
43.200001
 20
175.903061
 30
0.0
 40
4.187999999999997
100
AcDbArc
 50
271.9506519999999
 51
338.0493579999999
  0
ARC
  5
9AFC
330
987F
100
AcDbEntity
  8
1
  6
Continuous
100
AcDbCircle
 10
43.200001
 20
175.903061
 30
0.0
 40
9.0
100
AcDbArc
 50
340.811864
 51
19.188136
  0
ARC
  5
9AFD
330
987F
100
AcDbEntity
  8
1
  6
Continuous
100
AcDbCircle
 10
43.200001
 20
175.903061
 30
0.0
 40
9.0
100
AcDbArc
 50
280.811866
 51
319.1881379999998
  0
ARC
  5
9AFE
330
987F
100
AcDbEntity
  8
1
  6
Continuous
100
AcDbCircle
 10
43.200001
 20
175.903061
 30
0.0
 40
9.0
100
AcDbArc
 50
220.811864
 51
259.1881359999998
  0
ARC
  5
9AFF
330
987F
100
AcDbEntity
  8
1
  6
Continuous
100
AcDbCircle
 10
43.200001
 20
175.903061
 30
0.0
 40
9.0
100
AcDbArc
 50
160.811859
 51
199.188137
  0
ARC
  5
9B00
330
987F
100
AcDbEntity
  8
1
  6
Continuous
100
AcDbCircle
 10
43.200001
 20
175.903061
 30
0.0
 40
9.0
100
AcDbArc
 50
100.8118639999999
 51
139.1881359999999
  0
ARC
  5
9B01
330
987F
100
AcDbEntity
  8
1
  6
Continuous
100
AcDbCircle
 10
43.200001
 20
175.903061
 30
0.0
 40
9.0
100
AcDbArc
 50
40.811862
 51
79.18813400000002
  0
ARC
  5
9B02
330
987F
100
AcDbEntity
  8
5
  6
PHANTOM
100
AcDbCircle
 10
278.104614
 20
300.9030759999999
 30
0.0
 40
15.0
100
AcDbArc
 50
323.1301029999999
 51
354.2608289999998
  0
ARC
  5
9B03
330
987F
100
AcDbEntity
  8
5
  6
PHANTOM
100
AcDbCircle
 10
278.104614
 20
300.9030759999999
 30
0.0
 40
15.0
100
AcDbArc
 50
5.739170999999998
 51
36.86989699999998
  0
ARC
  5
9B04
330
987F
100
AcDbEntity
  8
1
  6
Continuous
100
AcDbCircle
 10
284.104614
 20
525.9030759999999
 30
0.0
 40
15.0
100
AcDbArc
 50
323.1301029999999
 51
36.86989699999998
  0
ARC
  5
9B05
330
987F
100
AcDbEntity
  8
1
  6
Continuous
100
AcDbCircle
 10
278.104614
 20
59.200001
 30
0.0
 40
15.0
100
AcDbArc
 50
323.1301029999999
 51
341.538542
  0
ARC
  5
9B06
330
987F
100
AcDbEntity
  8
1
  6
Continuous
100
AcDbCircle
 10
284.20462
 20
53.450001
 30
0.0
 40
0.5
100
AcDbArc
 50
258.463043
 51
5.0
  0
ARC
  5
9B07
330
987F
100
AcDbEntity
  8
1
  6
Continuous
100
AcDbCircle
 10
285.698486
 20
64.949997
 30
0.0
 40
0.5
100
AcDbArc
 50
5.0
 51
185.0000039999999
  0
ARC
  5
9B08
330
987F
100
AcDbEntity
  8
1
  6
Continuous
100
AcDbCircle
 10
286.7046199999998
 20
53.450001
 30
0.0
 40
0.5
100
AcDbArc
 50
184.999994
 51
5.0
  0
ARC
  5
9B09
330
987F
100
AcDbEntity
  8
1
  6
Continuous
100
AcDbCircle
 10
287.7046199999999
 20
64.949997
 30
0.0
 40
0.5
100
AcDbArc
 50
36.86989699999998
 51
185.0000039999999
  0
ARC
  5
9B0A
330
987F
100
AcDbEntity
  8
1
  6
Continuous
100
AcDbCircle
 10
287.7046199999999
 20
64.949997
 30
0.0
 40
0.5
100
AcDbArc
 50
36.86989699999998
 51
185.0000039999999
  0
ARC
  5
9B0B
330
987F
100
AcDbEntity
  8
1
  6
Continuous
100
AcDbCircle
 10
287.7046199999999
 20
53.450001
 30
0.0
 40
0.5
100
AcDbArc
 50
174.999992
 51
323.130102
  0
ARC
  5
9B0C
330
987F
100
AcDbEntity
  8
1
  6
Continuous
100
AcDbCircle
 10
287.7046199999999
 20
64.949997
 30
0.0
 40
0.5
100
AcDbArc
 50
36.86989699999998
 51
185.0000039999999
  0
ARC
  5
9B0D
330
987F
100
AcDbEntity
  8
1
  6
Continuous
100
AcDbCircle
 10
278.104614
 20
59.200001
 30
0.0
 40
15.0
100
AcDbArc
 50
18.461458
 51
36.86989699999998
  0
ARC
  5
9B0E
330
987F
100
AcDbEntity
  8
1
  6
Continuous
100
AcDbCircle
 10
604.5585940000002
 20
398.9030759999998
 30
0.0
 40
2.0
100
AcDbArc
 50
90.00000300000001
 51
180.000005
  0
ARC
  5
9B0F
330
987F
100
AcDbEntity
  8
1
  6
Continuous
100
AcDbCircle
 10
604.5585940000002
 20
177.903061
 30
0.0
 40
2.0
100
AcDbArc
 50
180.000005
 51
270.000001
  0
CIRCLE
  5
9B10
330
987F
100
AcDbEntity
  8
1
  6
Continuous
100
AcDbCircle
 10
43.200001
 20
400.9030759999998
 30
0.0
 40
10.5
  0
ARC
  5
9B11
330
987F
100
AcDbEntity
  8
1
  6
Continuous
100
AcDbCircle
 10
619.7586059999999
 20
400.9030759999998
 30
0.0
 40
15.0
100
AcDbArc
 50
143.130097
 51
174.2608289999998
  0
ARC
  5
9B12
330
987F
100
AcDbEntity
  8
1
  6
Continuous
100
AcDbCircle
 10
611.264709
 20
406.653076
 30
0.0
 40
0.5
100
AcDbArc
 50
355.0
 51
175.000006
  0
ARC
  5
9B13
330
987F
100
AcDbEntity
  8
1
  6
Continuous
100
AcDbCircle
 10
616.0604860000002
 20
406.653076
 30
0.0
 40
0.5
100
AcDbArc
 50
355.0
 51
175.000006
  0
ARC
  5
9B14
330
987F
100
AcDbEntity
  8
1
  6
Continuous
100
AcDbCircle
 10
613.6625979999998
 20
406.653076
 30
0.0
 40
0.5
100
AcDbArc
 50
355.0
 51
175.000006
  0
ARC
  5
9B15
330
987F
100
AcDbEntity
  8
1
  6
Continuous
100
AcDbCircle
 10
610.1585690000002
 20
406.653076
 30
0.0
 40
0.5
100
AcDbArc
 50
354.999989
 51
143.130097
  0
ARC
  5
9B16
330
987F
100
AcDbEntity
  8
1
  6
Continuous
100
AcDbCircle
 10
610.1585690000002
 20
406.653076
 30
0.0
 40
0.5
100
AcDbArc
 50
354.999989
 51
143.130097
  0
ARC
  5
9B17
330
987F
100
AcDbEntity
  8
1
  6
Continuous
100
AcDbCircle
 10
771.9360349999996
 20
395.273895
 30
0.0
 40
3.322569999999998
100
AcDbArc
 50
325.6157519999998
 51
34.38424799999999
  0
ARC
  5
9B18
330
987F
100
AcDbEntity
  8
1
  6
Continuous
100
AcDbCircle
 10
762.8391719999997
 20
400.9030759999998
 30
0.0
 40
12.419443
100
AcDbArc
 50
342.4120459999999
 51
17.587954
  0
ARC
  5
9B19
330
987F
100
AcDbEntity
  8
1
  6
Continuous
100
AcDbCircle
 10
730.9360349999997
 20
395.273895
 30
0.0
 40
3.322562999999998
100
AcDbArc
 50
325.615704
 51
34.384303
  0
ARC
  5
9B1A
330
987F
100
AcDbEntity
  8
1
  6
Continuous
100
AcDbCircle
 10
721.8391719999997
 20
400.9030759999998
 30
0.0
 40
12.41943599999999
100
AcDbArc
 50
342.4120259999999
 51
17.587964
  0
ARC
  5
9B1B
330
987F
100
AcDbEntity
  8
1
  6
Continuous
100
AcDbCircle
 10
730.9360349999997
 20
406.532227
 30
0.0
 40
3.322566999999998
100
AcDbArc
 50
325.615718
 51
34.384289
  0
ARC
  5
9B1C
330
987F
100
AcDbEntity
  8
1
  6
Continuous
100
AcDbCircle
 10
771.9360349999996
 20
406.532227
 30
0.0
 40
3.322569999999998
100
AcDbArc
 50
325.6157519999998
 51
34.38424799999999
  0
ARC
  5
9B1D
330
987F
100
AcDbEntity
  8
1
  6
Continuous
100
AcDbCircle
 10
773.5811769999997
 20
395.273895
 30
0.0
 40
3.322569999999998
100
AcDbArc
 50
145.615754
 51
214.384243
  0
ARC
  5
9B1E
330
987F
100
AcDbEntity
  8
1
  6
Continuous
100
AcDbCircle
 10
782.67804
 20
400.9030759999998
 30
0.0
 40
12.419443
100
AcDbArc
 50
162.4120489999999
 51
197.5879469999999
  0
ARC
  5
9B1F
330
987F
100
AcDbEntity
  8
1
  6
Continuous
100
AcDbCircle
 10
773.5811769999997
 20
406.532227
 30
0.0
 40
3.322569999999998
100
AcDbArc
 50
145.615754
 51
214.384243
  0
ARC
  5
9B20
330
987F
100
AcDbEntity
  8
1
  6
Continuous
100
AcDbCircle
 10
613.758606
 20
175.903061
 30
0.0
 40
15.0
100
AcDbArc
 50
185.7391709999999
 51
216.8699029999999
  0
ARC
  5
9B21
330
987F
100
AcDbEntity
  8
1
  6
Continuous
100
AcDbCircle
 10
613.758606
 20
175.903061
 30
0.0
 40
15.0
100
AcDbArc
 50
143.130097
 51
174.2608289999998
  0
CIRCLE
  5
9B22
330
987F
100
AcDbEntity
  8
1
  6
Continuous
100
AcDbCircle
 10
650.758606
 20
175.903061
 30
0.0
 40
1.5
  0
ARC
  5
9B23
330
987F
100
AcDbEntity
  8
1
  6
Continuous
100
AcDbCircle
 10
725.4136959999997
 20
183.264282
 30
0.0
 40
4.344898999999998
100
AcDbArc
 50
325.6157519999998
 51
34.38424799999999
  0
ARC
  5
9B24
330
987F
100
AcDbEntity
  8
1
  6
Continuous
100
AcDbCircle
 10
728.103516
 20
183.264282
 30
0.0
 40
4.344898999999998
100
AcDbArc
 50
145.615754
 51
214.384243
  0
ARC
  5
9B25
330
987F
100
AcDbEntity
  8
1
  6
Continuous
100
AcDbCircle
 10
739.9993899999998
 20
175.903061
 30
0.0
 40
16.24081
100
AcDbArc
 50
162.4120489999999
 51
197.5879469999999
  0
ARC
  5
9B26
330
987F
100
AcDbEntity
  8
1
  6
Continuous
100
AcDbCircle
 10
728.103516
 20
168.541855
 30
0.0
 40
4.344898999999998
100
AcDbArc
 50
145.615754
 51
214.384243
  0
ARC
  5
9B27
330
987F
100
AcDbEntity
  8
1
  6
Continuous
100
AcDbCircle
 10
713.5177609999998
 20
175.903061
 30
0.0
 40
16.24081
100
AcDbArc
 50
342.4120459999999
 51
17.587954
  0
ARC
  5
9B28
330
987F
100
AcDbEntity
  8
1
  6
Continuous
100
AcDbCircle
 10
725.4136959999997
 20
168.541855
 30
0.0
 40
4.344898999999998
100
AcDbArc
 50
325.6157519999998
 51
34.38424799999999
  0
ARC
  5
9B29
330
987F
100
AcDbEntity
  8
1
  6
Continuous
100
AcDbCircle
 10
449.5249019999998
 20
343.2195430000001
 30
0.0
 40
0.7817210000000001
100
AcDbArc
 50
42.869628
 51
46.27513600000001
  0
ARC
  5
9B2A
330
987F
100
AcDbEntity
  8
1
  6
Continuous
100
AcDbCircle
 10
449.7133179999998
 20
343.2195430000001
 30
0.0
 40
0.7817210000000001
100
AcDbArc
 50
137.130377
 51
222.8696189999999
  0
ARC
  5
9B2B
330
987F
100
AcDbEntity
  8
1
  6
Continuous
100
AcDbCircle
 10
449.6191099999998
 20
343.3070069999998
 30
0.0
 40
0.6531630000000001
100
AcDbArc
 50
42.869628
 51
137.130377
  0
ARC
  5
9B2C
330
987F
100
AcDbEntity
  8
1
  6
Continuous
100
AcDbCircle
 10
449.6191099999998
 20
343.1320799999999
 30
0.0
 40
0.6531630000000001
100
AcDbArc
 50
222.8696229999999
 51
294.2768189999998
  0
ARC
  5
9B2D
330
987F
100
AcDbEntity
  8
1
  6
Continuous
100
AcDbCircle
 10
449.5249019999998
 20
352.095947
 30
0.0
 40
0.7817210000000001
100
AcDbArc
 50
32.849699
 51
42.869628
  0
ARC
  5
9B2E
330
987F
100
AcDbEntity
  8
1
  6
Continuous
100
AcDbCircle
 10
449.7133179999998
 20
352.095947
 30
0.0
 40
0.7817210000000001
100
AcDbArc
 50
137.130377
 51
222.8696189999999
  0
ARC
  5
9B2F
330
987F
100
AcDbEntity
  8
1
  6
Continuous
100
AcDbCircle
 10
449.6191099999998
 20
352.1834109999999
 30
0.0
 40
0.6531630000000001
100
AcDbArc
 50
42.869628
 51
137.130377
  0
ARC
  5
9B30
330
987F
100
AcDbEntity
  8
1
  6
Continuous
100
AcDbCircle
 10
449.6191099999998
 20
352.0084839999999
 30
0.0
 40
0.6531630000000001
100
AcDbArc
 50
222.8696229999999
 51
288.2076629999999
  0
ARC
  5
9B31
330
987F
100
AcDbEntity
  8
1
  6
Continuous
100
AcDbCircle
 10
450.6499019999998
 20
352.095947
 30
0.0
 40
0.7817210000000001
100
AcDbArc
 50
317.1303759999999
 51
42.869628
  0
ARC
  5
9B32
330
987F
100
AcDbEntity
  8
1
  6
Continuous
100
AcDbCircle
 10
450.838318
 20
352.095947
 30
0.0
 40
0.7817210000000001
100
AcDbArc
 50
137.130377
 51
147.150306
  0
ARC
  5
9B33
330
987F
100
AcDbEntity
  8
1
  6
Continuous
100
AcDbCircle
 10
450.74411
 20
352.1834109999999
 30
0.0
 40
0.6531630000000001
100
AcDbArc
 50
42.869628
 51
137.130377
  0
ARC
  5
9B34
330
987F
100
AcDbEntity
  8
1
  6
Continuous
100
AcDbCircle
 10
450.74411
 20
352.0084839999999
 30
0.0
 40
0.6531630000000001
100
AcDbArc
 50
283.0142259999998
 51
317.1303759999999
  0
ARC
  5
9B35
330
987F
100
AcDbEntity
  8
1
  6
Continuous
100
AcDbCircle
 10
450.666473
 20
340.1387329999999
 30
0.0
 40
0.7829229999999999
100
AcDbArc
 50
225.9274979999999
 51
246.95108
  0
ARC
  5
9B36
330
987F
100
AcDbEntity
  8
1
  6
Continuous
100
AcDbCircle
 10
450.666473
 20
340.0541379999999
 30
0.0
 40
0.7829229999999999
100
AcDbArc
 50
45.92749699999998
 51
134.0725019999999
  0
ARC
  5
9B37
330
987F
100
AcDbEntity
  8
1
  6
Continuous
100
AcDbCircle
 10
450.707428
 20
340.0964359999999
 30
0.0
 40
0.72405
100
AcDbArc
 50
295.5969779999999
 51
45.92749699999998
  0
ARC
  5
9B38
330
987F
100
AcDbEntity
  8
1
  6
Continuous
100
AcDbCircle
 10
450.625519
 20
340.0964359999999
 30
0.0
 40
0.72405
100
AcDbArc
 50
134.0725019999999
 51
225.927495
  0
ARC
  5
9B39
330
987F
100
AcDbEntity
  8
1
  6
Continuous
100
AcDbCircle
 10
449.6191099999998
 20
355.1320799999999
 30
0.0
 40
0.6531630000000001
100
AcDbArc
 50
222.8696229999999
 51
294.2768189999998
  0
ARC
  5
9B3A
330
987F
100
AcDbEntity
  8
1
  6
Continuous
100
AcDbCircle
 10
449.6191099999998
 20
355.3070069999998
 30
0.0
 40
0.6531630000000001
100
AcDbArc
 50
42.869628
 51
137.130377
  0
ARC
  5
9B3B
330
987F
100
AcDbEntity
  8
1
  6
Continuous
100
AcDbCircle
 10
449.7133179999998
 20
355.2195429999999
 30
0.0
 40
0.7817210000000001
100
AcDbArc
 50
137.130377
 51
222.8696189999999
  0
ARC
  5
9B3C
330
987F
100
AcDbEntity
  8
1
  6
Continuous
100
AcDbCircle
 10
449.5249019999998
 20
355.2195429999999
 30
0.0
 40
0.7817210000000001
100
AcDbArc
 50
42.869628
 51
46.27513600000001
  0
ARC
  5
9B3D
330
987F
100
AcDbEntity
  8
1
  6
Continuous
100
AcDbCircle
 10
450.625519
 20
349.0964359999999
 30
0.0
 40
0.72405
100
AcDbArc
 50
134.0725019999999
 51
225.927495
  0
ARC
  5
9B3E
330
987F
100
AcDbEntity
  8
1
  6
Continuous
100
AcDbCircle
 10
450.707428
 20
349.0964359999999
 30
0.0
 40
0.72405
100
AcDbArc
 50
295.5969779999999
 51
45.92749699999998
  0
ARC
  5
9B3F
330
987F
100
AcDbEntity
  8
1
  6
Continuous
100
AcDbCircle
 10
450.666473
 20
349.0541379999998
 30
0.0
 40
0.7829229999999999
100
AcDbArc
 50
45.92749699999998
 51
134.0725019999999
  0
ARC
  5
9B40
330
987F
100
AcDbEntity
  8
1
  6
Continuous
100
AcDbCircle
 10
450.666473
 20
349.138733
 30
0.0
 40
0.7829229999999999
100
AcDbArc
 50
225.9274979999999
 51
246.95108
  0
ARC
  5
9B41
330
987F
100
AcDbEntity
  8
1
  6
Continuous
100
AcDbCircle
 10
449.5472719999998
 20
324.6068119999999
 30
0.0
 40
0.634346
100
AcDbArc
 50
0.0
 51
180.000005
  0
ARC
  5
9B42
330
987F
100
AcDbEntity
  8
1
  6
Continuous
100
AcDbCircle
 10
439.3328859999998
 20
321.620117
 30
0.0
 40
7.932788
100
AcDbArc
 50
333.9859999999998
 51
337.0559999999999
  0
ARC
  5
9B43
330
987F
100
AcDbEntity
  8
1
  6
Continuous
100
AcDbCircle
 10
446.575897
 20
318.55484
 30
0.0
 40
0.066678
100
AcDbArc
 50
337.0559999999999
 51
90.00000300000001
  0
ARC
  5
9B44
330
987F
100
AcDbEntity
  8
1
  6
Continuous
100
AcDbCircle
 10
447.0049129999998
 20
319.887878
 30
0.0
 40
0.066678
100
AcDbArc
 50
347.270997
 51
90.00000300000001
  0
ARC
  5
9B45
330
987F
100
AcDbEntity
  8
1
  6
Continuous
100
AcDbCircle
 10
439.3328859999998
 20
321.620117
 30
0.0
 40
7.932788
100
AcDbArc
 50
344.794003
 51
347.270997
  0
ARC
  5
9B46
330
987F
100
AcDbEntity
  8
1
  6
Continuous
100
AcDbCircle
 10
439.3328859999998
 20
321.620117
 30
0.0
 40
7.932788
100
AcDbArc
 50
344.741998
 51
344.794003
  0
ARC
  5
9B47
330
987F
100
AcDbEntity
  8
1
  6
Continuous
100
AcDbCircle
 10
446.663849
 20
319.6212459999999
 30
0.0
 40
0.333392
100
AcDbArc
 50
270.0000039999998
 51
344.741986
  0
ARC
  5
9B48
330
987F
100
AcDbEntity
  8
1
  6
Continuous
100
AcDbCircle
 10
443.2007139999998
 20
319.6212459999999
 30
0.0
 40
0.333392
100
AcDbArc
 50
195.2575039999999
 51
270.0000039999998
  0
ARC
  5
9B49
330
987F
100
AcDbEntity
  8
1
  6
Continuous
100
AcDbCircle
 10
450.5316769999998
 20
321.620117
 30
0.0
 40
7.932788
100
AcDbArc
 50
193.268102
 51
195.2575039999999
  0
ARC
  5
9B4A
330
987F
100
AcDbEntity
  8
1
  6
Continuous
100
AcDbCircle
 10
450.5316769999998
 20
321.620117
 30
0.0
 40
7.932788
100
AcDbArc
 50
192.728899
 51
193.268102
  0
ARC
  5
9B4B
330
987F
100
AcDbEntity
  8
1
  6
Continuous
100
AcDbCircle
 10
442.85965
 20
319.887878
 30
0.0
 40
0.066678
100
AcDbArc
 50
90.00000300000001
 51
192.728896
  0
ARC
  5
9B4C
330
987F
100
AcDbEntity
  8
1
  6
Continuous
100
AcDbCircle
 10
446.161774
 20
318.2882389999999
 30
0.0
 40
0.333392
100
AcDbArc
 50
270.0000039999998
 51
333.985995
  0
ARC
  5
9B4D
330
987F
100
AcDbEntity
  8
1
  6
Continuous
100
AcDbCircle
 10
443.2873230000001
 20
318.55484
 30
0.0
 40
0.066678
100
AcDbArc
 50
90.00000300000001
 51
202.9440039999998
  0
ARC
  5
9B4E
330
987F
100
AcDbEntity
  8
1
  6
Continuous
100
AcDbCircle
 10
450.5316769999998
 20
321.620117
 30
0.0
 40
7.932788
100
AcDbArc
 50
202.944007
 51
206.014396
  0
ARC
  5
9B4F
330
987F
100
AcDbEntity
  8
1
  6
Continuous
100
AcDbCircle
 10
443.7027889999998
 20
318.2882389999999
 30
0.0
 40
0.333392
100
AcDbArc
 50
206.014396
 51
270.0000039999998
  0
ARC
  5
9B50
330
987F
100
AcDbEntity
  8
1
  6
Continuous
100
AcDbCircle
 10
444.9316099999998
 20
317.6210329999999
 30
0.0
 40
1.717978999999998
100
AcDbArc
 50
270.0000039999998
 51
324.4620069999998
  0
ARC
  5
9B51
330
987F
100
AcDbEntity
  8
1
  6
Continuous
100
AcDbCircle
 10
444.9316099999998
 20
317.6210329999999
 30
0.0
 40
1.717978999999998
100
AcDbArc
 50
215.5377009999999
 51
256.5374009999998
  0
ARC
  5
9B52
330
987F
100
AcDbEntity
  8
1
  6
Continuous
100
AcDbCircle
 10
439.3328859999998
 20
321.620117
 30
0.0
 40
7.932788
100
AcDbArc
 50
7.792996999999997
 51
10.103999
  0
ARC
  5
9B53
330
987F
100
AcDbEntity
  8
1
  6
Continuous
100
AcDbCircle
 10
447.126709
 20
322.687897
 30
0.0
 40
0.066678
100
AcDbArc
 50
270.0000039999998
 51
7.793000999999998
  0
ARC
  5
9B54
330
987F
100
AcDbEntity
  8
1
  6
Continuous
100
AcDbCircle
 10
446.814087
 20
322.954498
 30
0.0
 40
0.333392
100
AcDbArc
 50
10.103999
 51
90.00000300000001
  0
ARC
  5
9B55
330
987F
100
AcDbEntity
  8
1
  6
Continuous
100
AcDbCircle
 10
442.737854
 20
322.687897
 30
0.0
 40
0.066678
100
AcDbArc
 50
172.207005
 51
270.000001
  0
ARC
  5
9B56
330
987F
100
AcDbEntity
  8
1
  6
Continuous
100
AcDbCircle
 10
450.5316769999998
 20
321.620117
 30
0.0
 40
7.932788
100
AcDbArc
 50
169.8959969999999
 51
172.207005
  0
ARC
  5
9B57
330
987F
100
AcDbEntity
  8
1
  6
Continuous
100
AcDbCircle
 10
443.0504759999998
 20
322.954498
 30
0.0
 40
0.333392
100
AcDbArc
 50
90.00000300000001
 51
169.8959969999999
  0
ARC
  5
9B58
330
987F
100
AcDbEntity
  8
1
  6
Continuous
100
AcDbCircle
 10
444.9316099999998
 20
325.620544
 30
0.0
 40
1.717978999999998
100
AcDbArc
 50
35.53799999999999
 51
45.698999
  0
ARC
  5
9B59
330
987F
100
AcDbEntity
  8
1
  6
Continuous
100
AcDbCircle
 10
444.9316099999998
 20
325.620544
 30
0.0
 40
1.717978999999998
100
AcDbArc
 50
62.25000299999999
 51
144.461998
  0
ARC
  5
9B5A
330
987F
100
AcDbEntity
  8
1
  6
Continuous
100
AcDbCircle
 10
444.598694
 20
324.953369
 30
0.0
 40
0.333392
100
AcDbArc
 50
270.0000039999998
 51
90.00000300000001
  0
ARC
  5
9B5B
330
987F
100
AcDbEntity
  8
1
  6
Continuous
100
AcDbCircle
 10
450.5316769999998
 20
321.620117
 30
0.0
 40
8.599396
100
AcDbArc
 50
144.461998
 51
215.5376979999999
  0
ARC
  5
9B5C
330
987F
100
AcDbEntity
  8
1
  6
Continuous
100
AcDbCircle
 10
439.3328859999998
 20
321.620117
 30
0.0
 40
8.599396
100
AcDbArc
 50
324.461996
 51
35.53799999999999
  0
LWPOLYLINE
  5
9B5D
330
987F
100
AcDbEntity
  8
1
  6
Continuous
100
AcDbPolyline
 90
       17
 70
     0
 43
0.0
 10
445.665165
 20
361.1705789999998
 10
445.6794969999998
 20
361.138237
 10
445.6952549999998
 20
361.1065579999998
 10
445.712483
 20
361.0756489999998
 10
445.731228
 20
361.045631
 10
445.751537
 20
361.0166439999999
 10
445.7734549999998
 20
360.98885
 10
445.797021
 20
360.962437
 42
0.016981
 10
445.8222619999999
 20
360.9376229999999
 42
0.018341
 10
445.8491879999998
 20
360.9146519999998
 42
0.019812
 10
445.877782
 20
360.8938039999999
 42
0.021356
 10
445.9079879999999
 20
360.87538
 42
0.022912
 10
445.9396969999998
 20
360.859704
 42
0.02507
 10
445.973662
 20
360.846795
 42
0.026714
 10
446.009161
 20
360.837368
 42
0.027173
 10
446.044775
 20
360.831923
 42
0.026975
 10
446.079892
 20
360.8304019999998
  0
LWPOLYLINE
  5
9B70
330
987F
100
AcDbEntity
  8
1
  6
Continuous
100
AcDbPolyline
 90
       17
 70
     0
 43
0.0
 10
445.4364009999999
 20
362.363647
 42
0.005678
 10
445.437269
 20
362.2872699999998
 42
0.005688
 10
445.4398709999998
 20
362.210933
 42
0.00571
 10
445.444213
 20
362.1346759999998
 42
0.005742
 10
445.4503
 20
362.058539
 42
0.005786
 10
445.458141
 20
361.9825619999998
 42
0.005841
 10
445.467746
 20
361.906786
 42
0.005908
 10
445.479128
 20
361.831255
 42
0.005987
 10
445.4923039999997
 20
361.756013
 42
0.00608
 10
445.5072929999998
 20
361.681107
 42
0.006186
 10
445.5241149999998
 20
361.6065879999999
 42
0.006307
 10
445.5427939999998
 20
361.532508
 42
0.006443
 10
445.563357
 20
361.4589229999999
 42
0.006596
 10
445.5858329999998
 20
361.385895
 42
0.006767
 10
445.6102539999998
 20
361.313488
 42
0.006957
 10
445.636654
 20
361.241774
 42
0.007168
 10
445.6650719999998
 20
361.1708279999998
  0
LWPOLYLINE
  5
9B83
330
987F
100
AcDbEntity
  8
1
  6
Continuous
100
AcDbPolyline
 90
       17
 70
     0
 43
0.0
 10
445.77387
 20
363.4388529999998
 42
0.014771
 10
445.7309819999998
 20
363.3818709999998
 42
0.013805
 10
445.6913329999999
 20
363.3224059999998
 42
0.01295
 10
445.6548699999998
 20
363.260824
 42
0.011983
 10
445.6221059999998
 20
363.198617
 42
0.011489
 10
445.5919109999999
 20
363.134119
 42
0.011042
 10
445.5643539999998
 20
363.0676119999998
 42
0.010638
 10
445.539487
 20
362.999377
 42
0.010277
 10
445.517347
 20
362.9296969999999
 42
0.009954
 10
445.4979530000001
 20
362.8588529999998
 42
0.009538
 10
445.4815199999998
 20
362.7881089999998
 42
0.009165
 10
445.467929
 20
362.7177619999998
 42
0.009208
 10
445.456636
 20
362.645068
 42
0.009017
 10
445.448029
 20
362.5722629999998
 42
0.008855
 10
445.4420599999998
 20
362.4995919999999
 42
0.008719
 10
445.438674
 20
362.4272899999998
 42
0.0087
 10
445.4378049999998
 20
362.3548009999999
  0
LWPOLYLINE
  5
9B96
330
987F
100
AcDbEntity
  8
1
  6
Continuous
100
AcDbPolyline
 90
       17
 70
     0
 43
0.0
 10
447.613673
 20
361.293342
 42
0.028518
 10
447.696071
 20
361.4095649999999
 42
0.025099
 10
447.7657759999998
 20
361.5342539999998
 42
0.02247
 10
447.823362
 20
361.6650189999999
 42
0.020653
 10
447.869821
 20
361.801218
 42
0.019098
 10
447.905101
 20
361.939753
 42
0.018118
 10
447.929998
 20
362.080538
 42
0.0175
 10
447.9448249999999
 20
362.2227429999999
 42
0.017254
 10
447.9497679999998
 20
362.366089
 42
0.017183
 10
447.944866
 20
362.5088519999998
 42
0.017481
 10
447.9300969999998
 20
362.650933
 42
0.018103
 10
447.9052689999998
 20
362.791643
 42
0.01909
 10
447.8700519999998
 20
362.930185
 42
0.020514
 10
447.823973
 20
363.0655909999999
 42
0.02248
 10
447.766422
 20
363.196631
 42
0.025132
 10
447.6966589999998
 20
363.3216909999999
 42
0.028654
 10
447.6138719999998
 20
363.4386039999998
  0
LWPOLYLINE
  5
9BA9
330
987F
100
AcDbEntity
  8
1
  6
Continuous
100
AcDbPolyline
 90
       17
 70
     0
 43
0.0
 10
447.614186
 20
363.438242
 42
0.020085
 10
447.525361
 20
363.540767
 42
0.022142
 10
447.4282179999998
 20
363.6354379999998
 42
0.024472
 10
447.322711
 20
363.7206459999999
 42
0.027017
 10
447.2090429999998
 20
363.7945419999998
 42
0.029634
 10
447.0878009999998
 20
363.85509
 42
0.032078
 10
446.960084
 20
363.9002259999998
 42
0.034013
 10
446.8275849999998
 20
363.928106
 42
0.034766
 10
446.6937869999998
 20
363.9374389999999
 42
0.034889
 10
446.559505
 20
363.928039
 42
0.033862
 10
446.4275889999998
 20
363.900254
 42
0.031688
 10
446.301445
 20
363.8558029999999
 42
0.029405
 10
446.181198
 20
363.7960729999999
 42
0.026906
 10
446.068069
 20
363.72298
 42
0.024437
 10
445.9627809999998
 20
363.638486
 42
0.022032
 10
445.866154
 20
363.5449549999998
 42
0.019979
 10
445.7778059999998
 20
363.4437629999998
  0
LWPOLYLINE
  5
9BBC
330
987F
100
AcDbEntity
  8
1
  6
Continuous
100
AcDbPolyline
 90
       17
 70
     0
 43
0.0
 10
446.9241359999998
 20
360.822551
 42
0.012858
 10
446.9746629999998
 20
360.8362089999998
 42
0.012575
 10
447.024513
 20
360.8524449999999
 42
0.012255
 10
447.073574
 20
360.871167
 42
0.011908
 10
447.121747
 20
360.8922689999998
 42
0.011541
 10
447.168945
 20
360.9156399999998
 42
0.010996
 10
447.214412
 20
360.940766
 42
0.010487
 10
447.258237
 20
360.9675029999999
 42
0.010151
 10
447.3010949999999
 20
360.996142
 42
0.009815
 10
447.3429369999998
 20
361.026586
 42
0.009481
 10
447.383719
 20
361.058737
 42
0.009153
 10
447.4234049999998
 20
361.0924959999999
 42
0.008833
 10
447.4619689999998
 20
361.127766
 42
0.008522
 10
447.499386
 20
361.1644539999999
 42
0.008224
 10
447.5356429999997
 20
361.202465
 42
0.007937
 10
447.5707279999999
 20
361.241713
 42
0.007663
 10
447.6046349999998
 20
361.282111
  0
LWPOLYLINE
  5
9BCF
330
987F
100
AcDbEntity
  8
1
  6
Continuous
100
AcDbPolyline
 90
       17
 70
     0
 43
0.0
 10
445.854787
 20
357.535522
 42
0.024647
 10
445.768598
 20
357.397089
 42
0.021992
 10
445.695798
 20
357.2515399999999
 42
0.020221
 10
445.634846
 20
357.0987109999999
 42
0.018563
 10
445.5862589999998
 20
356.9427819999999
 42
0.017462
 10
445.5490039999999
 20
356.783749
 42
0.01669
 10
445.5226739999998
 20
356.622535
 42
0.016199
 10
445.506986
 20
356.4599349999999
 42
0.015972
 10
445.5017699999998
 20
356.296539
 42
0.015946
 10
445.506969
 20
356.1334039999999
 42
0.016184
 10
445.522623
 20
355.9709419999999
 42
0.016677
 10
445.5489059999998
 20
355.809825
 42
0.017455
 10
445.586117
 20
355.650817
 42
0.018565
 10
445.634686
 20
355.49482
 42
0.020078
 10
445.6951679999998
 20
355.3429489999999
 42
0.022089
 10
445.768245
 20
355.196624
 42
0.024723
 10
445.8546919999998
 20
355.0576939999999
  0
LWPOLYLINE
  5
9BE2
330
987F
100
AcDbEntity
  8
1
  6
Continuous
100
AcDbPolyline
 90
       17
 70
     0
 43
0.0
 10
447.596751
 20
355.0575569999999
 42
0.024647
 10
447.6829399999998
 20
355.1959899999998
 42
0.021992
 10
447.7557400000002
 20
355.341539
 42
0.020221
 10
447.8166929999998
 20
355.494368
 42
0.018563
 10
447.8652789999999
 20
355.650297
 42
0.017462
 10
447.9025339999998
 20
355.8093289999998
 42
0.01669
 10
447.928864
 20
355.970544
 42
0.016199
 10
447.9445519999998
 20
356.133143
 42
0.015972
 10
447.9497679999998
 20
356.296539
 42
0.015946
 10
447.944569
 20
356.459674
 42
0.016184
 10
447.928915
 20
356.622137
 42
0.016677
 10
447.9026329999999
 20
356.783253
 42
0.017455
 10
447.865421
 20
356.942262
 42
0.018565
 10
447.8168519999998
 20
357.0982589999999
 42
0.020078
 10
447.75637
 20
357.2501299999998
 42
0.022089
 10
447.683294
 20
357.3964549999999
 42
0.024723
 10
447.5968469999998
 20
357.535385
  0
LWPOLYLINE
  5
9BF5
330
987F
100
AcDbEntity
  8
1
  6
Continuous
100
AcDbPolyline
 90
       17
 70
     0
 43
0.0
 10
447.5967279999998
 20
357.535558
 42
0.020689
 10
447.5167789999998
 20
357.64119
 42
0.022965
 10
447.427932
 20
357.739462
 42
0.025633
 10
447.329992
 20
357.828647
 42
0.028659
 10
447.223005
 20
357.90668
 42
0.031898
 10
447.107434
 20
357.9711919999998
 42
0.035045
 10
446.984354
 20
358.019669
 42
0.037623
 10
446.855618
 20
358.049773
 42
0.039085
 10
446.7238549999998
 20
358.059812
 42
0.038854
 10
446.5928359999998
 20
358.0492889999999
 42
0.037224
 10
446.465408
 20
358.0191089999999
 42
0.034616
 10
446.343807
 20
357.97105
 42
0.031644
 10
446.2291599999998
 20
357.907083
 42
0.028527
 10
446.1226889999998
 20
357.8295819999998
 42
0.025421
 10
446.0255799999997
 20
357.741445
 42
0.022777
 10
445.9374769999998
 20
357.6444739999999
 42
0.020631
 10
445.857729
 20
357.539745
  0
LWPOLYLINE
  5
9C08
330
987F
100
AcDbEntity
  8
1
  6
Continuous
100
AcDbPolyline
 90
       17
 70
     0
 43
0.0
 10
445.8548099999998
 20
355.057521
 42
0.020689
 10
445.934759
 20
354.9518879999998
 42
0.022965
 10
446.0236059999998
 20
354.8536169999999
 42
0.025633
 10
446.121546
 20
354.7644319999998
 42
0.028659
 10
446.228533
 20
354.6863989999998
 42
0.031898
 10
446.3441049999998
 20
354.621887
 42
0.035045
 10
446.467184
 20
354.57341
 42
0.037623
 10
446.5959199999998
 20
354.5433049999999
 42
0.039085
 10
446.727683
 20
354.5332660000001
 42
0.038854
 10
446.8587019999998
 20
354.543789
 42
0.037224
 10
446.9861299999998
 20
354.5739699999999
 42
0.034616
 10
447.1077309999998
 20
354.6220289999998
 42
0.031644
 10
447.222378
 20
354.6859959999999
 42
0.028527
 10
447.3288489999998
 20
354.7634959999999
 42
0.025421
 10
447.425958
 20
354.8516329999998
 42
0.022777
 10
447.514061
 20
354.948605
 42
0.020631
 10
447.5938089999998
 20
355.053333
  0
LWPOLYLINE
  5
9C1B
330
987F
100
AcDbEntity
  8
1
  6
Continuous
100
AcDbPolyline
 90
       17
 70
     0
 43
0.0
 10
444.3032119999998
 20
357.535522
 42
0.024647
 10
444.217023
 20
357.397089
 42
0.021992
 10
444.1442229999998
 20
357.2515399999999
 42
0.020221
 10
444.0832709999998
 20
357.0987109999999
 42
0.018563
 10
444.034684
 20
356.9427819999999
 42
0.017462
 10
443.997429
 20
356.783749
 42
0.01669
 10
443.9710999999999
 20
356.622535
 42
0.016199
 10
443.955411
 20
356.4599349999999
 42
0.015972
 10
443.950195
 20
356.296539
 42
0.015946
 10
443.955395
 20
356.1334039999999
 42
0.016184
 10
443.971048
 20
355.9709419999999
 42
0.016677
 10
443.997331
 20
355.809825
 42
0.017455
 10
444.0345429999998
 20
355.650817
 42
0.018565
 10
444.0831109999998
 20
355.49482
 42
0.020078
 10
444.1435929999998
 20
355.3429489999999
 42
0.022089
 10
444.21667
 20
355.196624
 42
0.024723
 10
444.303117
 20
355.0576939999999
  0
LWPOLYLINE
  5
9C2E
330
987F
100
AcDbEntity
  8
1
  6
Continuous
100
AcDbPolyline
 90
       17
 70
     0
 43
0.0
 10
445.949895
 20
357.6594319999998
 42
0.021589
 10
445.866453
 20
357.749326
 42
0.023912
 10
445.7752059999998
 20
357.8312629999999
 42
0.026514
 10
445.676205
 20
357.9035859999998
 42
0.029289
 10
445.569811
 20
357.964415
 42
0.032019
 10
445.456829
 20
358.01175
 42
0.034364
 10
445.338629
 20
358.0436859999999
 42
0.036051
 10
445.2167109999998
 20
358.05874
 42
0.036122
 10
445.0951269999998
 20
358.056098
 42
0.035398
 10
444.9749559999998
 20
358.036087
 42
0.033298
 10
444.85966
 20
358.0000999999999
 42
0.030982
 10
444.749479
 20
357.949411
 42
0.028348
 10
444.645717
 20
357.8858169999999
 42
0.025694
 10
444.5491689999998
 20
357.8112159999998
 42
0.023085
 10
444.4606969999998
 20
357.727911
 42
0.020858
 10
444.379961
 20
357.637271
 42
0.019038
 10
444.3063889999998
 20
357.540081
  0
LWPOLYLINE
  5
9C41
330
987F
100
AcDbEntity
  8
1
  6
Continuous
100
AcDbPolyline
 90
       17
 70
     0
 43
0.0
 10
444.303235
 20
355.057521
 42
0.01908
 10
444.376948
 20
354.9594949999999
 42
0.021006
 10
444.45827
 20
354.867677
 42
0.023244
 10
444.5473729999998
 20
354.783404
 42
0.025776
 10
444.6442679999998
 20
354.7082669999999
 42
0.02852
 10
444.748694
 20
354.6440889999999
 42
0.031291
 10
444.85998
 20
354.5928549999999
 42
0.033781
 10
444.97692
 20
354.5565229999998
 42
0.035836
 10
445.098541
 20
354.5366669999999
 42
0.036314
 10
445.220765
 20
354.5345529999999
 42
0.035708
 10
445.3415599999998
 20
354.5499759999998
 42
0.033824
 10
445.4579479999998
 20
354.5817149999999
 42
0.031657
 10
445.569664
 20
354.6285909999999
 42
0.029075
 10
445.6752629999998
 20
354.688879
 42
0.026402
 10
445.7738159999998
 20
354.7606859999998
 42
0.023712
 10
445.8642789999998
 20
354.841613
 42
0.0214
 10
445.946971
 20
354.930226
  0
TEXT
  5
9C54
330
987F
100
AcDbEntity
  8
6
  6
Continuous
100
AcDbText
 10
27.97945
 20
10.0487
 30
0.0
 40
1.399999999999999
  1
6
 41
1.069393
100
AcDbText
  0
TEXT
  5
9C55
330
987F
100
AcDbEntity
  8
1
  6
Continuous
100
AcDbText
 10
17.97945
 20
10.0487
 30
0.0
 40
1.399999999999999
  1
1
 41
1.069393
100
AcDbText
  0
TEXT
  5
9C56
330
987F
100
AcDbEntity
  8
1
  6
Continuous
100
AcDbText
 10
9.99995
 20
10.0
 30
0.0
 40
1.399999999999999
  1
LAYER
 41
1.009912999999997
100
AcDbText
  0
TEXT
  5
9C57
330
987F
100
AcDbEntity
  8
2
  6
Continuous
100
AcDbText
 10
19.97944999999998
 20
10.0487
 30
0.0
 40
1.399999999999999
  1
2
 41
1.069393
100
AcDbText
  0
TEXT
  5
9C58
330
987F
100
AcDbEntity
  8
3
  6
DASHED
100
AcDbText
 10
21.97945
 20
10.0487
 30
0.0
 40
1.399999999999999
  1
3
 41
1.069393
100
AcDbText
  0
TEXT
  5
9C59
330
987F
100
AcDbEntity
  8
4
  6
CENTER
100
AcDbText
 10
23.97944999999999
 20
10.0487
 30
0.0
 40
1.399999999999999
  1
4
 41
1.069393
100
AcDbText
  0
TEXT
  5
9C5A
330
987F
100
AcDbEntity
  8
5
  6
PHANTOM
100
AcDbText
 10
25.97945
 20
10.0487
 30
0.0
 40
1.399999999999999
  1
5
 41
1.069393
100
AcDbText
  0
TEXT
  5
9C5B
330
987F
100
AcDbEntity
  8
7
  6
Continuous
100
AcDbText
 10
10.00005
 20
26.0
 30
0.0
 40
3.0
  1
CODE No.5144
 41
1.003962999999999
100
AcDbText
  0
TEXT
  5
9C5C
330
987F
100
AcDbEntity
  8
7
  6
Continuous
100
AcDbText
 10
10.00005
 20
18.0
 30
0.0
 40
3.0
  1
TYPE No.TM-85-L
 41
1.003152
100
AcDbText
  0
TEXT
  5
9C5D
330
987F
100
AcDbEntity
  8
7
  6
Continuous
100
AcDbText
 10
29.97944999999999
 20
10.0487
 30
0.0
 40
1.399999999999999
  1
7
 41
1.069393
100
AcDbText
  0
LWPOLYLINE
  5
9C5E
330
987F
100
AcDbEntity
  8
1
  6
Continuous
100
AcDbPolyline
 90
        2
 70
     1
 43
0.375
 10
450.86911
 20
332.93866
 42
1.0
 10
451.24411
 20
332.93866
 42
1.0
  0
LINE
  5
9C62
330
987F
100
AcDbEntity
  8
4
  6
CENTER
100
AcDbLine
 10
425.4316099999998
 20
400.9030759999998
 30
0.0
 11
467.4316059999998
 21
400.9030759999998
 31
0.0
  0
LINE
  5
9C63
330
987F
100
AcDbEntity
  8
4
  6
CENTER
100
AcDbLine
 10
431.43161
 20
175.903061
 30
0.0
 11
464.43161
 21
175.903061
 31
0.0
  0
LINE
  5
9C64
330
987F
100
AcDbEntity
  8
1
  6
Continuous
100
AcDbLine
 10
721.758606
 20
184.87361
 30
0.0
 11
721.758606
 21
166.87361
 31
0.0
  0
LINE
  5
9C65
330
987F
100
AcDbEntity
  8
1
  6
Continuous
100
AcDbLine
 10
721.758606
 20
184.87361
 30
0.0
 11
723.7586059999999
 21
184.87361
 31
0.0
  0
LINE
  5
9C66
330
987F
100
AcDbEntity
  8
1
  6
Continuous
100
AcDbLine
 10
721.758606
 20
166.87361
 30
0.0
 11
723.7586059999999
 21
166.87361
 31
0.0
  0
LINE
  5
9C67
330
987F
100
AcDbEntity
  8
1
  6
Continuous
100
AcDbLine
 10
723.7586059999999
 20
184.9030609999998
 30
0.0
 11
723.7586059999999
 21
166.903061
 31
0.0
  0
LINE
  5
9C68
330
987F
100
AcDbEntity
  8
1
  6
Continuous
100
AcDbLine
 10
171.104614
 20
184.9030609999998
 30
0.0
 11
169.104614
 21
184.9030609999998
 31
0.0
  0
LINE
  5
9C69
330
987F
100
AcDbEntity
  8
1
  6
Continuous
100
AcDbLine
 10
171.104614
 20
184.9030609999998
 30
0.0
 11
171.104614
 21
166.903061
 31
0.0
  0
LINE
  5
9C6A
330
987F
100
AcDbEntity
  8
1
  6
Continuous
100
AcDbLine
 10
171.104614
 20
166.903061
 30
0.0
 11
169.104614
 21
166.903061
 31
0.0
  0
LINE
  5
9C6B
330
987F
100
AcDbEntity
  8
1
  6
Continuous
100
AcDbLine
 10
171.104614
 20
68.199997
 30
0.0
 11
171.104614
 21
50.200001
 31
0.0
  0
LINE
  5
9C6C
330
987F
100
AcDbEntity
  8
1
  6
Continuous
100
AcDbLine
 10
171.104614
 20
68.199997
 30
0.0
 11
169.104614
 21
68.199997
 31
0.0
  0
LINE
  5
9C6D
330
987F
100
AcDbEntity
  8
1
  6
Continuous
100
AcDbLine
 10
171.104614
 20
50.200001
 30
0.0
 11
169.104614
 21
50.200001
 31
0.0
  0
ENDSEC
  0
SECTION
  2
OBJECTS
  0
DICTIONARY
  5
986D
330
0
100
AcDbDictionary
281
     1
  3
ACAD_CIP_PREVIOUS_PRODUCT_INFO
350
9CD3
  3
ACAD_COLOR
350
9CB5
  3
ACAD_DETAILVIEWSTYLE
350
9CCE
  3
ACAD_GROUP
350
986E
  3
ACAD_LAYOUT
350
987A
  3
ACAD_MATERIAL
350
9C83
  3
ACAD_MLEADERSTYLE
350
9CCA
  3
ACAD_MLINESTYLE
350
9877
  3
ACAD_PLOTSETTINGS
350
9879
  3
ACAD_PLOTSTYLENAME
350
9C81
  3
ACAD_SCALELIST
350
9CB8
  3
ACAD_SECTIONVIEWSTYLE
350
9CCC
  3
ACAD_TABLESTYLE
350
9CB6
  3
ACAD_VISUALSTYLE
350
9C9C
  3
ACDB_RECOMPOSE_DATA
350
9CF1
  3
AcDbVariableDictionary
350
9CE4
  3
DWGPROPS
350
9CF2
  0
DICTIONARY
  5
9CD4
330
9871
100
AcDbDictionary
280
     1
281
     1
  3
ADSK_XREC_LAYER_RECONCILED
360
9CD5
  0
DICTIONARY
  5
9CD6
330
9887
100
AcDbDictionary
280
     1
281
     1
  3
ADSK_XREC_LAYER_RECONCILED
360
9CD7
  0
DICTIONARY
  5
9CD8
330
9888
100
AcDbDictionary
280
     1
281
     1
  3
ADSK_XREC_LAYER_RECONCILED
360
9CD9
  0
DICTIONARY
  5
9CDA
330
9889
100
AcDbDictionary
280
     1
281
     1
  3
ADSK_XREC_LAYER_RECONCILED
360
9CDB
  0
DICTIONARY
  5
9CDC
330
988A
100
AcDbDictionary
280
     1
281
     1
  3
ADSK_XREC_LAYER_RECONCILED
360
9CDD
  0
DICTIONARY
  5
9CDE
330
988B
100
AcDbDictionary
280
     1
281
     1
  3
ADSK_XREC_LAYER_RECONCILED
360
9CDF
  0
DICTIONARY
  5
9CE0
330
988C
100
AcDbDictionary
280
     1
281
     1
  3
ADSK_XREC_LAYER_RECONCILED
360
9CE1
  0
DICTIONARY
  5
9CE2
330
988D
100
AcDbDictionary
280
     1
281
     1
  3
ADSK_XREC_LAYER_RECONCILED
360
9CE3
  0
DICTIONARY
  5
9C7C
330
987F
100
AcDbDictionary
281
     1
  3
ACAD_LAYOUTSELFREF
350
9C7D
  0
DICTIONARY
  5
9C7A
330
987B
100
AcDbDictionary
281
     1
  3
ACAD_LAYOUTSELFREF
350
9C7B
  0
XRECORD
  5
9CD3
102
{ACAD_REACTORS
330
986D
102
}
330
986D
100
AcDbXrecord
280
     1
300
ACDLT
300
2014
300
ACDLT_F_S
  0
DICTIONARY
  5
9CB5
102
{ACAD_REACTORS
330
986D
102
}
330
986D
100
AcDbDictionary
281
     1
  0
DICTIONARY
  5
9CCE
102
{ACAD_REACTORS
330
986D
102
}
330
986D
100
AcDbDictionary
281
     1
  3
Imperial24
350
9CCF
  0
DICTIONARY
  5
986E
102
{ACAD_REACTORS
330
986D
102
}
330
986D
100
AcDbDictionary
281
     1
  0
DICTIONARY
  5
987A
102
{ACAD_REACTORS
330
986D
102
}
330
986D
100
AcDbDictionary
281
     1
  3
Model
350
9CD0
  3
レイアウト1
350
9CD1
  0
DICTIONARY
  5
9C83
102
{ACAD_REACTORS
330
986D
102
}
330
986D
100
AcDbDictionary
281
     1
  3
ByBlock
350
9C8C
  3
ByLayer
350
9C84
  3
Global
350
9C94
  0
DICTIONARY
  5
9CCA
102
{ACAD_REACTORS
330
986D
102
}
330
986D
100
AcDbDictionary
281
     1
  3
Standard
350
9CCB
  0
DICTIONARY
  5
9877
102
{ACAD_REACTORS
330
986D
102
}
330
986D
100
AcDbDictionary
281
     1
  3
STANDARD
350
9878
  0
DICTIONARY
  5
9879
102
{ACAD_REACTORS
330
986D
102
}
330
986D
100
AcDbDictionary
281
     1
  0
ACDBDICTIONARYWDFLT
  5
9C81
102
{ACAD_REACTORS
330
986D
102
}
330
986D
100
AcDbDictionary
281
     1
  3
Normal
350
9C82
100
AcDbDictionaryWithDefault
340
9C82
  0
DICTIONARY
  5
9CB8
102
{ACAD_REACTORS
330
986D
102
}
330
986D
100
AcDbDictionary
281
     1
  3
A0
350
9CB9
  3
A1
350
9CBA
  3
A2
350
9CBB
  3
A3
350
9CBC
  3
A4
350
9CBD
  3
A5
350
9CBE
  3
A6
350
9CBF
  3
A7
350
9CC0
  3
A8
350
9CC1
  3
A9
350
9CC2
  3
B0
350
9CC3
  3
B1
350
9CC4
  3
B2
350
9CC5
  3
B3
350
9CC6
  3
B4
350
9CC7
  3
B5
350
9CC8
  3
B6
350
9CC9
  0
DICTIONARY
  5
9CCC
102
{ACAD_REACTORS
330
986D
102
}
330
986D
100
AcDbDictionary
281
     1
  3
Imperial24
350
9CCD
  0
DICTIONARY
  5
9CB6
102
{ACAD_REACTORS
330
986D
102
}
330
986D
100
AcDbDictionary
281
     1
  3
Standard
350
9CB7
  0
DICTIONARY
  5
9C9C
102
{ACAD_REACTORS
330
986D
102
}
330
986D
100
AcDbDictionary
281
     1
  3
2dWireframe
350
9CA2
  3
Basic
350
9CA1
  3
Brighten
350
9CA8
  3
ColorChange
350
9CAC
  3
Conceptual
350
9CA5
  3
Dim
350
9CA7
  3
EdgeColorOff
350
9CB4
  3
Facepattern
350
9CAB
  3
Flat
350
9C9D
  3
FlatWithEdges
350
9C9E
  3
Gouraud
350
9C9F
  3
GouraudWithEdges
350
9CA0
  3
Hidden
350
9CA4
  3
JitterOff
350
9CB2
  3
Linepattern
350
9CAA
  3
OverhangOff
350
9CB3
  3
Realistic
350
9CA6
  3
Shaded
350
9CB1
  3
Shaded with edges
350
9CB0
  3
Shades of Gray
350
9CAD
  3
Sketchy
350
9CAE
  3
Thicken
350
9CA9
  3
Wireframe
350
9CA3
  3
X-Ray
350
9CAF
  0
XRECORD
  5
9CF1
102
{ACAD_REACTORS
330
986D
102
}
330
986D
100
AcDbXrecord
280
     1
 90
        1
330
9CB7
  0
DICTIONARY
  5
9CE4
102
{ACAD_REACTORS
330
986D
102
}
330
986D
100
AcDbDictionary
281
     1
  3
CANNOSCALE
350
9CE9
  3
CMLEADERSTYLE
350
9CE6
  3
CTABLESTYLE
350
9CE5
  3
CVIEWDETAILSTYLE
350
9CE7
  3
CVIEWSECTIONSTYLE
350
9CE8
  3
DIMASSOC
350
9CEC
  3
INDEXCTL
350
9CEB
  3
SORTENTS
350
9CEA
  3
XCLIPFRAME
350
9CED
  0
XRECORD
  5
9CF2
102
{ACAD_REACTORS
330
986D
102
}
330
986D
100
AcDbXrecord
280
     1
  1
DWGPROPS COOKIE
  2

  3

  4

  6

  7

  8
Yoshitsune
  9

300
=
301
=
302
=
303
=
304
=
305
=
306
=
307
=
308
=
309
=
 40
0.0000172106481481
 41
2451074.630195602
 42
2457192.622872164
  1

 90
        0
  0
XRECORD
  5
9CD5
102
{ACAD_REACTORS
330
9CD4
102
}
330
9CD4
100
AcDbXrecord
280
     1
290
     1
  0
XRECORD
  5
9CD7
102
{ACAD_REACTORS
330
9CD6
102
}
330
9CD6
100
AcDbXrecord
280
     1
290
     1
  0
XRECORD
  5
9CD9
102
{ACAD_REACTORS
330
9CD8
102
}
330
9CD8
100
AcDbXrecord
280
     1
290
     1
  0
XRECORD
  5
9CDB
102
{ACAD_REACTORS
330
9CDA
102
}
330
9CDA
100
AcDbXrecord
280
     1
290
     1
  0
XRECORD
  5
9CDD
102
{ACAD_REACTORS
330
9CDC
102
}
330
9CDC
100
AcDbXrecord
280
     1
290
     1
  0
XRECORD
  5
9CDF
102
{ACAD_REACTORS
330
9CDE
102
}
330
9CDE
100
AcDbXrecord
280
     1
290
     1
  0
XRECORD
  5
9CE1
102
{ACAD_REACTORS
330
9CE0
102
}
330
9CE0
100
AcDbXrecord
280
     1
290
     1
  0
XRECORD
  5
9CE3
102
{ACAD_REACTORS
330
9CE2
102
}
330
9CE2
100
AcDbXrecord
280
     1
290
     1
  0
XRECORD
  5
9C7D
102
{ACAD_REACTORS
330
9C7C
102
}
330
9C7C
100
AcDbXrecord
280
     1
340
987F
  0
XRECORD
  5
9C7B
102
{ACAD_REACTORS
330
9C7A
102
}
330
9C7A
100
AcDbXrecord
280
     1
340
987B
  0
ACDBDETAILVIEWSTYLE
  5
9CCF
102
{ACAD_XDICTIONARY
360
9D2A
102
}
102
{ACAD_REACTORS
330
9CCE
102
}
330
9CCE
100
AcDbModelDocViewStyle
 70
     0
  3
Imperial24
290
     0
100
AcDbDetailViewStyle
 70
     0
 71
     0
 90
        3
 71
     1
340
9872
 40
0.24
340
0
 40
0.24
300

 40
0.36
280
     3
 71
     2
340
9876
 90
       25
 71
     3
340
9872
 40
0.24
 90
        1
 40
0.75
 90
        1
300
%<\AcVar ViewType \f "%tc1">% %<\AcVar ViewDetailId>%\PSCALE %<\AcVar ViewScale \f "%sn">%
 71
     4
340
9876
 90
       25
340
9876
 90
       25
280
     0
  0
LAYOUT
  5
9CD0
102
{ACAD_XDICTIONARY
360
9D2C
102
}
102
{ACAD_REACTORS
330
987A
102
}
330
987A
100
AcDbPlotSettings
  1

  2
Canon LBP9100C
  4

  6

 40
0.0
 41
0.0
 42
0.0
 43
0.0
 44
0.0
 45
0.0
 46
0.0
 47
0.0
 48
0.0
 49
0.0
140
0.0
141
0.0
142
1.0
143
1.0
 70
  1712
 72
     0
 73
     0
 74
     0
  7

 75
     0
147
1.0
148
0.0
149
0.0
100
AcDbLayout
  1
Model
 70
     1
 71
     0
 10
0.0
 20
0.0
 11
12.0
 21
9.0
 12
0.0
 22
0.0
 32
0.0
 14
0.0
 24
0.0
 34
0.0
 15
0.0
 25
0.0
 35
0.0
146
0.0
 13
0.0
 23
0.0
 33
0.0
 16
1.0
 26
0.0
 36
0.0
 17
0.0
 27
1.0
 37
0.0
 76
     0
330
987F
331
9C79
  0
LAYOUT
  5
9CD1
102
{ACAD_XDICTIONARY
360
9D2E
102
}
102
{ACAD_REACTORS
330
987A
102
}
330
987A
100
AcDbPlotSettings
  1

  2
Canon LBP9100C
  4

  6

 40
0.0
 41
0.0
 42
0.0
 43
0.0
 44
0.0
 45
0.0
 46
0.0
 47
0.0
 48
0.0
 49
0.0
140
0.0
141
0.0
142
1.0
143
1.0
 70
   688
 72
     0
 73
     0
 74
     5
  7

 75
    16
147
1.0
148
0.0
149
0.0
100
AcDbLayout
  1
レイアウト1
 70
     0
 71
     1
 10
0.0
 20
0.0
 11
420.0
 21
297.0
 12
0.0
 22
0.0
 32
0.0
 14
1.000000000000000E+20
 24
1.000000000000000E+20
 34
1.000000000000000E+20
 15
-1.000000000000000E+20
 25
-1.000000000000000E+20
 35
-1.000000000000000E+20
146
0.0
 13
0.0
 23
0.0
 33
0.0
 16
1.0
 26
0.0
 36
0.0
 17
0.0
 27
1.0
 37
0.0
 76
     0
330
987B
  0
MATERIAL
  5
9C8C
102
{ACAD_XDICTIONARY
360
9C8D
102
}
102
{ACAD_REACTORS
330
9C83
102
}
330
9C83
100
AcDbMaterial
  1
ByBlock
 72
     0
 43
0.0208333333333333
 43
0.0
 43
0.0
 43
0.0
 43
0.0
 43
0.0208333333333333
 43
0.0
 43
0.0
 43
0.0
 43
0.0
 43
1.0
 43
0.0
 43
0.0
 43
0.0
 43
0.0
 43
1.0
 77
     0
 47
0.0208333333333333
 47
0.0
 47
0.0
 47
0.0
 47
0.0
 47
0.0208333333333333
 47
0.0
 47
0.0
 47
0.0
 47
0.0
 47
1.0
 47
0.0
 47
0.0
 47
0.0
 47
0.0
 47
1.0
171
     0
 49
0.0208333333333333
 49
0.0
 49
0.0
 49
0.0
 49
0.0
 49
0.0208333333333333
 49
0.0
 49
0.0
 49
0.0
 49
0.0
 49
1.0
 49
0.0
 49
0.0
 49
0.0
 49
0.0
 49
1.0
175
     0
142
0.0208333333333333
142
0.0
142
0.0
142
0.0
142
0.0
142
0.0208333333333333
142
0.0
142
0.0
142
0.0
142
0.0
142
1.0
142
0.0
142
0.0
142
0.0
142
0.0
142
1.0
179
     0
144
0.0208333333333333
144
0.0
144
0.0
144
0.0
144
0.0
144
0.0208333333333333
144
0.0
144
0.0
144
0.0
144
0.0
144
1.0
144
0.0
144
0.0
144
0.0
144
0.0
144
1.0
147
0.0208333333333333
147
0.0
147
0.0
147
0.0
147
0.0
147
0.0208333333333333
147
0.0
147
0.0
147
0.0
147
0.0
147
1.0
147
0.0
147
0.0
147
0.0
147
0.0
147
1.0
  0
MATERIAL
  5
9C84
102
{ACAD_XDICTIONARY
360
9C85
102
}
102
{ACAD_REACTORS
330
9C83
102
}
330
9C83
100
AcDbMaterial
  1
ByLayer
 72
     0
 43
0.0208333333333333
 43
0.0
 43
0.0
 43
0.0
 43
0.0
 43
0.0208333333333333
 43
0.0
 43
0.0
 43
0.0
 43
0.0
 43
1.0
 43
0.0
 43
0.0
 43
0.0
 43
0.0
 43
1.0
 77
     0
 47
0.0208333333333333
 47
0.0
 47
0.0
 47
0.0
 47
0.0
 47
0.0208333333333333
 47
0.0
 47
0.0
 47
0.0
 47
0.0
 47
1.0
 47
0.0
 47
0.0
 47
0.0
 47
0.0
 47
1.0
171
     0
 49
0.0208333333333333
 49
0.0
 49
0.0
 49
0.0
 49
0.0
 49
0.0208333333333333
 49
0.0
 49
0.0
 49
0.0
 49
0.0
 49
1.0
 49
0.0
 49
0.0
 49
0.0
 49
0.0
 49
1.0
175
     0
142
0.0208333333333333
142
0.0
142
0.0
142
0.0
142
0.0
142
0.0208333333333333
142
0.0
142
0.0
142
0.0
142
0.0
142
1.0
142
0.0
142
0.0
142
0.0
142
0.0
142
1.0
179
     0
144
0.0208333333333333
144
0.0
144
0.0
144
0.0
144
0.0
144
0.0208333333333333
144
0.0
144
0.0
144
0.0
144
0.0
144
1.0
144
0.0
144
0.0
144
0.0
144
0.0
144
1.0
147
0.0208333333333333
147
0.0
147
0.0
147
0.0
147
0.0
147
0.0208333333333333
147
0.0
147
0.0
147
0.0
147
0.0
147
1.0
147
0.0
147
0.0
147
0.0
147
0.0
147
1.0
  0
MATERIAL
  5
9C94
102
{ACAD_XDICTIONARY
360
9C95
102
}
102
{ACAD_REACTORS
330
9C83
102
}
330
9C83
100
AcDbMaterial
  1
Global
 72
     0
 43
0.0208333333333333
 43
0.0
 43
0.0
 43
0.0
 43
0.0
 43
0.0208333333333333
 43
0.0
 43
0.0
 43
0.0
 43
0.0
 43
1.0
 43
0.0
 43
0.0
 43
0.0
 43
0.0
 43
1.0
 77
     0
 47
0.0208333333333333
 47
0.0
 47
0.0
 47
0.0
 47
0.0
 47
0.0208333333333333
 47
0.0
 47
0.0
 47
0.0
 47
0.0
 47
1.0
 47
0.0
 47
0.0
 47
0.0
 47
0.0
 47
1.0
171
     0
 49
0.0208333333333333
 49
0.0
 49
0.0
 49
0.0
 49
0.0
 49
0.0208333333333333
 49
0.0
 49
0.0
 49
0.0
 49
0.0
 49
1.0
 49
0.0
 49
0.0
 49
0.0
 49
0.0
 49
1.0
175
     0
142
0.0208333333333333
142
0.0
142
0.0
142
0.0
142
0.0
142
0.0208333333333333
142
0.0
142
0.0
142
0.0
142
0.0
142
1.0
142
0.0
142
0.0
142
0.0
142
0.0
142
1.0
179
     0
144
0.0208333333333333
144
0.0
144
0.0
144
0.0
144
0.0
144
0.0208333333333333
144
0.0
144
0.0
144
0.0
144
0.0
144
1.0
144
0.0
144
0.0
144
0.0
144
0.0
144
1.0
147
0.0208333333333333
147
0.0
147
0.0
147
0.0
147
0.0
147
0.0208333333333333
147
0.0
147
0.0
147
0.0
147
0.0
147
1.0
147
0.0
147
0.0
147
0.0
147
0.0
147
1.0
  0
MLEADERSTYLE
  5
9CCB
102
{ACAD_REACTORS
330
9CCA
102
}
330
9CCA
100
AcDbMLeaderStyle
170
     2
171
     1
172
     0
 90
        2
 40
0.0
 41
0.0
173
     1
 91
-1056964608
340
9874
 92
       -2
290
     1
 42
0.09
291
     1
 43
0.36
  3
Standard
 44
0.18
300

342
9872
174
     1
178
     6
175
     1
176
     0
 93
-1056964608
 45
0.18
292
     0
297
     0
 46
0.18
 94
-1056964608
 47
1.0
 49
1.0
140
1.0
293
     1
141
0.0
294
     1
177
     0
142
1.0
295
     0
296
     0
143
0.125
1001
ACAD_MLEADERVER
1070
     2
  0
MLINESTYLE
  5
9878
102
{ACAD_REACTORS
330
9877
102
}
330
9877
100
AcDbMlineStyle
  2
STANDARD
 70
     0
  3

 62
   256
 51
90.0
 52
90.0
 71
     2
 49
0.5
 62
   256
  6
BYLAYER
 49
-0.5
 62
   256
  6
BYLAYER
  0
ACDBPLACEHOLDER
  5
9C82
102
{ACAD_REACTORS
330
9C81
102
}
330
9C81
  0
SCALE
  5
9CB9
102
{ACAD_REACTORS
330
9CB8
102
}
330
9CB8
100
AcDbScale
 70
     0
300
1:1
140
1.0
141
1.0
290
     1
  0
SCALE
  5
9CBA
102
{ACAD_REACTORS
330
9CB8
102
}
330
9CB8
100
AcDbScale
 70
     0
300
1/128" = 1'-0"
140
0.0078125
141
12.0
290
     0
  0
SCALE
  5
9CBB
102
{ACAD_REACTORS
330
9CB8
102
}
330
9CB8
100
AcDbScale
 70
     0
300
1/64" = 1'-0"
140
0.015625
141
12.0
290
     0
  0
SCALE
  5
9CBC
102
{ACAD_REACTORS
330
9CB8
102
}
330
9CB8
100
AcDbScale
 70
     0
300
1/32" = 1'-0"
140
0.03125
141
12.0
290
     0
  0
SCALE
  5
9CBD
102
{ACAD_REACTORS
330
9CB8
102
}
330
9CB8
100
AcDbScale
 70
     0
300
1/16" = 1'-0"
140
0.0625
141
12.0
290
     0
  0
SCALE
  5
9CBE
102
{ACAD_REACTORS
330
9CB8
102
}
330
9CB8
100
AcDbScale
 70
     0
300
3/32" = 1'-0"
140
0.09375
141
12.0
290
     0
  0
SCALE
  5
9CBF
102
{ACAD_REACTORS
330
9CB8
102
}
330
9CB8
100
AcDbScale
 70
     0
300
1/8" = 1'-0"
140
0.125
141
12.0
290
     0
  0
SCALE
  5
9CC0
102
{ACAD_REACTORS
330
9CB8
102
}
330
9CB8
100
AcDbScale
 70
     0
300
3/16" = 1'-0"
140
0.1875
141
12.0
290
     0
  0
SCALE
  5
9CC1
102
{ACAD_REACTORS
330
9CB8
102
}
330
9CB8
100
AcDbScale
 70
     0
300
1/4" = 1'-0"
140
0.25
141
12.0
290
     0
  0
SCALE
  5
9CC2
102
{ACAD_REACTORS
330
9CB8
102
}
330
9CB8
100
AcDbScale
 70
     0
300
3/8" = 1'-0"
140
0.375
141
12.0
290
     0
  0
SCALE
  5
9CC3
102
{ACAD_REACTORS
330
9CB8
102
}
330
9CB8
100
AcDbScale
 70
     0
300
1/2" = 1'-0"
140
0.5
141
12.0
290
     0
  0
SCALE
  5
9CC4
102
{ACAD_REACTORS
330
9CB8
102
}
330
9CB8
100
AcDbScale
 70
     0
300
3/4" = 1'-0"
140
0.75
141
12.0
290
     0
  0
SCALE
  5
9CC5
102
{ACAD_REACTORS
330
9CB8
102
}
330
9CB8
100
AcDbScale
 70
     0
300
1" = 1'-0"
140
1.0
141
12.0
290
     0
  0
SCALE
  5
9CC6
102
{ACAD_REACTORS
330
9CB8
102
}
330
9CB8
100
AcDbScale
 70
     0
300
1-1/2" = 1'-0"
140
1.5
141
12.0
290
     0
  0
SCALE
  5
9CC7
102
{ACAD_REACTORS
330
9CB8
102
}
330
9CB8
100
AcDbScale
 70
     0
300
3" = 1'-0"
140
3.0
141
12.0
290
     0
  0
SCALE
  5
9CC8
102
{ACAD_REACTORS
330
9CB8
102
}
330
9CB8
100
AcDbScale
 70
     0
300
6" = 1'-0"
140
6.0
141
12.0
290
     0
  0
SCALE
  5
9CC9
102
{ACAD_REACTORS
330
9CB8
102
}
330
9CB8
100
AcDbScale
 70
     0
300
1'-0" = 1'-0"
140
12.0
141
12.0
290
     0
  0
ACDBSECTIONVIEWSTYLE
  5
9CCD
102
{ACAD_XDICTIONARY
360
9D28
102
}
102
{ACAD_REACTORS
330
9CCC
102
}
330
9CCC
100
AcDbModelDocViewStyle
 70
     0
  3
Imperial24
290
     0
100
AcDbSectionViewStyle
 70
     0
 71
     0
 90
       78
 71
     1
340
9872
 40
0.24
340
0
340
0
 40
0.24
300
I, O, Q, S, X, Z
 40
0.48
 90
        3
 40
0.18
 90
        1
 71
     2
340
9876
 90
       25
340
9876
 90
       50
 40
0.24
 40
0.0
 40
0.24
 71
     3
340
9872
 40
0.24
 90
        1
 40
0.75
 90
        1
300
%<\AcVar ViewType \f "%tc1">% %<\AcVar ViewSectionStartId>%-%<\AcVar ViewSectionEndId>%\PSCALE %<\AcVar ViewScale \f "%sn">%
 71
     4
300
ANSI31
 40
1.0
 90
        0
290
     0
290
     0
 90
        6
 40
0.0
 40
1.570796326794896
 40
0.2617993877991494
 40
1.308996938995747
 40
-0.2617993877991494
 40
1.832595714594046
  0
TABLESTYLE
  5
9CB7
102
{ACAD_XDICTIONARY
360
9CEF
102
}
102
{ACAD_REACTORS
330
9CB6
102
}
330
9CB6
100
AcDbTableStyle
  3
Standard
 70
     0
 71
     0
 40
0.06
 41
0.06
280
     0
281
     0
  7
STANDARD
140
0.18
170
     2
 62
     0
 63
     7
283
     0
274
    -2
284
     1
 64
     0
275
    -2
285
     1
 65
     0
276
    -2
286
     1
 66
     0
277
    -2
287
     1
 67
     0
278
    -2
288
     1
 68
     0
279
    -2
289
     1
 69
     0
  7
STANDARD
140
0.25
170
     5
 62
     0
 63
     7
283
     0
274
    -2
284
     1
 64
     0
275
    -2
285
     1
 65
     0
276
    -2
286
     1
 66
     0
277
    -2
287
     1
 67
     0
278
    -2
288
     1
 68
     0
279
    -2
289
     1
 69
     0
  7
STANDARD
140
0.18
170
     5
 62
     0
 63
     7
283
     0
274
    -2
284
     1
 64
     0
275
    -2
285
     1
 65
     0
276
    -2
286
     1
 66
     0
277
    -2
287
     1
 67
     0
278
    -2
288
     1
 68
     0
279
    -2
289
     1
 69
     0
  0
VISUALSTYLE
  5
9CA2
102
{ACAD_XDICTIONARY
360
9D00
102
}
102
{ACAD_REACTORS
330
9C9C
102
}
330
9C9C
100
AcDbVisualStyle
  2
2dWireframe
 70
     4
 71
     0
 72
     2
 73
     0
 90
        0
 40
-0.6
 41
-30.0
 62
     5
 63
     7
 74
     1
 91
        4
 64
     7
 65
   257
 75
     1
175
     1
 42
1.0
 92
        0
 66
   257
 43
1.0
 76
     1
 77
     6
 78
     2
 67
     7
 79
     5
170
     0
171
     0
290
     0
174
     0
 93
        1
 44
0.0
173
     0
291
     0
 45
0.0
1001
ACAD
1000
AcDbSavedByObjectVersion
1070
     0
  0
VISUALSTYLE
  5
9CA1
102
{ACAD_XDICTIONARY
360
9CFE
102
}
102
{ACAD_REACTORS
330
9C9C
102
}
330
9C9C
100
AcDbVisualStyle
  2
Basic
 70
     7
 71
     1
 72
     0
 73
     1
 90
        0
 40
-0.6
 41
-30.0
 62
     5
 63
     7
 74
     0
 91
        4
 64
     7
 65
   257
 75
     1
175
     1
 42
1.0
 92
        8
 66
     7
 43
1.0
 76
     1
 77
     6
 78
     2
 67
     7
 79
     5
170
     0
171
     0
290
     0
174
     0
 93
        1
 44
0.0
173
     0
291
     1
 45
0.0
1001
ACAD
1000
AcDbSavedByObjectVersion
1070
     0
  0
VISUALSTYLE
  5
9CA8
102
{ACAD_XDICTIONARY
360
9D0C
102
}
102
{ACAD_REACTORS
330
9C9C
102
}
330
9C9C
100
AcDbVisualStyle
  2
Brighten
 70
    12
 71
     2
 72
     2
 73
     0
 90
        0
 40
-0.6
 41
-30.0
 62
     5
 63
     7
 74
     1
 91
        4
 64
     7
 65
   257
 75
     1
175
     1
 42
1.0
 92
        8
 66
     7
 43
1.0
 76
     1
 77
     6
 78
     2
 67
     7
 79
     5
170
     0
171
     0
290
     0
174
     0
 93
        1
 44
50.0
173
     0
291
     1
 45
0.0
1001
ACAD
1000
AcDbSavedByObjectVersion
1070
     0
  0
VISUALSTYLE
  5
9CAC
102
{ACAD_XDICTIONARY
360
9D14
102
}
102
{ACAD_REACTORS
330
9C9C
102
}
330
9C9C
100
AcDbVisualStyle
  2
ColorChange
 70
    16
 71
     2
 72
     2
 73
     3
 90
        0
 40
-0.6
 41
-30.0
 62
     5
 63
     8
 74
     1
 91
        4
 64
     7
 65
   257
 75
     1
175
     1
 42
1.0
 92
        8
 66
     8
 43
1.0
 76
     1
 77
     6
 78
     2
 67
     7
 79
     5
170
     0
171
     0
290
     0
174
     0
 93
        1
 44
0.0
173
     0
291
     1
 45
0.0
1001
ACAD
1000
AcDbSavedByObjectVersion
1070
     0
  0
VISUALSTYLE
  5
9CA5
102
{ACAD_XDICTIONARY
360
9D06
102
}
102
{ACAD_REACTORS
330
9C9C
102
}
330
9C9C
100
AcDbVisualStyle
  2
Conceptual
 70
     9
 71
     3
 72
     2
 73
     0
 90
        0
 40
-0.6
 41
-30.0
 62
     5
 63
     7
 74
     2
 91
        2
 64
     7
 65
   257
 75
     1
175
     1
 42
179.0
 92
        8
 66
     7
 43
1.0
 76
     1
 77
     6
 78
     2
 67
     7
 79
     3
170
     0
171
     0
290
     0
174
     0
 93
        1
 44
0.0
173
     0
291
     0
 45
0.0
1001
ACAD
1000
AcDbSavedByObjectVersion
1070
     0
  0
VISUALSTYLE
  5
9CA7
102
{ACAD_XDICTIONARY
360
9D0A
102
}
102
{ACAD_REACTORS
330
9C9C
102
}
330
9C9C
100
AcDbVisualStyle
  2
Dim
 70
    11
 71
     2
 72
     2
 73
     0
 90
        0
 40
-0.6
 41
-30.0
 62
     5
 63
     7
 74
     1
 91
        4
 64
     7
 65
   257
 75
     1
175
     1
 42
1.0
 92
        8
 66
     7
 43
1.0
 76
     1
 77
     6
 78
     2
 67
     7
 79
     5
170
     0
171
     0
290
     0
174
     0
 93
        1
 44
-50.0
173
     0
291
     1
 45
0.0
1001
ACAD
1000
AcDbSavedByObjectVersion
1070
     0
  0
VISUALSTYLE
  5
9CB4
102
{ACAD_XDICTIONARY
360
9D24
102
}
102
{ACAD_REACTORS
330
9C9C
102
}
330
9C9C
100
AcDbVisualStyle
  2
EdgeColorOff
 70
    22
 71
     2
 72
     2
 73
     0
 90
        0
 40
-0.6
 41
-30.0
 62
     5
 63
     7
 74
     1
 91
        4
 64
     7
 65
   257
 75
     1
175
     1
 42
1.0
 92
        8
 66
     7
 43
1.0
 76
     1
 77
     6
 78
     2
 67
     7
 79
     5
170
     0
171
     0
290
     0
174
     0
 93
        1
 44
0.0
173
     0
291
     1
 45
0.0
1001
ACAD
1000
AcDbSavedByObjectVersion
1070
     0
  0
VISUALSTYLE
  5
9CAB
102
{ACAD_XDICTIONARY
360
9D12
102
}
102
{ACAD_REACTORS
330
9C9C
102
}
330
9C9C
100
AcDbVisualStyle
  2
Facepattern
 70
    15
 71
     2
 72
     2
 73
     0
 90
        0
 40
-0.6
 41
-30.0
 62
     5
 63
     7
 74
     1
 91
        4
 64
     7
 65
   257
 75
     1
175
     1
 42
1.0
 92
        8
 66
     7
 43
1.0
 76
     1
 77
     6
 78
     2
 67
     7
 79
     5
170
     0
171
     0
290
     0
174
     0
 93
        1
 44
0.0
173
     0
291
     1
 45
0.0
1001
ACAD
1000
AcDbSavedByObjectVersion
1070
     0
  0
VISUALSTYLE
  5
9C9D
102
{ACAD_XDICTIONARY
360
9CF6
102
}
102
{ACAD_REACTORS
330
9C9C
102
}
330
9C9C
100
AcDbVisualStyle
  2
Flat
 70
     0
 71
     2
 72
     1
 73
     1
 90
        2
 40
-0.6
 41
30.0
 62
     5
 63
     7
 74
     0
 91
        0
 64
     7
 65
   257
 75
     1
175
     1
 42
1.0
 92
        8
 66
     7
 43
1.0
 76
     1
 77
     6
 78
     2
 67
     7
 79
     5
170
     0
171
     0
290
     0
174
     0
 93
       13
 44
0.0
173
     0
291
     1
 45
0.0
1001
ACAD
1000
AcDbSavedByObjectVersion
1070
     0
  0
VISUALSTYLE
  5
9C9E
102
{ACAD_XDICTIONARY
360
9CF8
102
}
102
{ACAD_REACTORS
330
9C9C
102
}
330
9C9C
100
AcDbVisualStyle
  2
FlatWithEdges
 70
     1
 71
     2
 72
     1
 73
     1
 90
        2
 40
-0.6
 41
30.0
 62
     5
 63
     7
 74
     1
 91
        0
 64
     7
 65
   257
 75
     1
175
     1
 42
1.0
 92
        0
 66
   257
 43
1.0
 76
     1
 77
     6
 78
     2
 67
     7
 79
     5
170
     0
171
     0
290
     0
174
     0
 93
       13
 44
0.0
173
     0
291
     1
 45
0.0
1001
ACAD
1000
AcDbSavedByObjectVersion
1070
     0
  0
VISUALSTYLE
  5
9C9F
102
{ACAD_XDICTIONARY
360
9CFA
102
}
102
{ACAD_REACTORS
330
9C9C
102
}
330
9C9C
100
AcDbVisualStyle
  2
Gouraud
 70
     2
 71
     2
 72
     2
 73
     1
 90
        2
 40
-0.6
 41
30.0
 62
     5
 63
     7
 74
     0
 91
        0
 64
     7
 65
   257
 75
     1
175
     1
 42
1.0
 92
        0
 66
     7
 43
1.0
 76
     1
 77
     6
 78
     2
 67
     7
 79
     5
170
     0
171
     0
290
     0
174
     0
 93
       13
 44
0.0
173
     0
291
     1
 45
0.0
1001
ACAD
1000
AcDbSavedByObjectVersion
1070
     0
  0
VISUALSTYLE
  5
9CA0
102
{ACAD_XDICTIONARY
360
9CFC
102
}
102
{ACAD_REACTORS
330
9C9C
102
}
330
9C9C
100
AcDbVisualStyle
  2
GouraudWithEdges
 70
     3
 71
     2
 72
     2
 73
     1
 90
        2
 40
-0.6
 41
30.0
 62
     5
 63
     7
 74
     1
 91
        0
 64
     7
 65
   257
 75
     1
175
     1
 42
1.0
 92
        0
 66
   257
 43
1.0
 76
     1
 77
     6
 78
     2
 67
     7
 79
     5
170
     0
171
     0
290
     0
174
     0
 93
       13
 44
0.0
173
     0
291
     1
 45
0.0
1001
ACAD
1000
AcDbSavedByObjectVersion
1070
     0
  0
VISUALSTYLE
  5
9CA4
102
{ACAD_XDICTIONARY
360
9D04
102
}
102
{ACAD_REACTORS
330
9C9C
102
}
330
9C9C
100
AcDbVisualStyle
  2
Hidden
 70
     6
 71
     1
 72
     2
 73
     2
 90
        0
 40
-0.6
 41
-30.0
 62
     5
 63
     7
 74
     2
 91
        2
 64
     7
 65
   257
 75
     2
175
     1
 42
40.0
 92
        0
 66
   257
 43
1.0
 76
     1
 77
     6
 78
     2
 67
     7
 79
     3
170
     0
171
     0
290
     0
174
     0
 93
        1
 44
0.0
173
     0
291
     0
 45
0.0
1001
ACAD
1000
AcDbSavedByObjectVersion
1070
     0
  0
VISUALSTYLE
  5
9CB2
102
{ACAD_XDICTIONARY
360
9D20
102
}
102
{ACAD_REACTORS
330
9C9C
102
}
330
9C9C
100
AcDbVisualStyle
  2
JitterOff
 70
    20
 71
     2
 72
     2
 73
     0
 90
        0
 40
-0.6
 41
-30.0
 62
     5
 63
     7
 74
     1
 91
        4
 64
     7
 65
   257
 75
     1
175
     1
 42
1.0
 92
       10
 66
     7
 43
1.0
 76
     1
 77
     6
 78
     2
 67
     7
 79
     5
170
     0
171
     0
290
     0
174
     0
 93
        1
 44
0.0
173
     0
291
     1
 45
0.0
1001
ACAD
1000
AcDbSavedByObjectVersion
1070
     0
  0
VISUALSTYLE
  5
9CAA
102
{ACAD_XDICTIONARY
360
9D10
102
}
102
{ACAD_REACTORS
330
9C9C
102
}
330
9C9C
100
AcDbVisualStyle
  2
Linepattern
 70
    14
 71
     2
 72
     2
 73
     0
 90
        0
 40
-0.6
 41
-30.0
 62
     5
 63
     7
 74
     1
 91
        4
 64
     7
 65
   257
 75
     7
175
     7
 42
1.0
 92
        8
 66
     7
 43
1.0
 76
     1
 77
     6
 78
     2
 67
     7
 79
     5
170
     0
171
     0
290
     0
174
     0
 93
        1
 44
0.0
173
     0
291
     1
 45
0.0
1001
ACAD
1000
AcDbSavedByObjectVersion
1070
     0
  0
VISUALSTYLE
  5
9CB3
102
{ACAD_XDICTIONARY
360
9D22
102
}
102
{ACAD_REACTORS
330
9C9C
102
}
330
9C9C
100
AcDbVisualStyle
  2
OverhangOff
 70
    21
 71
     2
 72
     2
 73
     0
 90
        0
 40
-0.6
 41
-30.0
 62
     5
 63
     7
 74
     1
 91
        4
 64
     7
 65
   257
 75
     1
175
     1
 42
1.0
 92
        9
 66
     7
 43
1.0
 76
     1
 77
     6
 78
     2
 67
     7
 79
     5
170
     0
171
     0
290
     0
174
     0
 93
        1
 44
0.0
173
     0
291
     1
 45
0.0
1001
ACAD
1000
AcDbSavedByObjectVersion
1070
     0
  0
VISUALSTYLE
  5
9CA6
102
{ACAD_XDICTIONARY
360
9D08
102
}
102
{ACAD_REACTORS
330
9C9C
102
}
330
9C9C
100
AcDbVisualStyle
  2
Realistic
 70
     8
 71
     2
 72
     3
 73
     0
 90
        2
 40
-0.6
 41
30.0
 62
     5
 63
     7
 74
     0
 91
        0
 64
     7
 65
   257
 75
     1
175
     1
 42
1.0
 92
        8
 66
   257
 43
1.0
 76
     1
 77
     6
 78
     2
 67
     7
 79
     3
170
     0
171
     0
290
     0
174
     0
 93
       13
 44
0.0
173
     0
291
     0
 45
0.0
1001
ACAD
1000
AcDbSavedByObjectVersion
1070
     0
  0
VISUALSTYLE
  5
9CB1
102
{ACAD_XDICTIONARY
360
9D1E
102
}
102
{ACAD_REACTORS
330
9C9C
102
}
330
9C9C
100
AcDbVisualStyle
  2
Shaded
 70
    27
 71
     2
 72
     2
 73
     1
 90
        2
 40
-0.6
 41
30.0
 62
     5
 63
     7
 74
     0
 91
        4
 64
     7
 65
   257
 75
     1
175
     1
 42
1.0
 92
        8
 66
   257
 43
1.0
 76
     1
 77
     6
 78
     2
 67
     8
 79
     3
170
     0
171
     0
290
     0
174
     0
 93
        5
 44
0.0
173
     0
291
     0
 45
0.0
1001
ACAD
1000
AcDbSavedByObjectVersion
1070
     0
  0
VISUALSTYLE
  5
9CB0
102
{ACAD_XDICTIONARY
360
9D1C
102
}
102
{ACAD_REACTORS
330
9C9C
102
}
330
9C9C
100
AcDbVisualStyle
  2
Shaded with edges
 70
    26
 71
     2
 72
     2
 73
     1
 90
        2
 40
-0.6
 41
30.0
 62
     5
 63
     7
 74
     1
 91
       10
 64
     7
 65
   257
 75
     2
175
     1
 42
1.0
 92
        8
 66
   257
 43
1.0
 76
     1
 77
     6
 78
     2
 67
     7
 79
     3
170
     0
171
     0
290
     0
174
     0
 93
        5
 44
0.0
173
     0
291
     0
 45
0.0
1001
ACAD
1000
AcDbSavedByObjectVersion
1070
     0
  0
VISUALSTYLE
  5
9CAD
102
{ACAD_XDICTIONARY
360
9D16
102
}
102
{ACAD_REACTORS
330
9C9C
102
}
330
9C9C
100
AcDbVisualStyle
  2
Shades of Gray
 70
    23
 71
     2
 72
     2
 73
     3
 90
        0
 40
-0.6
 41
-30.0
 62
     5
 63
     7
 74
     2
 91
        2
 64
     7
 65
     7
 75
     1
175
     1
 42
40.0
 92
        8
 66
     7
 43
1.0
 76
     1
 77
     6
 78
     2
 67
     7
 79
     3
170
     0
171
     0
290
     0
174
     0
 93
        1
 44
0.0
173
     0
291
     0
 45
0.0
1001
ACAD
1000
AcDbSavedByObjectVersion
1070
     0
  0
VISUALSTYLE
  5
9CAE
102
{ACAD_XDICTIONARY
360
9D18
102
}
102
{ACAD_REACTORS
330
9C9C
102
}
330
9C9C
100
AcDbVisualStyle
  2
Sketchy
 70
    24
 71
     1
 72
     2
 73
     2
 90
        0
 40
-0.6
 41
-30.0
 62
     5
 63
     7
 74
     2
 91
        2
 64
     7
 65
     7
 75
     1
175
     1
 42
40.0
 92
       11
 66
     7
 43
1.0
 76
     1
 77
     6
 78
     2
 67
     7
 79
     6
170
     0
171
     0
290
     0
174
     0
 93
        1
 44
0.0
173
     0
291
     0
 45
0.0
1001
ACAD
1000
AcDbSavedByObjectVersion
1070
     0
  0
VISUALSTYLE
  5
9CA9
102
{ACAD_XDICTIONARY
360
9D0E
102
}
102
{ACAD_REACTORS
330
9C9C
102
}
330
9C9C
100
AcDbVisualStyle
  2
Thicken
 70
    13
 71
     2
 72
     2
 73
     0
 90
        0
 40
-0.6
 41
-30.0
 62
     5
 63
     7
 74
     1
 91
        4
 64
     7
 65
   257
 75
     1
175
     1
 42
1.0
 92
       12
 66
     7
 43
1.0
 76
     1
 77
     6
 78
     2
 67
     7
 79
     5
170
     0
171
     0
290
     0
174
     0
 93
        1
 44
0.0
173
     0
291
     1
 45
0.0
1001
ACAD
1000
AcDbSavedByObjectVersion
1070
     0
  0
VISUALSTYLE
  5
9CA3
102
{ACAD_XDICTIONARY
360
9D02
102
}
102
{ACAD_REACTORS
330
9C9C
102
}
330
9C9C
100
AcDbVisualStyle
  2
Wireframe
 70
     5
 71
     0
 72
     2
 73
     0
 90
        0
 40
-0.6
 41
-30.0
 62
     5
 63
     7
 74
     1
 91
        4
 64
     7
 65
   257
 75
     1
175
     1
 42
1.0
 92
        0
 66
   257
 43
1.0
 76
     1
 77
     6
 78
     2
 67
     7
 79
     3
170
     0
171
     0
290
     0
174
     0
 93
        1
 44
0.0
173
     0
291
     0
 45
0.0
1001
ACAD
1000
AcDbSavedByObjectVersion
1070
     0
  0
VISUALSTYLE
  5
9CAF
102
{ACAD_XDICTIONARY
360
9D1A
102
}
102
{ACAD_REACTORS
330
9C9C
102
}
330
9C9C
100
AcDbVisualStyle
  2
X-Ray
 70
    25
 71
     2
 72
     2
 73
     1
 90
        1
 40
0.5
 41
-30.0
 62
     5
 63
     7
 74
     1
 91
        0
 64
     7
 65
   257
 75
     1
175
     1
 42
1.0
 92
        8
 66
     7
 43
1.0
 76
     1
 77
     6
 78
     2
 67
     7
 79
     3
170
     0
171
     0
290
     0
174
     0
 93
       13
 44
0.0
173
     0
291
     0
 45
0.0
1001
ACAD
1000
AcDbSavedByObjectVersion
1070
     0
  0
DICTIONARYVAR
  5
9CE9
102
{ACAD_REACTORS
330
9CE4
102
}
330
9CE4
100
DictionaryVariables
280
     0
  1
1:1
  0
DICTIONARYVAR
  5
9CE6
102
{ACAD_REACTORS
330
9CE4
102
}
330
9CE4
100
DictionaryVariables
280
     0
  1
STANDARD
  0
DICTIONARYVAR
  5
9CE5
102
{ACAD_REACTORS
330
9CE4
102
}
330
9CE4
100
DictionaryVariables
280
     0
  1
STANDARD
  0
DICTIONARYVAR
  5
9CE7
102
{ACAD_REACTORS
330
9CE4
102
}
330
9CE4
100
DictionaryVariables
280
     0
  1
Imperial24
  0
DICTIONARYVAR
  5
9CE8
102
{ACAD_REACTORS
330
9CE4
102
}
330
9CE4
100
DictionaryVariables
280
     0
  1
Imperial24
  0
DICTIONARYVAR
  5
9CEC
102
{ACAD_REACTORS
330
9CE4
102
}
330
9CE4
100
DictionaryVariables
280
     0
  1
1
  0
DICTIONARYVAR
  5
9CEB
102
{ACAD_REACTORS
330
9CE4
102
}
330
9CE4
100
DictionaryVariables
280
     0
  1
0
  0
DICTIONARYVAR
  5
9CEA
102
{ACAD_REACTORS
330
9CE4
102
}
330
9CE4
100
DictionaryVariables
280
     0
  1
127
  0
DICTIONARYVAR
  5
9CED
102
{ACAD_REACTORS
330
9CE4
102
}
330
9CE4
100
DictionaryVariables
280
     0
  1
2
  0
DICTIONARY
  5
9D2A
330
9CCF
100
AcDbDictionary
280
     1
281
     1
  3
ACAD_XREC_ROUNDTRIP
360
9D2B
  0
DICTIONARY
  5
9D2C
330
9CD0
100
AcDbDictionary
280
     1
281
     1
  3
ACAD_XREC_ROUNDTRIP
360
9D2D
  0
DICTIONARY
  5
9D2E
330
9CD1
100
AcDbDictionary
280
     1
281
     1
  3
ACAD_XREC_ROUNDTRIP
360
9D2F
  0
DICTIONARY
  5
9C8D
330
9C8C
100
AcDbDictionary
280
     1
281
     1
  3
ACAD_XREC_ROUNDTRIP
360
9CF4
  3
BUMPTILE
360
9C8F
  3
DIFFUSETILE
360
9C8E
  3
OPACITYTILE
360
9C92
  3
REFLECTIONTILE
360
9C91
  3
REFRACTIONTILE
360
9C93
  3
SPECULARTILE
360
9C90
  0
DICTIONARY
  5
9C85
330
9C84
100
AcDbDictionary
280
     1
281
     1
  3
ACAD_XREC_ROUNDTRIP
360
9CF3
  3
BUMPTILE
360
9C87
  3
DIFFUSETILE
360
9C86
  3
OPACITYTILE
360
9C8A
  3
REFLECTIONTILE
360
9C89
  3
REFRACTIONTILE
360
9C8B
  3
SPECULARTILE
360
9C88
  0
DICTIONARY
  5
9C95
330
9C94
100
AcDbDictionary
280
     1
281
     1
  3
ACAD_XREC_ROUNDTRIP
360
9CF5
  3
BUMPTILE
360
9C97
  3
DIFFUSETILE
360
9C96
  3
OPACITYTILE
360
9C9A
  3
REFLECTIONTILE
360
9C99
  3
REFRACTIONTILE
360
9C9B
  3
SPECULARTILE
360
9C98
  0
DICTIONARY
  5
9D28
330
9CCD
100
AcDbDictionary
280
     1
281
     1
  3
ACAD_XREC_ROUNDTRIP
360
9D29
  0
DICTIONARY
  5
9CEF
330
9CB7
100
AcDbDictionary
280
     1
281
     1
  3
ACAD_ROUNDTRIP_2008_TABLESTYLE_CELLSTYLEMAP
360
9CF0
  3
ACAD_XREC_ROUNDTRIP
360
9D26
  0
DICTIONARY
  5
9D00
330
9CA2
100
AcDbDictionary
280
     1
281
     1
  3
ACAD_XREC_ROUNDTRIP
360
9D01
  0
DICTIONARY
  5
9CFE
330
9CA1
100
AcDbDictionary
280
     1
281
     1
  3
ACAD_XREC_ROUNDTRIP
360
9CFF
  0
DICTIONARY
  5
9D0C
330
9CA8
100
AcDbDictionary
280
     1
281
     1
  3
ACAD_XREC_ROUNDTRIP
360
9D0D
  0
DICTIONARY
  5
9D14
330
9CAC
100
AcDbDictionary
280
     1
281
     1
  3
ACAD_XREC_ROUNDTRIP
360
9D15
  0
DICTIONARY
  5
9D06
330
9CA5
100
AcDbDictionary
280
     1
281
     1
  3
ACAD_XREC_ROUNDTRIP
360
9D07
  0
DICTIONARY
  5
9D0A
330
9CA7
100
AcDbDictionary
280
     1
281
     1
  3
ACAD_XREC_ROUNDTRIP
360
9D0B
  0
DICTIONARY
  5
9D24
330
9CB4
100
AcDbDictionary
280
     1
281
     1
  3
ACAD_XREC_ROUNDTRIP
360
9D25
  0
DICTIONARY
  5
9D12
330
9CAB
100
AcDbDictionary
280
     1
281
     1
  3
ACAD_XREC_ROUNDTRIP
360
9D13
  0
DICTIONARY
  5
9CF6
330
9C9D
100
AcDbDictionary
280
     1
281
     1
  3
ACAD_XREC_ROUNDTRIP
360
9CF7
  0
DICTIONARY
  5
9CF8
330
9C9E
100
AcDbDictionary
280
     1
281
     1
  3
ACAD_XREC_ROUNDTRIP
360
9CF9
  0
DICTIONARY
  5
9CFA
330
9C9F
100
AcDbDictionary
280
     1
281
     1
  3
ACAD_XREC_ROUNDTRIP
360
9CFB
  0
DICTIONARY
  5
9CFC
330
9CA0
100
AcDbDictionary
280
     1
281
     1
  3
ACAD_XREC_ROUNDTRIP
360
9CFD
  0
DICTIONARY
  5
9D04
330
9CA4
100
AcDbDictionary
280
     1
281
     1
  3
ACAD_XREC_ROUNDTRIP
360
9D05
  0
DICTIONARY
  5
9D20
330
9CB2
100
AcDbDictionary
280
     1
281
     1
  3
ACAD_XREC_ROUNDTRIP
360
9D21
  0
DICTIONARY
  5
9D10
330
9CAA
100
AcDbDictionary
280
     1
281
     1
  3
ACAD_XREC_ROUNDTRIP
360
9D11
  0
DICTIONARY
  5
9D22
330
9CB3
100
AcDbDictionary
280
     1
281
     1
  3
ACAD_XREC_ROUNDTRIP
360
9D23
  0
DICTIONARY
  5
9D08
330
9CA6
100
AcDbDictionary
280
     1
281
     1
  3
ACAD_XREC_ROUNDTRIP
360
9D09
  0
DICTIONARY
  5
9D1E
330
9CB1
100
AcDbDictionary
280
     1
281
     1
  3
ACAD_XREC_ROUNDTRIP
360
9D1F
  0
DICTIONARY
  5
9D1C
330
9CB0
100
AcDbDictionary
280
     1
281
     1
  3
ACAD_XREC_ROUNDTRIP
360
9D1D
  0
DICTIONARY
  5
9D16
330
9CAD
100
AcDbDictionary
280
     1
281
     1
  3
ACAD_XREC_ROUNDTRIP
360
9D17
  0
DICTIONARY
  5
9D18
330
9CAE
100
AcDbDictionary
280
     1
281
     1
  3
ACAD_XREC_ROUNDTRIP
360
9D19
  0
DICTIONARY
  5
9D0E
330
9CA9
100
AcDbDictionary
280
     1
281
     1
  3
ACAD_XREC_ROUNDTRIP
360
9D0F
  0
DICTIONARY
  5
9D02
330
9CA3
100
AcDbDictionary
280
     1
281
     1
  3
ACAD_XREC_ROUNDTRIP
360
9D03
  0
DICTIONARY
  5
9D1A
330
9CAF
100
AcDbDictionary
280
     1
281
     1
  3
ACAD_XREC_ROUNDTRIP
360
9D1B
  0
XRECORD
  5
9D2B
102
{ACAD_REACTORS
330
9D2A
102
}
330
9D2A
100
AcDbXrecord
280
     1
102
DISPLAYNAME
  1
Imperial24
102
FLAGS
 90
        0
  0
XRECORD
  5
9D2D
102
{ACAD_REACTORS
330
9D2C
102
}
330
9D2C
100
AcDbXrecord
280
     1
102
SHADEPLOT
 70
     0
102
SHADEPLOTRESLEVEL
 70
     2
102
SHADEPLOTCUSTOMDPI
 70
   300
  0
XRECORD
  5
9D2F
102
{ACAD_REACTORS
330
9D2E
102
}
330
9D2E
100
AcDbXrecord
280
     1
102
SHADEPLOT
 70
     0
102
SHADEPLOTRESLEVEL
 70
     2
102
SHADEPLOTCUSTOMDPI
 70
   300
  0
XRECORD
  5
9CF4
102
{ACAD_REACTORS
330
9C8D
102
}
330
9C8D
100
AcDbXrecord
280
     1
102
MATERIAL
148
0.0
149
0.0
149
0.0
 93
        0
 94
      127
282
     0
 72
     0
 77
     0
171
     0
175
     0
179
     0
273
     0
  0
XRECORD
  5
9C8F
102
{ACAD_REACTORS
330
9C8D
102
}
330
9C8D
100
AcDbXrecord
280
     1
270
     1
271
     1
  0
XRECORD
  5
9C8E
102
{ACAD_REACTORS
330
9C8D
102
}
330
9C8D
100
AcDbXrecord
280
     1
270
     1
271
     1
  0
XRECORD
  5
9C92
102
{ACAD_REACTORS
330
9C8D
102
}
330
9C8D
100
AcDbXrecord
280
     1
270
     1
271
     1
  0
XRECORD
  5
9C91
102
{ACAD_REACTORS
330
9C8D
102
}
330
9C8D
100
AcDbXrecord
280
     1
270
     1
271
     1
  0
XRECORD
  5
9C93
102
{ACAD_REACTORS
330
9C8D
102
}
330
9C8D
100
AcDbXrecord
280
     1
270
     1
271
     1
  0
XRECORD
  5
9C90
102
{ACAD_REACTORS
330
9C8D
102
}
330
9C8D
100
AcDbXrecord
280
     1
270
     1
271
     1
  0
XRECORD
  5
9CF3
102
{ACAD_REACTORS
330
9C85
102
}
330
9C85
100
AcDbXrecord
280
     1
102
MATERIAL
148
0.0
149
0.0
149
0.0
 93
        0
 94
      127
282
     0
 72
     0
 77
     0
171
     0
175
     0
179
     0
273
     0
  0
XRECORD
  5
9C87
102
{ACAD_REACTORS
330
9C85
102
}
330
9C85
100
AcDbXrecord
280
     1
270
     1
271
     1
  0
XRECORD
  5
9C86
102
{ACAD_REACTORS
330
9C85
102
}
330
9C85
100
AcDbXrecord
280
     1
270
     1
271
     1
  0
XRECORD
  5
9C8A
102
{ACAD_REACTORS
330
9C85
102
}
330
9C85
100
AcDbXrecord
280
     1
270
     1
271
     1
  0
XRECORD
  5
9C89
102
{ACAD_REACTORS
330
9C85
102
}
330
9C85
100
AcDbXrecord
280
     1
270
     1
271
     1
  0
XRECORD
  5
9C8B
102
{ACAD_REACTORS
330
9C85
102
}
330
9C85
100
AcDbXrecord
280
     1
270
     1
271
     1
  0
XRECORD
  5
9C88
102
{ACAD_REACTORS
330
9C85
102
}
330
9C85
100
AcDbXrecord
280
     1
270
     1
271
     1
  0
XRECORD
  5
9CF5
102
{ACAD_REACTORS
330
9C95
102
}
330
9C95
100
AcDbXrecord
280
     1
102
MATERIAL
148
0.0
149
0.0
149
0.0
 93
        0
 94
      127
282
     0
 72
     0
 77
     0
171
     0
175
     0
179
     0
273
     0
  0
XRECORD
  5
9C97
102
{ACAD_REACTORS
330
9C95
102
}
330
9C95
100
AcDbXrecord
280
     1
270
     1
271
     1
  0
XRECORD
  5
9C96
102
{ACAD_REACTORS
330
9C95
102
}
330
9C95
100
AcDbXrecord
280
     1
270
     1
271
     1
  0
XRECORD
  5
9C9A
102
{ACAD_REACTORS
330
9C95
102
}
330
9C95
100
AcDbXrecord
280
     1
270
     1
271
     1
  0
XRECORD
  5
9C99
102
{ACAD_REACTORS
330
9C95
102
}
330
9C95
100
AcDbXrecord
280
     1
270
     1
271
     1
  0
XRECORD
  5
9C9B
102
{ACAD_REACTORS
330
9C95
102
}
330
9C95
100
AcDbXrecord
280
     1
270
     1
271
     1
  0
XRECORD
  5
9C98
102
{ACAD_REACTORS
330
9C95
102
}
330
9C95
100
AcDbXrecord
280
     1
270
     1
271
     1
  0
XRECORD
  5
9D29
102
{ACAD_REACTORS
330
9D28
102
}
330
9D28
100
AcDbXrecord
280
     1
102
DISPLAYNAME
  1
Imperial24
102
FLAGS
 90
        0
  0
CELLSTYLEMAP
  5
9CF0
102
{ACAD_REACTORS
330
9CEF
102
}
330
9CEF
100
AcDbCellStyleMap
 90
        3
300
CELLSTYLE
  1
TABLEFORMAT_BEGIN
 90
        5
170
     1
 91
        0
 92
    32768
 62
   257
 93
        1
300
CONTENTFORMAT
  1
CONTENTFORMAT_BEGIN
 90
        0
 91
        0
 92
      512
 93
        0
300

 40
0.0
140
1.0
 94
        5
 62
     0
340
9872
144
0.25
309
CONTENTFORMAT_END
171
     0
 94
        0
309
TABLEFORMAT_END
  1
CELLSTYLE_BEGIN
 90
        1
 91
        1
300
_TITLE
309
CELLSTYLE_END
300
CELLSTYLE
  1
TABLEFORMAT_BEGIN
 90
        5
170
     1
 91
        0
 92
        0
 62
   257
 93
        1
300
CONTENTFORMAT
  1
CONTENTFORMAT_BEGIN
 90
        0
 91
        0
 92
      512
 93
        0
300

 40
0.0
140
1.0
 94
        5
 62
     0
340
9872
144
0.18
309
CONTENTFORMAT_END
171
     0
 94
        0
309
TABLEFORMAT_END
  1
CELLSTYLE_BEGIN
 90
        2
 91
        1
300
_HEADER
309
CELLSTYLE_END
300
CELLSTYLE
  1
TABLEFORMAT_BEGIN
 90
        5
170
     1
 91
        0
 92
        0
 62
   257
 93
        1
300
CONTENTFORMAT
  1
CONTENTFORMAT_BEGIN
 90
        0
 91
        0
 92
      512
 93
        0
300

 40
0.0
140
1.0
 94
        2
 62
     0
340
9872
144
0.18
309
CONTENTFORMAT_END
171
     0
 94
        0
309
TABLEFORMAT_END
  1
CELLSTYLE_BEGIN
 90
        3
 91
        2
300
_DATA
309
CELLSTYLE_END
  0
XRECORD
  5
9D26
102
{ACAD_REACTORS
330
9CEF
102
}
330
9CEF
100
AcDbXrecord
280
     1
102
ACAD_ROUNDTRIP_PRE2007_TABLESTYLE
 90
      512
 91
        0
  1

 92
      512
 93
        0
  2

 94
      512
 95
        0
  3

  0
XRECORD
  5
9D01
102
{ACAD_REACTORS
330
9D00
102
}
330
9D00
100
AcDbXrecord
280
     1
102
RTVSPost2010Prop28
280
     1
102
RTVSPost2010PropOp28
 70
     1
102
RTVSPost2010Prop29
280
     1
102
RTVSPost2010PropOp29
 70
     1
102
RTVSPost2010Prop30
280
     0
102
RTVSPost2010PropOp30
 70
     1
102
RTVSPost2010Prop31
280
     0
102
RTVSPost2010PropOp31
 70
     1
102
RTVSPost2010Prop32
280
     0
102
RTVSPost2010PropOp32
 70
     1
102
RTVSPost2010Prop33
280
     0
102
RTVSPost2010PropOp33
 70
     1
102
RTVSPost2010Prop34
280
     0
102
RTVSPost2010PropOp34
 70
     1
102
RTVSPost2010Prop35
280
     0
102
RTVSPost2010PropOp35
 70
     1
102
RTVSPost2010Prop36
280
     0
102
RTVSPost2010PropOp36
 70
     1
102
RTVSPost2010Prop37
 90
       50
102
RTVSPost2010PropOp37
 70
     1
102
RTVSPost2010Prop38
140
0.0
102
RTVSPost2010PropOp38
 70
     1
102
RTVSPost2010Prop39
140
1.0
102
RTVSPost2010PropOp39
 70
     1
102
RTVSPost2010Prop40
 90
        0
102
RTVSPost2010PropOp40
 70
     1
102
RTVSPost2010Prop41ColorIndex
 90
       18
102
RTVSPost2010Prop41ColorRGB
 90
        0
102
RTVSPost2010PropOp41
 70
     1
102
RTVSPost2010Prop42
 90
       50
102
RTVSPost2010PropOp42
 70
     1
102
RTVSPost2010Prop43
 90
        3
102
RTVSPost2010PropOp43
 70
     1
102
RTVSPost2010Prop44ColorIndex
 90
        5
102
RTVSPost2010Prop44ColorRGB
 90
      255
102
RTVSPost2010PropOp44
 70
     1
102
RTVSPost2010Prop45
280
     0
102
RTVSPost2010PropOp45
 70
     1
102
RTVSPost2010Prop46
 90
       50
102
RTVSPost2010PropOp46
 70
     1
102
RTVSPost2010Prop47
 90
       50
102
RTVSPost2010PropOp47
 70
     1
102
RTVSPost2010Prop48
 90
       50
102
RTVSPost2010PropOp48
 70
     1
102
RTVSPost2010Prop49
280
     0
102
RTVSPost2010PropOp49
 70
     1
102
RTVSPost2010Prop50
 90
       50
102
RTVSPost2010PropOp50
 70
     1
102
RTVSPost2010Prop51ColorIndex
 90
      256
102
RTVSPost2010Prop51ColorRGB
 90
-16777216
102
RTVSPost2010PropOp51
 70
     0
102
RTVSPost2010Prop52
140
1.0
102
RTVSPost2010PropOp52
 70
     0
102
RTVSPost2010Prop53
 90
        2
102
RTVSPost2010PropOp53
 70
     1
102
RTVSPost2010Prop54
  1
strokes_ogs.tif
102
RTVSPost2010PropOp54
 70
     1
102
RTVSPost2010Prop55
280
     0
102
RTVSPost2010PropOp55
 70
     1
102
RTVSPost2010Prop56
140
1.0
102
RTVSPost2010PropOp56
 70
     1
102
RTVSPost2010Prop57
140
1.0
102
RTVSPost2010PropOp57
 70
     1
102
RTVSPropertyOp0
 70
     1
102
RTVSPropertyOp1
 70
     1
102
RTVSPropertyOp2
 70
     1
102
RTVSPropertyOp3
 70
     1
102
RTVSPropertyOp4
 70
     1
102
RTVSPropertyOp5
 70
     1
102
RTVSPropertyOp6
 70
     1
102
RTVSPropertyOp7
 70
     1
102
RTVSPropertyOp8
 70
     1
102
RTVSPropertyOp9
 70
     1
102
RTVSPropertyOp10
 70
     1
102
RTVSPropertyOp11
 70
     1
102
RTVSPropertyOp12
 70
     1
102
RTVSPropertyOp13
 70
     1
102
RTVSPropertyOp14
 70
     1
102
RTVSPropertyOp15
 70
     1
102
RTVSPropertyOp16
 70
     1
102
RTVSPropertyOp17
 70
     1
102
RTVSPropertyOp18
 70
     1
102
RTVSPropertyOp19
 70
     1
102
RTVSPropertyOp20
 70
     1
102
RTVSPropertyOp21
 70
     1
102
RTVSPropertyOp22
 70
     1
102
RTVSPropertyOp23
 70
     1
102
RTVSPropertyOp24
 70
     1
102
RTVSPropertyOp25
 70
     1
102
RTVSPropertyOp26
 70
     1
102
RTVSPropertyOp27
 70
     1
102
RTVSPropertyOp28
 70
     1
102
RTVSPropertyOp29
 70
     1
102
RTVSPropertyOp30
 70
     1
102
RTVSPropertyOp31
 70
     1
102
RTVSPropertyOp32
 70
     1
102
RTVSPropertyOp33
 70
     1
102
RTVSPropertyOp34
 70
     1
102
RTVSPropertyOp35
 70
     1
102
RTVSPropertyOp36
 70
     1
102
RTVSPropertyOp37
 70
     1
102
RTVSPropertyOp38
 70
     1
102
RTVSPropertyOp39
 70
     1
102
RTVSPropertyOp40
 70
     1
102
RTVSPropertyOp41
 70
     1
102
RTVSPropertyOp42
 70
     1
102
RTVSPropertyOp43
 70
     1
102
RTVSPropertyOp44
 70
     1
102
RTVSPropertyOp45
 70
     1
102
RTVSPropertyOp46
 70
     1
102
RTVSPropertyOp47
 70
     1
102
RTVSPropertyOp48
 70
     1
102
RTVSPropertyOp49
 70
     1
102
RTVSPropertyOp50
 70
     1
102
RTVSPropertyOp51
 70
     0
102
RTVSPropertyOp52
 70
     0
102
RTVSPropertyOp53
 70
     1
102
RTVSPropertyOp54
 70
     1
102
RTVSPropertyOp55
 70
     1
102
RTVSPropertyOp56
 70
     1
102
RTVSPropertyOp57
 70
     1
102
RTVSPropertyOp58
 70
     1
102
RTVSPropertyOp59
 70
     1
102
RTVSPropertyOp60
 70
     1
102
RTVSPropertyOp61
 70
     1
102
RTVSPropertyOp62
 70
     1
  0
XRECORD
  5
9CFF
102
{ACAD_REACTORS
330
9CFE
102
}
330
9CFE
100
AcDbXrecord
280
     1
102
RTVSPost2010Prop28
280
     0
102
RTVSPost2010PropOp28
 70
     1
102
RTVSPost2010Prop29
280
     1
102
RTVSPost2010PropOp29
 70
     1
102
RTVSPost2010Prop30
280
     1
102
RTVSPost2010PropOp30
 70
     1
102
RTVSPost2010Prop31
280
     0
102
RTVSPost2010PropOp31
 70
     1
102
RTVSPost2010Prop32
280
     0
102
RTVSPost2010PropOp32
 70
     1
102
RTVSPost2010Prop33
280
     0
102
RTVSPost2010PropOp33
 70
     1
102
RTVSPost2010Prop34
280
     0
102
RTVSPost2010PropOp34
 70
     1
102
RTVSPost2010Prop35
280
     0
102
RTVSPost2010PropOp35
 70
     1
102
RTVSPost2010Prop36
280
     0
102
RTVSPost2010PropOp36
 70
     1
102
RTVSPost2010Prop37
 90
       50
102
RTVSPost2010PropOp37
 70
     1
102
RTVSPost2010Prop38
140
0.0
102
RTVSPost2010PropOp38
 70
     1
102
RTVSPost2010Prop39
140
1.0
102
RTVSPost2010PropOp39
 70
     1
102
RTVSPost2010Prop40
 90
        0
102
RTVSPost2010PropOp40
 70
     1
102
RTVSPost2010Prop41ColorIndex
 90
       18
102
RTVSPost2010Prop41ColorRGB
 90
        0
102
RTVSPost2010PropOp41
 70
     1
102
RTVSPost2010Prop42
 90
       50
102
RTVSPost2010PropOp42
 70
     1
102
RTVSPost2010Prop43
 90
        3
102
RTVSPost2010PropOp43
 70
     1
102
RTVSPost2010Prop44ColorIndex
 90
        5
102
RTVSPost2010Prop44ColorRGB
 90
      255
102
RTVSPost2010PropOp44
 70
     1
102
RTVSPost2010Prop45
280
     0
102
RTVSPost2010PropOp45
 70
     1
102
RTVSPost2010Prop46
 90
       50
102
RTVSPost2010PropOp46
 70
     1
102
RTVSPost2010Prop47
 90
       50
102
RTVSPost2010PropOp47
 70
     1
102
RTVSPost2010Prop48
 90
       50
102
RTVSPost2010PropOp48
 70
     1
102
RTVSPost2010Prop49
280
     0
102
RTVSPost2010PropOp49
 70
     1
102
RTVSPost2010Prop50
 90
       50
102
RTVSPost2010PropOp50
 70
     1
102
RTVSPost2010Prop51ColorIndex
 90
      256
102
RTVSPost2010Prop51ColorRGB
 90
-16777216
102
RTVSPost2010PropOp51
 70
     0
102
RTVSPost2010Prop52
140
1.0
102
RTVSPost2010PropOp52
 70
     0
102
RTVSPost2010Prop53
 90
        2
102
RTVSPost2010PropOp53
 70
     1
102
RTVSPost2010Prop54
  1
strokes_ogs.tif
102
RTVSPost2010PropOp54
 70
     1
102
RTVSPost2010Prop55
280
     0
102
RTVSPost2010PropOp55
 70
     1
102
RTVSPost2010Prop56
140
1.0
102
RTVSPost2010PropOp56
 70
     1
102
RTVSPost2010Prop57
140
1.0
102
RTVSPost2010PropOp57
 70
     1
102
RTVSPropertyOp0
 70
     1
102
RTVSPropertyOp1
 70
     1
102
RTVSPropertyOp2
 70
     1
102
RTVSPropertyOp3
 70
     1
102
RTVSPropertyOp4
 70
     1
102
RTVSPropertyOp5
 70
     1
102
RTVSPropertyOp6
 70
     1
102
RTVSPropertyOp7
 70
     1
102
RTVSPropertyOp8
 70
     1
102
RTVSPropertyOp9
 70
     1
102
RTVSPropertyOp10
 70
     1
102
RTVSPropertyOp11
 70
     1
102
RTVSPropertyOp12
 70
     1
102
RTVSPropertyOp13
 70
     1
102
RTVSPropertyOp14
 70
     1
102
RTVSPropertyOp15
 70
     1
102
RTVSPropertyOp16
 70
     1
102
RTVSPropertyOp17
 70
     1
102
RTVSPropertyOp18
 70
     1
102
RTVSPropertyOp19
 70
     1
102
RTVSPropertyOp20
 70
     1
102
RTVSPropertyOp21
 70
     1
102
RTVSPropertyOp22
 70
     1
102
RTVSPropertyOp23
 70
     1
102
RTVSPropertyOp24
 70
     1
102
RTVSPropertyOp25
 70
     1
102
RTVSPropertyOp26
 70
     1
102
RTVSPropertyOp27
 70
     1
102
RTVSPropertyOp28
 70
     1
102
RTVSPropertyOp29
 70
     1
102
RTVSPropertyOp30
 70
     1
102
RTVSPropertyOp31
 70
     1
102
RTVSPropertyOp32
 70
     1
102
RTVSPropertyOp33
 70
     1
102
RTVSPropertyOp34
 70
     1
102
RTVSPropertyOp35
 70
     1
102
RTVSPropertyOp36
 70
     1
102
RTVSPropertyOp37
 70
     1
102
RTVSPropertyOp38
 70
     1
102
RTVSPropertyOp39
 70
     1
102
RTVSPropertyOp40
 70
     1
102
RTVSPropertyOp41
 70
     1
102
RTVSPropertyOp42
 70
     1
102
RTVSPropertyOp43
 70
     1
102
RTVSPropertyOp44
 70
     1
102
RTVSPropertyOp45
 70
     1
102
RTVSPropertyOp46
 70
     1
102
RTVSPropertyOp47
 70
     1
102
RTVSPropertyOp48
 70
     1
102
RTVSPropertyOp49
 70
     1
102
RTVSPropertyOp50
 70
     1
102
RTVSPropertyOp51
 70
     0
102
RTVSPropertyOp52
 70
     0
102
RTVSPropertyOp53
 70
     1
102
RTVSPropertyOp54
 70
     1
102
RTVSPropertyOp55
 70
     1
102
RTVSPropertyOp56
 70
     1
102
RTVSPropertyOp57
 70
     1
102
RTVSPropertyOp58
 70
     1
102
RTVSPropertyOp59
 70
     1
102
RTVSPropertyOp60
 70
     1
102
RTVSPropertyOp61
 70
     1
102
RTVSPropertyOp62
 70
     1
  0
XRECORD
  5
9D0D
102
{ACAD_REACTORS
330
9D0C
102
}
330
9D0C
100
AcDbXrecord
280
     1
102
RTVSPost2010Prop28
280
     0
102
RTVSPost2010PropOp28
 70
     1
102
RTVSPost2010Prop29
280
     1
102
RTVSPost2010PropOp29
 70
     1
102
RTVSPost2010Prop30
280
     1
102
RTVSPost2010PropOp30
 70
     1
102
RTVSPost2010Prop31
280
     0
102
RTVSPost2010PropOp31
 70
     1
102
RTVSPost2010Prop32
280
     0
102
RTVSPost2010PropOp32
 70
     1
102
RTVSPost2010Prop33
280
     0
102
RTVSPost2010PropOp33
 70
     1
102
RTVSPost2010Prop34
280
     0
102
RTVSPost2010PropOp34
 70
     1
102
RTVSPost2010Prop35
280
     0
102
RTVSPost2010PropOp35
 70
     1
102
RTVSPost2010Prop36
280
     0
102
RTVSPost2010PropOp36
 70
     1
102
RTVSPost2010Prop37
 90
       50
102
RTVSPost2010PropOp37
 70
     1
102
RTVSPost2010Prop38
140
0.0
102
RTVSPost2010PropOp38
 70
     1
102
RTVSPost2010Prop39
140
1.0
102
RTVSPost2010PropOp39
 70
     1
102
RTVSPost2010Prop40
 90
        0
102
RTVSPost2010PropOp40
 70
     1
102
RTVSPost2010Prop41ColorIndex
 90
       18
102
RTVSPost2010Prop41ColorRGB
 90
        0
102
RTVSPost2010PropOp41
 70
     1
102
RTVSPost2010Prop42
 90
       50
102
RTVSPost2010PropOp42
 70
     1
102
RTVSPost2010Prop43
 90
        3
102
RTVSPost2010PropOp43
 70
     1
102
RTVSPost2010Prop44ColorIndex
 90
        5
102
RTVSPost2010Prop44ColorRGB
 90
      255
102
RTVSPost2010PropOp44
 70
     1
102
RTVSPost2010Prop45
280
     0
102
RTVSPost2010PropOp45
 70
     1
102
RTVSPost2010Prop46
 90
       50
102
RTVSPost2010PropOp46
 70
     1
102
RTVSPost2010Prop47
 90
       50
102
RTVSPost2010PropOp47
 70
     1
102
RTVSPost2010Prop48
 90
       50
102
RTVSPost2010PropOp48
 70
     1
102
RTVSPost2010Prop49
280
     0
102
RTVSPost2010PropOp49
 70
     1
102
RTVSPost2010Prop50
 90
       50
102
RTVSPost2010PropOp50
 70
     1
102
RTVSPost2010Prop51ColorIndex
 90
      256
102
RTVSPost2010Prop51ColorRGB
 90
-16777216
102
RTVSPost2010PropOp51
 70
     0
102
RTVSPost2010Prop52
140
1.0
102
RTVSPost2010PropOp52
 70
     0
102
RTVSPost2010Prop53
 90
        2
102
RTVSPost2010PropOp53
 70
     1
102
RTVSPost2010Prop54
  1
strokes_ogs.tif
102
RTVSPost2010PropOp54
 70
     1
102
RTVSPost2010Prop55
280
     0
102
RTVSPost2010PropOp55
 70
     1
102
RTVSPost2010Prop56
140
1.0
102
RTVSPost2010PropOp56
 70
     1
102
RTVSPost2010Prop57
140
1.0
102
RTVSPost2010PropOp57
 70
     1
102
RTVSPropertyOp0
 70
     1
102
RTVSPropertyOp1
 70
     1
102
RTVSPropertyOp2
 70
     1
102
RTVSPropertyOp3
 70
     1
102
RTVSPropertyOp4
 70
     1
102
RTVSPropertyOp5
 70
     1
102
RTVSPropertyOp6
 70
     1
102
RTVSPropertyOp7
 70
     1
102
RTVSPropertyOp8
 70
     1
102
RTVSPropertyOp9
 70
     1
102
RTVSPropertyOp10
 70
     1
102
RTVSPropertyOp11
 70
     1
102
RTVSPropertyOp12
 70
     1
102
RTVSPropertyOp13
 70
     1
102
RTVSPropertyOp14
 70
     1
102
RTVSPropertyOp15
 70
     1
102
RTVSPropertyOp16
 70
     1
102
RTVSPropertyOp17
 70
     1
102
RTVSPropertyOp18
 70
     1
102
RTVSPropertyOp19
 70
     1
102
RTVSPropertyOp20
 70
     1
102
RTVSPropertyOp21
 70
     1
102
RTVSPropertyOp22
 70
     1
102
RTVSPropertyOp23
 70
     1
102
RTVSPropertyOp24
 70
     1
102
RTVSPropertyOp25
 70
     1
102
RTVSPropertyOp26
 70
     1
102
RTVSPropertyOp27
 70
     1
102
RTVSPropertyOp28
 70
     1
102
RTVSPropertyOp29
 70
     1
102
RTVSPropertyOp30
 70
     1
102
RTVSPropertyOp31
 70
     1
102
RTVSPropertyOp32
 70
     1
102
RTVSPropertyOp33
 70
     1
102
RTVSPropertyOp34
 70
     1
102
RTVSPropertyOp35
 70
     1
102
RTVSPropertyOp36
 70
     1
102
RTVSPropertyOp37
 70
     1
102
RTVSPropertyOp38
 70
     1
102
RTVSPropertyOp39
 70
     1
102
RTVSPropertyOp40
 70
     1
102
RTVSPropertyOp41
 70
     1
102
RTVSPropertyOp42
 70
     1
102
RTVSPropertyOp43
 70
     1
102
RTVSPropertyOp44
 70
     1
102
RTVSPropertyOp45
 70
     1
102
RTVSPropertyOp46
 70
     1
102
RTVSPropertyOp47
 70
     1
102
RTVSPropertyOp48
 70
     1
102
RTVSPropertyOp49
 70
     1
102
RTVSPropertyOp50
 70
     1
102
RTVSPropertyOp51
 70
     0
102
RTVSPropertyOp52
 70
     0
102
RTVSPropertyOp53
 70
     1
102
RTVSPropertyOp54
 70
     1
102
RTVSPropertyOp55
 70
     1
102
RTVSPropertyOp56
 70
     1
102
RTVSPropertyOp57
 70
     1
102
RTVSPropertyOp58
 70
     1
102
RTVSPropertyOp59
 70
     1
102
RTVSPropertyOp60
 70
     1
102
RTVSPropertyOp61
 70
     1
102
RTVSPropertyOp62
 70
     1
  0
XRECORD
  5
9D15
102
{ACAD_REACTORS
330
9D14
102
}
330
9D14
100
AcDbXrecord
280
     1
102
RTVSPost2010Prop28
280
     0
102
RTVSPost2010PropOp28
 70
     1
102
RTVSPost2010Prop29
280
     1
102
RTVSPost2010PropOp29
 70
     1
102
RTVSPost2010Prop30
280
     1
102
RTVSPost2010PropOp30
 70
     1
102
RTVSPost2010Prop31
280
     0
102
RTVSPost2010PropOp31
 70
     1
102
RTVSPost2010Prop32
280
     0
102
RTVSPost2010PropOp32
 70
     1
102
RTVSPost2010Prop33
280
     0
102
RTVSPost2010PropOp33
 70
     1
102
RTVSPost2010Prop34
280
     0
102
RTVSPost2010PropOp34
 70
     1
102
RTVSPost2010Prop35
280
     0
102
RTVSPost2010PropOp35
 70
     1
102
RTVSPost2010Prop36
280
     0
102
RTVSPost2010PropOp36
 70
     1
102
RTVSPost2010Prop37
 90
       50
102
RTVSPost2010PropOp37
 70
     1
102
RTVSPost2010Prop38
140
0.0
102
RTVSPost2010PropOp38
 70
     1
102
RTVSPost2010Prop39
140
1.0
102
RTVSPost2010PropOp39
 70
     1
102
RTVSPost2010Prop40
 90
        0
102
RTVSPost2010PropOp40
 70
     1
102
RTVSPost2010Prop41ColorIndex
 90
       18
102
RTVSPost2010Prop41ColorRGB
 90
        0
102
RTVSPost2010PropOp41
 70
     1
102
RTVSPost2010Prop42
 90
       50
102
RTVSPost2010PropOp42
 70
     1
102
RTVSPost2010Prop43
 90
        3
102
RTVSPost2010PropOp43
 70
     1
102
RTVSPost2010Prop44ColorIndex
 90
        5
102
RTVSPost2010Prop44ColorRGB
 90
      255
102
RTVSPost2010PropOp44
 70
     1
102
RTVSPost2010Prop45
280
     0
102
RTVSPost2010PropOp45
 70
     1
102
RTVSPost2010Prop46
 90
       50
102
RTVSPost2010PropOp46
 70
     1
102
RTVSPost2010Prop47
 90
       50
102
RTVSPost2010PropOp47
 70
     1
102
RTVSPost2010Prop48
 90
       50
102
RTVSPost2010PropOp48
 70
     1
102
RTVSPost2010Prop49
280
     0
102
RTVSPost2010PropOp49
 70
     1
102
RTVSPost2010Prop50
 90
       50
102
RTVSPost2010PropOp50
 70
     1
102
RTVSPost2010Prop51ColorIndex
 90
      256
102
RTVSPost2010Prop51ColorRGB
 90
-16777216
102
RTVSPost2010PropOp51
 70
     0
102
RTVSPost2010Prop52
140
1.0
102
RTVSPost2010PropOp52
 70
     0
102
RTVSPost2010Prop53
 90
        2
102
RTVSPost2010PropOp53
 70
     1
102
RTVSPost2010Prop54
  1
strokes_ogs.tif
102
RTVSPost2010PropOp54
 70
     1
102
RTVSPost2010Prop55
280
     0
102
RTVSPost2010PropOp55
 70
     1
102
RTVSPost2010Prop56
140
1.0
102
RTVSPost2010PropOp56
 70
     1
102
RTVSPost2010Prop57
140
1.0
102
RTVSPost2010PropOp57
 70
     1
102
RTVSPropertyOp0
 70
     1
102
RTVSPropertyOp1
 70
     1
102
RTVSPropertyOp2
 70
     1
102
RTVSPropertyOp3
 70
     1
102
RTVSPropertyOp4
 70
     1
102
RTVSPropertyOp5
 70
     1
102
RTVSPropertyOp6
 70
     1
102
RTVSPropertyOp7
 70
     1
102
RTVSPropertyOp8
 70
     1
102
RTVSPropertyOp9
 70
     1
102
RTVSPropertyOp10
 70
     1
102
RTVSPropertyOp11
 70
     1
102
RTVSPropertyOp12
 70
     1
102
RTVSPropertyOp13
 70
     1
102
RTVSPropertyOp14
 70
     1
102
RTVSPropertyOp15
 70
     1
102
RTVSPropertyOp16
 70
     1
102
RTVSPropertyOp17
 70
     1
102
RTVSPropertyOp18
 70
     1
102
RTVSPropertyOp19
 70
     1
102
RTVSPropertyOp20
 70
     1
102
RTVSPropertyOp21
 70
     1
102
RTVSPropertyOp22
 70
     1
102
RTVSPropertyOp23
 70
     1
102
RTVSPropertyOp24
 70
     1
102
RTVSPropertyOp25
 70
     1
102
RTVSPropertyOp26
 70
     1
102
RTVSPropertyOp27
 70
     1
102
RTVSPropertyOp28
 70
     1
102
RTVSPropertyOp29
 70
     1
102
RTVSPropertyOp30
 70
     1
102
RTVSPropertyOp31
 70
     1
102
RTVSPropertyOp32
 70
     1
102
RTVSPropertyOp33
 70
     1
102
RTVSPropertyOp34
 70
     1
102
RTVSPropertyOp35
 70
     1
102
RTVSPropertyOp36
 70
     1
102
RTVSPropertyOp37
 70
     1
102
RTVSPropertyOp38
 70
     1
102
RTVSPropertyOp39
 70
     1
102
RTVSPropertyOp40
 70
     1
102
RTVSPropertyOp41
 70
     1
102
RTVSPropertyOp42
 70
     1
102
RTVSPropertyOp43
 70
     1
102
RTVSPropertyOp44
 70
     1
102
RTVSPropertyOp45
 70
     1
102
RTVSPropertyOp46
 70
     1
102
RTVSPropertyOp47
 70
     1
102
RTVSPropertyOp48
 70
     1
102
RTVSPropertyOp49
 70
     1
102
RTVSPropertyOp50
 70
     1
102
RTVSPropertyOp51
 70
     0
102
RTVSPropertyOp52
 70
     0
102
RTVSPropertyOp53
 70
     1
102
RTVSPropertyOp54
 70
     1
102
RTVSPropertyOp55
 70
     1
102
RTVSPropertyOp56
 70
     1
102
RTVSPropertyOp57
 70
     1
102
RTVSPropertyOp58
 70
     1
102
RTVSPropertyOp59
 70
     1
102
RTVSPropertyOp60
 70
     1
102
RTVSPropertyOp61
 70
     1
102
RTVSPropertyOp62
 70
     1
  0
XRECORD
  5
9D07
102
{ACAD_REACTORS
330
9D06
102
}
330
9D06
100
AcDbXrecord
280
     1
102
RTVSPost2010Prop28
280
     0
102
RTVSPost2010PropOp28
 70
     1
102
RTVSPost2010Prop29
280
     1
102
RTVSPost2010PropOp29
 70
     1
102
RTVSPost2010Prop30
280
     1
102
RTVSPost2010PropOp30
 70
     1
102
RTVSPost2010Prop31
280
     0
102
RTVSPost2010PropOp31
 70
     1
102
RTVSPost2010Prop32
280
     0
102
RTVSPost2010PropOp32
 70
     1
102
RTVSPost2010Prop33
280
     0
102
RTVSPost2010PropOp33
 70
     1
102
RTVSPost2010Prop34
280
     0
102
RTVSPost2010PropOp34
 70
     1
102
RTVSPost2010Prop35
280
     0
102
RTVSPost2010PropOp35
 70
     1
102
RTVSPost2010Prop36
280
     0
102
RTVSPost2010PropOp36
 70
     1
102
RTVSPost2010Prop37
 90
       50
102
RTVSPost2010PropOp37
 70
     1
102
RTVSPost2010Prop38
140
0.0
102
RTVSPost2010PropOp38
 70
     1
102
RTVSPost2010Prop39
140
1.0
102
RTVSPost2010PropOp39
 70
     1
102
RTVSPost2010Prop40
 90
        0
102
RTVSPost2010PropOp40
 70
     1
102
RTVSPost2010Prop41ColorIndex
 90
       18
102
RTVSPost2010Prop41ColorRGB
 90
        0
102
RTVSPost2010PropOp41
 70
     1
102
RTVSPost2010Prop42
 90
       50
102
RTVSPost2010PropOp42
 70
     1
102
RTVSPost2010Prop43
 90
        3
102
RTVSPost2010PropOp43
 70
     1
102
RTVSPost2010Prop44ColorIndex
 90
        5
102
RTVSPost2010Prop44ColorRGB
 90
      255
102
RTVSPost2010PropOp44
 70
     1
102
RTVSPost2010Prop45
280
     0
102
RTVSPost2010PropOp45
 70
     1
102
RTVSPost2010Prop46
 90
       50
102
RTVSPost2010PropOp46
 70
     1
102
RTVSPost2010Prop47
 90
       50
102
RTVSPost2010PropOp47
 70
     1
102
RTVSPost2010Prop48
 90
       50
102
RTVSPost2010PropOp48
 70
     1
102
RTVSPost2010Prop49
280
     0
102
RTVSPost2010PropOp49
 70
     1
102
RTVSPost2010Prop50
 90
       50
102
RTVSPost2010PropOp50
 70
     1
102
RTVSPost2010Prop51ColorIndex
 90
      256
102
RTVSPost2010Prop51ColorRGB
 90
-16777216
102
RTVSPost2010PropOp51
 70
     0
102
RTVSPost2010Prop52
140
1.0
102
RTVSPost2010PropOp52
 70
     0
102
RTVSPost2010Prop53
 90
        2
102
RTVSPost2010PropOp53
 70
     1
102
RTVSPost2010Prop54
  1
strokes_ogs.tif
102
RTVSPost2010PropOp54
 70
     1
102
RTVSPost2010Prop55
280
     0
102
RTVSPost2010PropOp55
 70
     1
102
RTVSPost2010Prop56
140
1.0
102
RTVSPost2010PropOp56
 70
     1
102
RTVSPost2010Prop57
140
1.0
102
RTVSPost2010PropOp57
 70
     1
102
RTVSPropertyOp0
 70
     1
102
RTVSPropertyOp1
 70
     1
102
RTVSPropertyOp2
 70
     1
102
RTVSPropertyOp3
 70
     1
102
RTVSPropertyOp4
 70
     1
102
RTVSPropertyOp5
 70
     1
102
RTVSPropertyOp6
 70
     1
102
RTVSPropertyOp7
 70
     1
102
RTVSPropertyOp8
 70
     1
102
RTVSPropertyOp9
 70
     1
102
RTVSPropertyOp10
 70
     1
102
RTVSPropertyOp11
 70
     1
102
RTVSPropertyOp12
 70
     1
102
RTVSPropertyOp13
 70
     1
102
RTVSPropertyOp14
 70
     1
102
RTVSPropertyOp15
 70
     1
102
RTVSPropertyOp16
 70
     1
102
RTVSPropertyOp17
 70
     1
102
RTVSPropertyOp18
 70
     1
102
RTVSPropertyOp19
 70
     1
102
RTVSPropertyOp20
 70
     1
102
RTVSPropertyOp21
 70
     1
102
RTVSPropertyOp22
 70
     1
102
RTVSPropertyOp23
 70
     1
102
RTVSPropertyOp24
 70
     1
102
RTVSPropertyOp25
 70
     1
102
RTVSPropertyOp26
 70
     1
102
RTVSPropertyOp27
 70
     1
102
RTVSPropertyOp28
 70
     1
102
RTVSPropertyOp29
 70
     1
102
RTVSPropertyOp30
 70
     1
102
RTVSPropertyOp31
 70
     1
102
RTVSPropertyOp32
 70
     1
102
RTVSPropertyOp33
 70
     1
102
RTVSPropertyOp34
 70
     1
102
RTVSPropertyOp35
 70
     1
102
RTVSPropertyOp36
 70
     1
102
RTVSPropertyOp37
 70
     1
102
RTVSPropertyOp38
 70
     1
102
RTVSPropertyOp39
 70
     1
102
RTVSPropertyOp40
 70
     1
102
RTVSPropertyOp41
 70
     1
102
RTVSPropertyOp42
 70
     1
102
RTVSPropertyOp43
 70
     1
102
RTVSPropertyOp44
 70
     1
102
RTVSPropertyOp45
 70
     1
102
RTVSPropertyOp46
 70
     1
102
RTVSPropertyOp47
 70
     1
102
RTVSPropertyOp48
 70
     1
102
RTVSPropertyOp49
 70
     1
102
RTVSPropertyOp50
 70
     1
102
RTVSPropertyOp51
 70
     0
102
RTVSPropertyOp52
 70
     0
102
RTVSPropertyOp53
 70
     1
102
RTVSPropertyOp54
 70
     1
102
RTVSPropertyOp55
 70
     1
102
RTVSPropertyOp56
 70
     1
102
RTVSPropertyOp57
 70
     1
102
RTVSPropertyOp58
 70
     1
102
RTVSPropertyOp59
 70
     1
102
RTVSPropertyOp60
 70
     1
102
RTVSPropertyOp61
 70
     1
102
RTVSPropertyOp62
 70
     1
  0
XRECORD
  5
9D0B
102
{ACAD_REACTORS
330
9D0A
102
}
330
9D0A
100
AcDbXrecord
280
     1
102
RTVSPost2010Prop28
280
     0
102
RTVSPost2010PropOp28
 70
     1
102
RTVSPost2010Prop29
280
     1
102
RTVSPost2010PropOp29
 70
     1
102
RTVSPost2010Prop30
280
     1
102
RTVSPost2010PropOp30
 70
     1
102
RTVSPost2010Prop31
280
     0
102
RTVSPost2010PropOp31
 70
     1
102
RTVSPost2010Prop32
280
     0
102
RTVSPost2010PropOp32
 70
     1
102
RTVSPost2010Prop33
280
     0
102
RTVSPost2010PropOp33
 70
     1
102
RTVSPost2010Prop34
280
     0
102
RTVSPost2010PropOp34
 70
     1
102
RTVSPost2010Prop35
280
     0
102
RTVSPost2010PropOp35
 70
     1
102
RTVSPost2010Prop36
280
     0
102
RTVSPost2010PropOp36
 70
     1
102
RTVSPost2010Prop37
 90
       50
102
RTVSPost2010PropOp37
 70
     1
102
RTVSPost2010Prop38
140
0.0
102
RTVSPost2010PropOp38
 70
     1
102
RTVSPost2010Prop39
140
1.0
102
RTVSPost2010PropOp39
 70
     1
102
RTVSPost2010Prop40
 90
        0
102
RTVSPost2010PropOp40
 70
     1
102
RTVSPost2010Prop41ColorIndex
 90
       18
102
RTVSPost2010Prop41ColorRGB
 90
        0
102
RTVSPost2010PropOp41
 70
     1
102
RTVSPost2010Prop42
 90
       50
102
RTVSPost2010PropOp42
 70
     1
102
RTVSPost2010Prop43
 90
        3
102
RTVSPost2010PropOp43
 70
     1
102
RTVSPost2010Prop44ColorIndex
 90
        5
102
RTVSPost2010Prop44ColorRGB
 90
      255
102
RTVSPost2010PropOp44
 70
     1
102
RTVSPost2010Prop45
280
     0
102
RTVSPost2010PropOp45
 70
     1
102
RTVSPost2010Prop46
 90
       50
102
RTVSPost2010PropOp46
 70
     1
102
RTVSPost2010Prop47
 90
       50
102
RTVSPost2010PropOp47
 70
     1
102
RTVSPost2010Prop48
 90
       50
102
RTVSPost2010PropOp48
 70
     1
102
RTVSPost2010Prop49
280
     0
102
RTVSPost2010PropOp49
 70
     1
102
RTVSPost2010Prop50
 90
       50
102
RTVSPost2010PropOp50
 70
     1
102
RTVSPost2010Prop51ColorIndex
 90
      256
102
RTVSPost2010Prop51ColorRGB
 90
-16777216
102
RTVSPost2010PropOp51
 70
     0
102
RTVSPost2010Prop52
140
1.0
102
RTVSPost2010PropOp52
 70
     0
102
RTVSPost2010Prop53
 90
        2
102
RTVSPost2010PropOp53
 70
     1
102
RTVSPost2010Prop54
  1
strokes_ogs.tif
102
RTVSPost2010PropOp54
 70
     1
102
RTVSPost2010Prop55
280
     0
102
RTVSPost2010PropOp55
 70
     1
102
RTVSPost2010Prop56
140
1.0
102
RTVSPost2010PropOp56
 70
     1
102
RTVSPost2010Prop57
140
1.0
102
RTVSPost2010PropOp57
 70
     1
102
RTVSPropertyOp0
 70
     1
102
RTVSPropertyOp1
 70
     1
102
RTVSPropertyOp2
 70
     1
102
RTVSPropertyOp3
 70
     1
102
RTVSPropertyOp4
 70
     1
102
RTVSPropertyOp5
 70
     1
102
RTVSPropertyOp6
 70
     1
102
RTVSPropertyOp7
 70
     1
102
RTVSPropertyOp8
 70
     1
102
RTVSPropertyOp9
 70
     1
102
RTVSPropertyOp10
 70
     1
102
RTVSPropertyOp11
 70
     1
102
RTVSPropertyOp12
 70
     1
102
RTVSPropertyOp13
 70
     1
102
RTVSPropertyOp14
 70
     1
102
RTVSPropertyOp15
 70
     1
102
RTVSPropertyOp16
 70
     1
102
RTVSPropertyOp17
 70
     1
102
RTVSPropertyOp18
 70
     1
102
RTVSPropertyOp19
 70
     1
102
RTVSPropertyOp20
 70
     1
102
RTVSPropertyOp21
 70
     1
102
RTVSPropertyOp22
 70
     1
102
RTVSPropertyOp23
 70
     1
102
RTVSPropertyOp24
 70
     1
102
RTVSPropertyOp25
 70
     1
102
RTVSPropertyOp26
 70
     1
102
RTVSPropertyOp27
 70
     1
102
RTVSPropertyOp28
 70
     1
102
RTVSPropertyOp29
 70
     1
102
RTVSPropertyOp30
 70
     1
102
RTVSPropertyOp31
 70
     1
102
RTVSPropertyOp32
 70
     1
102
RTVSPropertyOp33
 70
     1
102
RTVSPropertyOp34
 70
     1
102
RTVSPropertyOp35
 70
     1
102
RTVSPropertyOp36
 70
     1
102
RTVSPropertyOp37
 70
     1
102
RTVSPropertyOp38
 70
     1
102
RTVSPropertyOp39
 70
     1
102
RTVSPropertyOp40
 70
     1
102
RTVSPropertyOp41
 70
     1
102
RTVSPropertyOp42
 70
     1
102
RTVSPropertyOp43
 70
     1
102
RTVSPropertyOp44
 70
     1
102
RTVSPropertyOp45
 70
     1
102
RTVSPropertyOp46
 70
     1
102
RTVSPropertyOp47
 70
     1
102
RTVSPropertyOp48
 70
     1
102
RTVSPropertyOp49
 70
     1
102
RTVSPropertyOp50
 70
     1
102
RTVSPropertyOp51
 70
     0
102
RTVSPropertyOp52
 70
     0
102
RTVSPropertyOp53
 70
     1
102
RTVSPropertyOp54
 70
     1
102
RTVSPropertyOp55
 70
     1
102
RTVSPropertyOp56
 70
     1
102
RTVSPropertyOp57
 70
     1
102
RTVSPropertyOp58
 70
     1
102
RTVSPropertyOp59
 70
     1
102
RTVSPropertyOp60
 70
     1
102
RTVSPropertyOp61
 70
     1
102
RTVSPropertyOp62
 70
     1
  0
XRECORD
  5
9D25
102
{ACAD_REACTORS
330
9D24
102
}
330
9D24
100
AcDbXrecord
280
     1
102
RTVSPost2010Prop28
280
     0
102
RTVSPost2010PropOp28
 70
     1
102
RTVSPost2010Prop29
280
     1
102
RTVSPost2010PropOp29
 70
     1
102
RTVSPost2010Prop30
280
     1
102
RTVSPost2010PropOp30
 70
     1
102
RTVSPost2010Prop31
280
     0
102
RTVSPost2010PropOp31
 70
     1
102
RTVSPost2010Prop32
280
     0
102
RTVSPost2010PropOp32
 70
     1
102
RTVSPost2010Prop33
280
     0
102
RTVSPost2010PropOp33
 70
     1
102
RTVSPost2010Prop34
280
     0
102
RTVSPost2010PropOp34
 70
     1
102
RTVSPost2010Prop35
280
     0
102
RTVSPost2010PropOp35
 70
     1
102
RTVSPost2010Prop36
280
     0
102
RTVSPost2010PropOp36
 70
     1
102
RTVSPost2010Prop37
 90
       50
102
RTVSPost2010PropOp37
 70
     0
102
RTVSPost2010Prop38
140
0.0
102
RTVSPost2010PropOp38
 70
     0
102
RTVSPost2010Prop39
140
1.0
102
RTVSPost2010PropOp39
 70
     0
102
RTVSPost2010Prop40
 90
        0
102
RTVSPost2010PropOp40
 70
     0
102
RTVSPost2010Prop41ColorIndex
 90
       18
102
RTVSPost2010Prop41ColorRGB
 90
        0
102
RTVSPost2010PropOp41
 70
     0
102
RTVSPost2010Prop42
 90
       50
102
RTVSPost2010PropOp42
 70
     0
102
RTVSPost2010Prop43
 90
        3
102
RTVSPost2010PropOp43
 70
     0
102
RTVSPost2010Prop44ColorIndex
 90
        5
102
RTVSPost2010Prop44ColorRGB
 90
      255
102
RTVSPost2010PropOp44
 70
     0
102
RTVSPost2010Prop45
280
     0
102
RTVSPost2010PropOp45
 70
     1
102
RTVSPost2010Prop46
 90
       50
102
RTVSPost2010PropOp46
 70
     0
102
RTVSPost2010Prop47
 90
       50
102
RTVSPost2010PropOp47
 70
     0
102
RTVSPost2010Prop48
 90
       50
102
RTVSPost2010PropOp48
 70
     0
102
RTVSPost2010Prop49
280
     0
102
RTVSPost2010PropOp49
 70
     1
102
RTVSPost2010Prop50
 90
       50
102
RTVSPost2010PropOp50
 70
     0
102
RTVSPost2010Prop51ColorIndex
 90
      256
102
RTVSPost2010Prop51ColorRGB
 90
-16777216
102
RTVSPost2010PropOp51
 70
     0
102
RTVSPost2010Prop52
140
1.0
102
RTVSPost2010PropOp52
 70
     0
102
RTVSPost2010Prop53
 90
        2
102
RTVSPost2010PropOp53
 70
     0
102
RTVSPost2010Prop54
  1
strokes_ogs.tif
102
RTVSPost2010PropOp54
 70
     0
102
RTVSPost2010Prop55
280
     0
102
RTVSPost2010PropOp55
 70
     1
102
RTVSPost2010Prop56
140
1.0
102
RTVSPost2010PropOp56
 70
     0
102
RTVSPost2010Prop57
140
1.0
102
RTVSPost2010PropOp57
 70
     0
102
RTVSPropertyOp0
 70
     0
102
RTVSPropertyOp1
 70
     0
102
RTVSPropertyOp2
 70
     0
102
RTVSPropertyOp3
 70
     0
102
RTVSPropertyOp4
 70
     0
102
RTVSPropertyOp5
 70
     0
102
RTVSPropertyOp6
 70
     0
102
RTVSPropertyOp7
 70
     0
102
RTVSPropertyOp8
 70
     0
102
RTVSPropertyOp9
 70
     0
102
RTVSPropertyOp10
 70
     0
102
RTVSPropertyOp11
 70
     0
102
RTVSPropertyOp12
 70
     0
102
RTVSPropertyOp13
 70
     0
102
RTVSPropertyOp14
 70
     2
102
RTVSPropertyOp15
 70
     0
102
RTVSPropertyOp16
 70
     0
102
RTVSPropertyOp17
 70
     0
102
RTVSPropertyOp18
 70
     0
102
RTVSPropertyOp19
 70
     0
102
RTVSPropertyOp20
 70
     0
102
RTVSPropertyOp21
 70
     0
102
RTVSPropertyOp22
 70
     0
102
RTVSPropertyOp23
 70
     0
102
RTVSPropertyOp24
 70
     0
102
RTVSPropertyOp25
 70
     0
102
RTVSPropertyOp26
 70
     0
102
RTVSPropertyOp27
 70
     0
102
RTVSPropertyOp28
 70
     1
102
RTVSPropertyOp29
 70
     1
102
RTVSPropertyOp30
 70
     1
102
RTVSPropertyOp31
 70
     1
102
RTVSPropertyOp32
 70
     1
102
RTVSPropertyOp33
 70
     1
102
RTVSPropertyOp34
 70
     1
102
RTVSPropertyOp35
 70
     1
102
RTVSPropertyOp36
 70
     1
102
RTVSPropertyOp37
 70
     0
102
RTVSPropertyOp38
 70
     0
102
RTVSPropertyOp39
 70
     0
102
RTVSPropertyOp40
 70
     0
102
RTVSPropertyOp41
 70
     0
102
RTVSPropertyOp42
 70
     0
102
RTVSPropertyOp43
 70
     0
102
RTVSPropertyOp44
 70
     0
102
RTVSPropertyOp45
 70
     1
102
RTVSPropertyOp46
 70
     0
102
RTVSPropertyOp47
 70
     0
102
RTVSPropertyOp48
 70
     0
102
RTVSPropertyOp49
 70
     1
102
RTVSPropertyOp50
 70
     0
102
RTVSPropertyOp51
 70
     0
102
RTVSPropertyOp52
 70
     0
102
RTVSPropertyOp53
 70
     0
102
RTVSPropertyOp54
 70
     0
102
RTVSPropertyOp55
 70
     1
102
RTVSPropertyOp56
 70
     0
102
RTVSPropertyOp57
 70
     0
102
RTVSPropertyOp58
 70
     0
102
RTVSPropertyOp59
 70
     0
102
RTVSPropertyOp60
 70
     0
102
RTVSPropertyOp61
 70
     0
102
RTVSPropertyOp62
 70
     0
  0
XRECORD
  5
9D13
102
{ACAD_REACTORS
330
9D12
102
}
330
9D12
100
AcDbXrecord
280
     1
102
RTVSPost2010Prop28
280
     0
102
RTVSPost2010PropOp28
 70
     1
102
RTVSPost2010Prop29
280
     1
102
RTVSPost2010PropOp29
 70
     1
102
RTVSPost2010Prop30
280
     1
102
RTVSPost2010PropOp30
 70
     1
102
RTVSPost2010Prop31
280
     0
102
RTVSPost2010PropOp31
 70
     1
102
RTVSPost2010Prop32
280
     0
102
RTVSPost2010PropOp32
 70
     1
102
RTVSPost2010Prop33
280
     0
102
RTVSPost2010PropOp33
 70
     1
102
RTVSPost2010Prop34
280
     0
102
RTVSPost2010PropOp34
 70
     1
102
RTVSPost2010Prop35
280
     0
102
RTVSPost2010PropOp35
 70
     1
102
RTVSPost2010Prop36
280
     0
102
RTVSPost2010PropOp36
 70
     1
102
RTVSPost2010Prop37
 90
       50
102
RTVSPost2010PropOp37
 70
     1
102
RTVSPost2010Prop38
140
0.0
102
RTVSPost2010PropOp38
 70
     1
102
RTVSPost2010Prop39
140
1.0
102
RTVSPost2010PropOp39
 70
     1
102
RTVSPost2010Prop40
 90
        0
102
RTVSPost2010PropOp40
 70
     1
102
RTVSPost2010Prop41ColorIndex
 90
       18
102
RTVSPost2010Prop41ColorRGB
 90
        0
102
RTVSPost2010PropOp41
 70
     1
102
RTVSPost2010Prop42
 90
       50
102
RTVSPost2010PropOp42
 70
     1
102
RTVSPost2010Prop43
 90
        3
102
RTVSPost2010PropOp43
 70
     1
102
RTVSPost2010Prop44ColorIndex
 90
        5
102
RTVSPost2010Prop44ColorRGB
 90
      255
102
RTVSPost2010PropOp44
 70
     1
102
RTVSPost2010Prop45
280
     0
102
RTVSPost2010PropOp45
 70
     1
102
RTVSPost2010Prop46
 90
       50
102
RTVSPost2010PropOp46
 70
     1
102
RTVSPost2010Prop47
 90
       50
102
RTVSPost2010PropOp47
 70
     1
102
RTVSPost2010Prop48
 90
       50
102
RTVSPost2010PropOp48
 70
     1
102
RTVSPost2010Prop49
280
     0
102
RTVSPost2010PropOp49
 70
     1
102
RTVSPost2010Prop50
 90
       50
102
RTVSPost2010PropOp50
 70
     1
102
RTVSPost2010Prop51ColorIndex
 90
      256
102
RTVSPost2010Prop51ColorRGB
 90
-16777216
102
RTVSPost2010PropOp51
 70
     0
102
RTVSPost2010Prop52
140
1.0
102
RTVSPost2010PropOp52
 70
     0
102
RTVSPost2010Prop53
 90
        2
102
RTVSPost2010PropOp53
 70
     1
102
RTVSPost2010Prop54
  1
strokes_ogs.tif
102
RTVSPost2010PropOp54
 70
     1
102
RTVSPost2010Prop55
280
     0
102
RTVSPost2010PropOp55
 70
     1
102
RTVSPost2010Prop56
140
1.0
102
RTVSPost2010PropOp56
 70
     1
102
RTVSPost2010Prop57
140
1.0
102
RTVSPost2010PropOp57
 70
     1
102
RTVSPropertyOp0
 70
     1
102
RTVSPropertyOp1
 70
     1
102
RTVSPropertyOp2
 70
     1
102
RTVSPropertyOp3
 70
     1
102
RTVSPropertyOp4
 70
     1
102
RTVSPropertyOp5
 70
     1
102
RTVSPropertyOp6
 70
     1
102
RTVSPropertyOp7
 70
     1
102
RTVSPropertyOp8
 70
     1
102
RTVSPropertyOp9
 70
     1
102
RTVSPropertyOp10
 70
     1
102
RTVSPropertyOp11
 70
     1
102
RTVSPropertyOp12
 70
     1
102
RTVSPropertyOp13
 70
     1
102
RTVSPropertyOp14
 70
     1
102
RTVSPropertyOp15
 70
     1
102
RTVSPropertyOp16
 70
     1
102
RTVSPropertyOp17
 70
     1
102
RTVSPropertyOp18
 70
     1
102
RTVSPropertyOp19
 70
     1
102
RTVSPropertyOp20
 70
     1
102
RTVSPropertyOp21
 70
     1
102
RTVSPropertyOp22
 70
     1
102
RTVSPropertyOp23
 70
     1
102
RTVSPropertyOp24
 70
     1
102
RTVSPropertyOp25
 70
     1
102
RTVSPropertyOp26
 70
     1
102
RTVSPropertyOp27
 70
     1
102
RTVSPropertyOp28
 70
     1
102
RTVSPropertyOp29
 70
     1
102
RTVSPropertyOp30
 70
     1
102
RTVSPropertyOp31
 70
     1
102
RTVSPropertyOp32
 70
     1
102
RTVSPropertyOp33
 70
     1
102
RTVSPropertyOp34
 70
     1
102
RTVSPropertyOp35
 70
     1
102
RTVSPropertyOp36
 70
     1
102
RTVSPropertyOp37
 70
     1
102
RTVSPropertyOp38
 70
     1
102
RTVSPropertyOp39
 70
     1
102
RTVSPropertyOp40
 70
     1
102
RTVSPropertyOp41
 70
     1
102
RTVSPropertyOp42
 70
     1
102
RTVSPropertyOp43
 70
     1
102
RTVSPropertyOp44
 70
     1
102
RTVSPropertyOp45
 70
     1
102
RTVSPropertyOp46
 70
     1
102
RTVSPropertyOp47
 70
     1
102
RTVSPropertyOp48
 70
     1
102
RTVSPropertyOp49
 70
     1
102
RTVSPropertyOp50
 70
     1
102
RTVSPropertyOp51
 70
     0
102
RTVSPropertyOp52
 70
     0
102
RTVSPropertyOp53
 70
     1
102
RTVSPropertyOp54
 70
     1
102
RTVSPropertyOp55
 70
     1
102
RTVSPropertyOp56
 70
     1
102
RTVSPropertyOp57
 70
     1
102
RTVSPropertyOp58
 70
     1
102
RTVSPropertyOp59
 70
     1
102
RTVSPropertyOp60
 70
     1
102
RTVSPropertyOp61
 70
     1
102
RTVSPropertyOp62
 70
     1
  0
XRECORD
  5
9CF7
102
{ACAD_REACTORS
330
9CF6
102
}
330
9CF6
100
AcDbXrecord
280
     1
102
RTVSPost2010Prop28
280
     0
102
RTVSPost2010PropOp28
 70
     1
102
RTVSPost2010Prop29
280
     1
102
RTVSPost2010PropOp29
 70
     1
102
RTVSPost2010Prop30
280
     1
102
RTVSPost2010PropOp30
 70
     1
102
RTVSPost2010Prop31
280
     0
102
RTVSPost2010PropOp31
 70
     1
102
RTVSPost2010Prop32
280
     0
102
RTVSPost2010PropOp32
 70
     1
102
RTVSPost2010Prop33
280
     0
102
RTVSPost2010PropOp33
 70
     1
102
RTVSPost2010Prop34
280
     0
102
RTVSPost2010PropOp34
 70
     1
102
RTVSPost2010Prop35
280
     0
102
RTVSPost2010PropOp35
 70
     1
102
RTVSPost2010Prop36
280
     0
102
RTVSPost2010PropOp36
 70
     1
102
RTVSPost2010Prop37
 90
       50
102
RTVSPost2010PropOp37
 70
     1
102
RTVSPost2010Prop38
140
0.0
102
RTVSPost2010PropOp38
 70
     1
102
RTVSPost2010Prop39
140
1.0
102
RTVSPost2010PropOp39
 70
     1
102
RTVSPost2010Prop40
 90
        0
102
RTVSPost2010PropOp40
 70
     1
102
RTVSPost2010Prop41ColorIndex
 90
       18
102
RTVSPost2010Prop41ColorRGB
 90
        0
102
RTVSPost2010PropOp41
 70
     1
102
RTVSPost2010Prop42
 90
       50
102
RTVSPost2010PropOp42
 70
     1
102
RTVSPost2010Prop43
 90
        3
102
RTVSPost2010PropOp43
 70
     1
102
RTVSPost2010Prop44ColorIndex
 90
        5
102
RTVSPost2010Prop44ColorRGB
 90
      255
102
RTVSPost2010PropOp44
 70
     1
102
RTVSPost2010Prop45
280
     0
102
RTVSPost2010PropOp45
 70
     1
102
RTVSPost2010Prop46
 90
       50
102
RTVSPost2010PropOp46
 70
     1
102
RTVSPost2010Prop47
 90
       50
102
RTVSPost2010PropOp47
 70
     1
102
RTVSPost2010Prop48
 90
       50
102
RTVSPost2010PropOp48
 70
     1
102
RTVSPost2010Prop49
280
     0
102
RTVSPost2010PropOp49
 70
     1
102
RTVSPost2010Prop50
 90
       50
102
RTVSPost2010PropOp50
 70
     1
102
RTVSPost2010Prop51ColorIndex
 90
      256
102
RTVSPost2010Prop51ColorRGB
 90
-16777216
102
RTVSPost2010PropOp51
 70
     0
102
RTVSPost2010Prop52
140
1.0
102
RTVSPost2010PropOp52
 70
     0
102
RTVSPost2010Prop53
 90
        2
102
RTVSPost2010PropOp53
 70
     1
102
RTVSPost2010Prop54
  1
strokes_ogs.tif
102
RTVSPost2010PropOp54
 70
     1
102
RTVSPost2010Prop55
280
     0
102
RTVSPost2010PropOp55
 70
     1
102
RTVSPost2010Prop56
140
1.0
102
RTVSPost2010PropOp56
 70
     1
102
RTVSPost2010Prop57
140
1.0
102
RTVSPost2010PropOp57
 70
     1
102
RTVSPropertyOp0
 70
     1
102
RTVSPropertyOp1
 70
     1
102
RTVSPropertyOp2
 70
     1
102
RTVSPropertyOp3
 70
     1
102
RTVSPropertyOp4
 70
     1
102
RTVSPropertyOp5
 70
     1
102
RTVSPropertyOp6
 70
     1
102
RTVSPropertyOp7
 70
     1
102
RTVSPropertyOp8
 70
     1
102
RTVSPropertyOp9
 70
     1
102
RTVSPropertyOp10
 70
     1
102
RTVSPropertyOp11
 70
     1
102
RTVSPropertyOp12
 70
     1
102
RTVSPropertyOp13
 70
     1
102
RTVSPropertyOp14
 70
     1
102
RTVSPropertyOp15
 70
     1
102
RTVSPropertyOp16
 70
     1
102
RTVSPropertyOp17
 70
     1
102
RTVSPropertyOp18
 70
     1
102
RTVSPropertyOp19
 70
     1
102
RTVSPropertyOp20
 70
     1
102
RTVSPropertyOp21
 70
     1
102
RTVSPropertyOp22
 70
     1
102
RTVSPropertyOp23
 70
     1
102
RTVSPropertyOp24
 70
     1
102
RTVSPropertyOp25
 70
     1
102
RTVSPropertyOp26
 70
     1
102
RTVSPropertyOp27
 70
     1
102
RTVSPropertyOp28
 70
     1
102
RTVSPropertyOp29
 70
     1
102
RTVSPropertyOp30
 70
     1
102
RTVSPropertyOp31
 70
     1
102
RTVSPropertyOp32
 70
     1
102
RTVSPropertyOp33
 70
     1
102
RTVSPropertyOp34
 70
     1
102
RTVSPropertyOp35
 70
     1
102
RTVSPropertyOp36
 70
     1
102
RTVSPropertyOp37
 70
     1
102
RTVSPropertyOp38
 70
     1
102
RTVSPropertyOp39
 70
     1
102
RTVSPropertyOp40
 70
     1
102
RTVSPropertyOp41
 70
     1
102
RTVSPropertyOp42
 70
     1
102
RTVSPropertyOp43
 70
     1
102
RTVSPropertyOp44
 70
     1
102
RTVSPropertyOp45
 70
     1
102
RTVSPropertyOp46
 70
     1
102
RTVSPropertyOp47
 70
     1
102
RTVSPropertyOp48
 70
     1
102
RTVSPropertyOp49
 70
     1
102
RTVSPropertyOp50
 70
     1
102
RTVSPropertyOp51
 70
     0
102
RTVSPropertyOp52
 70
     0
102
RTVSPropertyOp53
 70
     1
102
RTVSPropertyOp54
 70
     1
102
RTVSPropertyOp55
 70
     1
102
RTVSPropertyOp56
 70
     1
102
RTVSPropertyOp57
 70
     1
102
RTVSPropertyOp58
 70
     1
102
RTVSPropertyOp59
 70
     1
102
RTVSPropertyOp60
 70
     1
102
RTVSPropertyOp61
 70
     1
102
RTVSPropertyOp62
 70
     1
  0
XRECORD
  5
9CF9
102
{ACAD_REACTORS
330
9CF8
102
}
330
9CF8
100
AcDbXrecord
280
     1
102
RTVSPost2010Prop28
280
     0
102
RTVSPost2010PropOp28
 70
     1
102
RTVSPost2010Prop29
280
     1
102
RTVSPost2010PropOp29
 70
     1
102
RTVSPost2010Prop30
280
     1
102
RTVSPost2010PropOp30
 70
     1
102
RTVSPost2010Prop31
280
     0
102
RTVSPost2010PropOp31
 70
     1
102
RTVSPost2010Prop32
280
     0
102
RTVSPost2010PropOp32
 70
     1
102
RTVSPost2010Prop33
280
     0
102
RTVSPost2010PropOp33
 70
     1
102
RTVSPost2010Prop34
280
     0
102
RTVSPost2010PropOp34
 70
     1
102
RTVSPost2010Prop35
280
     0
102
RTVSPost2010PropOp35
 70
     1
102
RTVSPost2010Prop36
280
     0
102
RTVSPost2010PropOp36
 70
     1
102
RTVSPost2010Prop37
 90
       50
102
RTVSPost2010PropOp37
 70
     1
102
RTVSPost2010Prop38
140
0.0
102
RTVSPost2010PropOp38
 70
     1
102
RTVSPost2010Prop39
140
1.0
102
RTVSPost2010PropOp39
 70
     1
102
RTVSPost2010Prop40
 90
        0
102
RTVSPost2010PropOp40
 70
     1
102
RTVSPost2010Prop41ColorIndex
 90
       18
102
RTVSPost2010Prop41ColorRGB
 90
        0
102
RTVSPost2010PropOp41
 70
     1
102
RTVSPost2010Prop42
 90
       50
102
RTVSPost2010PropOp42
 70
     1
102
RTVSPost2010Prop43
 90
        3
102
RTVSPost2010PropOp43
 70
     1
102
RTVSPost2010Prop44ColorIndex
 90
        5
102
RTVSPost2010Prop44ColorRGB
 90
      255
102
RTVSPost2010PropOp44
 70
     1
102
RTVSPost2010Prop45
280
     0
102
RTVSPost2010PropOp45
 70
     1
102
RTVSPost2010Prop46
 90
       50
102
RTVSPost2010PropOp46
 70
     1
102
RTVSPost2010Prop47
 90
       50
102
RTVSPost2010PropOp47
 70
     1
102
RTVSPost2010Prop48
 90
       50
102
RTVSPost2010PropOp48
 70
     1
102
RTVSPost2010Prop49
280
     0
102
RTVSPost2010PropOp49
 70
     1
102
RTVSPost2010Prop50
 90
       50
102
RTVSPost2010PropOp50
 70
     1
102
RTVSPost2010Prop51ColorIndex
 90
      256
102
RTVSPost2010Prop51ColorRGB
 90
-16777216
102
RTVSPost2010PropOp51
 70
     0
102
RTVSPost2010Prop52
140
1.0
102
RTVSPost2010PropOp52
 70
     0
102
RTVSPost2010Prop53
 90
        2
102
RTVSPost2010PropOp53
 70
     1
102
RTVSPost2010Prop54
  1
strokes_ogs.tif
102
RTVSPost2010PropOp54
 70
     1
102
RTVSPost2010Prop55
280
     0
102
RTVSPost2010PropOp55
 70
     1
102
RTVSPost2010Prop56
140
1.0
102
RTVSPost2010PropOp56
 70
     1
102
RTVSPost2010Prop57
140
1.0
102
RTVSPost2010PropOp57
 70
     1
102
RTVSPropertyOp0
 70
     1
102
RTVSPropertyOp1
 70
     1
102
RTVSPropertyOp2
 70
     1
102
RTVSPropertyOp3
 70
     1
102
RTVSPropertyOp4
 70
     1
102
RTVSPropertyOp5
 70
     1
102
RTVSPropertyOp6
 70
     1
102
RTVSPropertyOp7
 70
     1
102
RTVSPropertyOp8
 70
     1
102
RTVSPropertyOp9
 70
     1
102
RTVSPropertyOp10
 70
     1
102
RTVSPropertyOp11
 70
     1
102
RTVSPropertyOp12
 70
     1
102
RTVSPropertyOp13
 70
     1
102
RTVSPropertyOp14
 70
     1
102
RTVSPropertyOp15
 70
     1
102
RTVSPropertyOp16
 70
     1
102
RTVSPropertyOp17
 70
     1
102
RTVSPropertyOp18
 70
     1
102
RTVSPropertyOp19
 70
     1
102
RTVSPropertyOp20
 70
     1
102
RTVSPropertyOp21
 70
     1
102
RTVSPropertyOp22
 70
     1
102
RTVSPropertyOp23
 70
     1
102
RTVSPropertyOp24
 70
     1
102
RTVSPropertyOp25
 70
     1
102
RTVSPropertyOp26
 70
     1
102
RTVSPropertyOp27
 70
     1
102
RTVSPropertyOp28
 70
     1
102
RTVSPropertyOp29
 70
     1
102
RTVSPropertyOp30
 70
     1
102
RTVSPropertyOp31
 70
     1
102
RTVSPropertyOp32
 70
     1
102
RTVSPropertyOp33
 70
     1
102
RTVSPropertyOp34
 70
     1
102
RTVSPropertyOp35
 70
     1
102
RTVSPropertyOp36
 70
     1
102
RTVSPropertyOp37
 70
     1
102
RTVSPropertyOp38
 70
     1
102
RTVSPropertyOp39
 70
     1
102
RTVSPropertyOp40
 70
     1
102
RTVSPropertyOp41
 70
     1
102
RTVSPropertyOp42
 70
     1
102
RTVSPropertyOp43
 70
     1
102
RTVSPropertyOp44
 70
     1
102
RTVSPropertyOp45
 70
     1
102
RTVSPropertyOp46
 70
     1
102
RTVSPropertyOp47
 70
     1
102
RTVSPropertyOp48
 70
     1
102
RTVSPropertyOp49
 70
     1
102
RTVSPropertyOp50
 70
     1
102
RTVSPropertyOp51
 70
     0
102
RTVSPropertyOp52
 70
     0
102
RTVSPropertyOp53
 70
     1
102
RTVSPropertyOp54
 70
     1
102
RTVSPropertyOp55
 70
     1
102
RTVSPropertyOp56
 70
     1
102
RTVSPropertyOp57
 70
     1
102
RTVSPropertyOp58
 70
     1
102
RTVSPropertyOp59
 70
     1
102
RTVSPropertyOp60
 70
     1
102
RTVSPropertyOp61
 70
     1
102
RTVSPropertyOp62
 70
     1
  0
XRECORD
  5
9CFB
102
{ACAD_REACTORS
330
9CFA
102
}
330
9CFA
100
AcDbXrecord
280
     1
102
RTVSPost2010Prop28
280
     0
102
RTVSPost2010PropOp28
 70
     1
102
RTVSPost2010Prop29
280
     1
102
RTVSPost2010PropOp29
 70
     1
102
RTVSPost2010Prop30
280
     1
102
RTVSPost2010PropOp30
 70
     1
102
RTVSPost2010Prop31
280
     0
102
RTVSPost2010PropOp31
 70
     1
102
RTVSPost2010Prop32
280
     0
102
RTVSPost2010PropOp32
 70
     1
102
RTVSPost2010Prop33
280
     0
102
RTVSPost2010PropOp33
 70
     1
102
RTVSPost2010Prop34
280
     0
102
RTVSPost2010PropOp34
 70
     1
102
RTVSPost2010Prop35
280
     0
102
RTVSPost2010PropOp35
 70
     1
102
RTVSPost2010Prop36
280
     0
102
RTVSPost2010PropOp36
 70
     1
102
RTVSPost2010Prop37
 90
       50
102
RTVSPost2010PropOp37
 70
     1
102
RTVSPost2010Prop38
140
0.0
102
RTVSPost2010PropOp38
 70
     1
102
RTVSPost2010Prop39
140
1.0
102
RTVSPost2010PropOp39
 70
     1
102
RTVSPost2010Prop40
 90
        0
102
RTVSPost2010PropOp40
 70
     1
102
RTVSPost2010Prop41ColorIndex
 90
       18
102
RTVSPost2010Prop41ColorRGB
 90
        0
102
RTVSPost2010PropOp41
 70
     1
102
RTVSPost2010Prop42
 90
       50
102
RTVSPost2010PropOp42
 70
     1
102
RTVSPost2010Prop43
 90
        3
102
RTVSPost2010PropOp43
 70
     1
102
RTVSPost2010Prop44ColorIndex
 90
        5
102
RTVSPost2010Prop44ColorRGB
 90
      255
102
RTVSPost2010PropOp44
 70
     1
102
RTVSPost2010Prop45
280
     0
102
RTVSPost2010PropOp45
 70
     1
102
RTVSPost2010Prop46
 90
       50
102
RTVSPost2010PropOp46
 70
     1
102
RTVSPost2010Prop47
 90
       50
102
RTVSPost2010PropOp47
 70
     1
102
RTVSPost2010Prop48
 90
       50
102
RTVSPost2010PropOp48
 70
     1
102
RTVSPost2010Prop49
280
     0
102
RTVSPost2010PropOp49
 70
     1
102
RTVSPost2010Prop50
 90
       50
102
RTVSPost2010PropOp50
 70
     1
102
RTVSPost2010Prop51ColorIndex
 90
      256
102
RTVSPost2010Prop51ColorRGB
 90
-16777216
102
RTVSPost2010PropOp51
 70
     0
102
RTVSPost2010Prop52
140
1.0
102
RTVSPost2010PropOp52
 70
     0
102
RTVSPost2010Prop53
 90
        2
102
RTVSPost2010PropOp53
 70
     1
102
RTVSPost2010Prop54
  1
strokes_ogs.tif
102
RTVSPost2010PropOp54
 70
     1
102
RTVSPost2010Prop55
280
     0
102
RTVSPost2010PropOp55
 70
     1
102
RTVSPost2010Prop56
140
1.0
102
RTVSPost2010PropOp56
 70
     1
102
RTVSPost2010Prop57
140
1.0
102
RTVSPost2010PropOp57
 70
     1
102
RTVSPropertyOp0
 70
     1
102
RTVSPropertyOp1
 70
     1
102
RTVSPropertyOp2
 70
     1
102
RTVSPropertyOp3
 70
     1
102
RTVSPropertyOp4
 70
     1
102
RTVSPropertyOp5
 70
     1
102
RTVSPropertyOp6
 70
     1
102
RTVSPropertyOp7
 70
     1
102
RTVSPropertyOp8
 70
     1
102
RTVSPropertyOp9
 70
     1
102
RTVSPropertyOp10
 70
     1
102
RTVSPropertyOp11
 70
     1
102
RTVSPropertyOp12
 70
     1
102
RTVSPropertyOp13
 70
     1
102
RTVSPropertyOp14
 70
     1
102
RTVSPropertyOp15
 70
     1
102
RTVSPropertyOp16
 70
     1
102
RTVSPropertyOp17
 70
     1
102
RTVSPropertyOp18
 70
     1
102
RTVSPropertyOp19
 70
     1
102
RTVSPropertyOp20
 70
     1
102
RTVSPropertyOp21
 70
     1
102
RTVSPropertyOp22
 70
     1
102
RTVSPropertyOp23
 70
     1
102
RTVSPropertyOp24
 70
     1
102
RTVSPropertyOp25
 70
     1
102
RTVSPropertyOp26
 70
     1
102
RTVSPropertyOp27
 70
     1
102
RTVSPropertyOp28
 70
     1
102
RTVSPropertyOp29
 70
     1
102
RTVSPropertyOp30
 70
     1
102
RTVSPropertyOp31
 70
     1
102
RTVSPropertyOp32
 70
     1
102
RTVSPropertyOp33
 70
     1
102
RTVSPropertyOp34
 70
     1
102
RTVSPropertyOp35
 70
     1
102
RTVSPropertyOp36
 70
     1
102
RTVSPropertyOp37
 70
     1
102
RTVSPropertyOp38
 70
     1
102
RTVSPropertyOp39
 70
     1
102
RTVSPropertyOp40
 70
     1
102
RTVSPropertyOp41
 70
     1
102
RTVSPropertyOp42
 70
     1
102
RTVSPropertyOp43
 70
     1
102
RTVSPropertyOp44
 70
     1
102
RTVSPropertyOp45
 70
     1
102
RTVSPropertyOp46
 70
     1
102
RTVSPropertyOp47
 70
     1
102
RTVSPropertyOp48
 70
     1
102
RTVSPropertyOp49
 70
     1
102
RTVSPropertyOp50
 70
     1
102
RTVSPropertyOp51
 70
     0
102
RTVSPropertyOp52
 70
     0
102
RTVSPropertyOp53
 70
     1
102
RTVSPropertyOp54
 70
     1
102
RTVSPropertyOp55
 70
     1
102
RTVSPropertyOp56
 70
     1
102
RTVSPropertyOp57
 70
     1
102
RTVSPropertyOp58
 70
     1
102
RTVSPropertyOp59
 70
     1
102
RTVSPropertyOp60
 70
     1
102
RTVSPropertyOp61
 70
     1
102
RTVSPropertyOp62
 70
     1
  0
XRECORD
  5
9CFD
102
{ACAD_REACTORS
330
9CFC
102
}
330
9CFC
100
AcDbXrecord
280
     1
102
RTVSPost2010Prop28
280
     0
102
RTVSPost2010PropOp28
 70
     1
102
RTVSPost2010Prop29
280
     1
102
RTVSPost2010PropOp29
 70
     1
102
RTVSPost2010Prop30
280
     1
102
RTVSPost2010PropOp30
 70
     1
102
RTVSPost2010Prop31
280
     0
102
RTVSPost2010PropOp31
 70
     1
102
RTVSPost2010Prop32
280
     0
102
RTVSPost2010PropOp32
 70
     1
102
RTVSPost2010Prop33
280
     0
102
RTVSPost2010PropOp33
 70
     1
102
RTVSPost2010Prop34
280
     0
102
RTVSPost2010PropOp34
 70
     1
102
RTVSPost2010Prop35
280
     0
102
RTVSPost2010PropOp35
 70
     1
102
RTVSPost2010Prop36
280
     0
102
RTVSPost2010PropOp36
 70
     1
102
RTVSPost2010Prop37
 90
       50
102
RTVSPost2010PropOp37
 70
     1
102
RTVSPost2010Prop38
140
0.0
102
RTVSPost2010PropOp38
 70
     1
102
RTVSPost2010Prop39
140
1.0
102
RTVSPost2010PropOp39
 70
     1
102
RTVSPost2010Prop40
 90
        0
102
RTVSPost2010PropOp40
 70
     1
102
RTVSPost2010Prop41ColorIndex
 90
       18
102
RTVSPost2010Prop41ColorRGB
 90
        0
102
RTVSPost2010PropOp41
 70
     1
102
RTVSPost2010Prop42
 90
       50
102
RTVSPost2010PropOp42
 70
     1
102
RTVSPost2010Prop43
 90
        3
102
RTVSPost2010PropOp43
 70
     1
102
RTVSPost2010Prop44ColorIndex
 90
        5
102
RTVSPost2010Prop44ColorRGB
 90
      255
102
RTVSPost2010PropOp44
 70
     1
102
RTVSPost2010Prop45
280
     0
102
RTVSPost2010PropOp45
 70
     1
102
RTVSPost2010Prop46
 90
       50
102
RTVSPost2010PropOp46
 70
     1
102
RTVSPost2010Prop47
 90
       50
102
RTVSPost2010PropOp47
 70
     1
102
RTVSPost2010Prop48
 90
       50
102
RTVSPost2010PropOp48
 70
     1
102
RTVSPost2010Prop49
280
     0
102
RTVSPost2010PropOp49
 70
     1
102
RTVSPost2010Prop50
 90
       50
102
RTVSPost2010PropOp50
 70
     1
102
RTVSPost2010Prop51ColorIndex
 90
      256
102
RTVSPost2010Prop51ColorRGB
 90
-16777216
102
RTVSPost2010PropOp51
 70
     0
102
RTVSPost2010Prop52
140
1.0
102
RTVSPost2010PropOp52
 70
     0
102
RTVSPost2010Prop53
 90
        2
102
RTVSPost2010PropOp53
 70
     1
102
RTVSPost2010Prop54
  1
strokes_ogs.tif
102
RTVSPost2010PropOp54
 70
     1
102
RTVSPost2010Prop55
280
     0
102
RTVSPost2010PropOp55
 70
     1
102
RTVSPost2010Prop56
140
1.0
102
RTVSPost2010PropOp56
 70
     1
102
RTVSPost2010Prop57
140
1.0
102
RTVSPost2010PropOp57
 70
     1
102
RTVSPropertyOp0
 70
     1
102
RTVSPropertyOp1
 70
     1
102
RTVSPropertyOp2
 70
     1
102
RTVSPropertyOp3
 70
     1
102
RTVSPropertyOp4
 70
     1
102
RTVSPropertyOp5
 70
     1
102
RTVSPropertyOp6
 70
     1
102
RTVSPropertyOp7
 70
     1
102
RTVSPropertyOp8
 70
     1
102
RTVSPropertyOp9
 70
     1
102
RTVSPropertyOp10
 70
     1
102
RTVSPropertyOp11
 70
     1
102
RTVSPropertyOp12
 70
     1
102
RTVSPropertyOp13
 70
     1
102
RTVSPropertyOp14
 70
     1
102
RTVSPropertyOp15
 70
     1
102
RTVSPropertyOp16
 70
     1
102
RTVSPropertyOp17
 70
     1
102
RTVSPropertyOp18
 70
     1
102
RTVSPropertyOp19
 70
     1
102
RTVSPropertyOp20
 70
     1
102
RTVSPropertyOp21
 70
     1
102
RTVSPropertyOp22
 70
     1
102
RTVSPropertyOp23
 70
     1
102
RTVSPropertyOp24
 70
     1
102
RTVSPropertyOp25
 70
     1
102
RTVSPropertyOp26
 70
     1
102
RTVSPropertyOp27
 70
     1
102
RTVSPropertyOp28
 70
     1
102
RTVSPropertyOp29
 70
     1
102
RTVSPropertyOp30
 70
     1
102
RTVSPropertyOp31
 70
     1
102
RTVSPropertyOp32
 70
     1
102
RTVSPropertyOp33
 70
     1
102
RTVSPropertyOp34
 70
     1
102
RTVSPropertyOp35
 70
     1
102
RTVSPropertyOp36
 70
     1
102
RTVSPropertyOp37
 70
     1
102
RTVSPropertyOp38
 70
     1
102
RTVSPropertyOp39
 70
     1
102
RTVSPropertyOp40
 70
     1
102
RTVSPropertyOp41
 70
     1
102
RTVSPropertyOp42
 70
     1
102
RTVSPropertyOp43
 70
     1
102
RTVSPropertyOp44
 70
     1
102
RTVSPropertyOp45
 70
     1
102
RTVSPropertyOp46
 70
     1
102
RTVSPropertyOp47
 70
     1
102
RTVSPropertyOp48
 70
     1
102
RTVSPropertyOp49
 70
     1
102
RTVSPropertyOp50
 70
     1
102
RTVSPropertyOp51
 70
     0
102
RTVSPropertyOp52
 70
     0
102
RTVSPropertyOp53
 70
     1
102
RTVSPropertyOp54
 70
     1
102
RTVSPropertyOp55
 70
     1
102
RTVSPropertyOp56
 70
     1
102
RTVSPropertyOp57
 70
     1
102
RTVSPropertyOp58
 70
     1
102
RTVSPropertyOp59
 70
     1
102
RTVSPropertyOp60
 70
     1
102
RTVSPropertyOp61
 70
     1
102
RTVSPropertyOp62
 70
     1
  0
XRECORD
  5
9D05
102
{ACAD_REACTORS
330
9D04
102
}
330
9D04
100
AcDbXrecord
280
     1
102
RTVSPost2010Prop28
280
     0
102
RTVSPost2010PropOp28
 70
     1
102
RTVSPost2010Prop29
280
     1
102
RTVSPost2010PropOp29
 70
     1
102
RTVSPost2010Prop30
280
     1
102
RTVSPost2010PropOp30
 70
     1
102
RTVSPost2010Prop31
280
     0
102
RTVSPost2010PropOp31
 70
     1
102
RTVSPost2010Prop32
280
     0
102
RTVSPost2010PropOp32
 70
     1
102
RTVSPost2010Prop33
280
     0
102
RTVSPost2010PropOp33
 70
     1
102
RTVSPost2010Prop34
280
     0
102
RTVSPost2010PropOp34
 70
     1
102
RTVSPost2010Prop35
280
     0
102
RTVSPost2010PropOp35
 70
     1
102
RTVSPost2010Prop36
280
     0
102
RTVSPost2010PropOp36
 70
     1
102
RTVSPost2010Prop37
 90
       50
102
RTVSPost2010PropOp37
 70
     1
102
RTVSPost2010Prop38
140
0.0
102
RTVSPost2010PropOp38
 70
     1
102
RTVSPost2010Prop39
140
1.0
102
RTVSPost2010PropOp39
 70
     1
102
RTVSPost2010Prop40
 90
        0
102
RTVSPost2010PropOp40
 70
     1
102
RTVSPost2010Prop41ColorIndex
 90
       18
102
RTVSPost2010Prop41ColorRGB
 90
        0
102
RTVSPost2010PropOp41
 70
     1
102
RTVSPost2010Prop42
 90
       50
102
RTVSPost2010PropOp42
 70
     1
102
RTVSPost2010Prop43
 90
        3
102
RTVSPost2010PropOp43
 70
     1
102
RTVSPost2010Prop44ColorIndex
 90
        5
102
RTVSPost2010Prop44ColorRGB
 90
      255
102
RTVSPost2010PropOp44
 70
     1
102
RTVSPost2010Prop45
280
     0
102
RTVSPost2010PropOp45
 70
     1
102
RTVSPost2010Prop46
 90
       50
102
RTVSPost2010PropOp46
 70
     1
102
RTVSPost2010Prop47
 90
       50
102
RTVSPost2010PropOp47
 70
     1
102
RTVSPost2010Prop48
 90
       50
102
RTVSPost2010PropOp48
 70
     1
102
RTVSPost2010Prop49
280
     0
102
RTVSPost2010PropOp49
 70
     1
102
RTVSPost2010Prop50
 90
       50
102
RTVSPost2010PropOp50
 70
     1
102
RTVSPost2010Prop51ColorIndex
 90
      256
102
RTVSPost2010Prop51ColorRGB
 90
-16777216
102
RTVSPost2010PropOp51
 70
     0
102
RTVSPost2010Prop52
140
1.0
102
RTVSPost2010PropOp52
 70
     0
102
RTVSPost2010Prop53
 90
        2
102
RTVSPost2010PropOp53
 70
     1
102
RTVSPost2010Prop54
  1
strokes_ogs.tif
102
RTVSPost2010PropOp54
 70
     1
102
RTVSPost2010Prop55
280
     0
102
RTVSPost2010PropOp55
 70
     1
102
RTVSPost2010Prop56
140
1.0
102
RTVSPost2010PropOp56
 70
     1
102
RTVSPost2010Prop57
140
1.0
102
RTVSPost2010PropOp57
 70
     1
102
RTVSPropertyOp0
 70
     1
102
RTVSPropertyOp1
 70
     1
102
RTVSPropertyOp2
 70
     1
102
RTVSPropertyOp3
 70
     1
102
RTVSPropertyOp4
 70
     1
102
RTVSPropertyOp5
 70
     1
102
RTVSPropertyOp6
 70
     1
102
RTVSPropertyOp7
 70
     1
102
RTVSPropertyOp8
 70
     1
102
RTVSPropertyOp9
 70
     1
102
RTVSPropertyOp10
 70
     1
102
RTVSPropertyOp11
 70
     1
102
RTVSPropertyOp12
 70
     1
102
RTVSPropertyOp13
 70
     1
102
RTVSPropertyOp14
 70
     1
102
RTVSPropertyOp15
 70
     1
102
RTVSPropertyOp16
 70
     1
102
RTVSPropertyOp17
 70
     1
102
RTVSPropertyOp18
 70
     1
102
RTVSPropertyOp19
 70
     1
102
RTVSPropertyOp20
 70
     1
102
RTVSPropertyOp21
 70
     1
102
RTVSPropertyOp22
 70
     1
102
RTVSPropertyOp23
 70
     1
102
RTVSPropertyOp24
 70
     1
102
RTVSPropertyOp25
 70
     1
102
RTVSPropertyOp26
 70
     1
102
RTVSPropertyOp27
 70
     1
102
RTVSPropertyOp28
 70
     1
102
RTVSPropertyOp29
 70
     1
102
RTVSPropertyOp30
 70
     1
102
RTVSPropertyOp31
 70
     1
102
RTVSPropertyOp32
 70
     1
102
RTVSPropertyOp33
 70
     1
102
RTVSPropertyOp34
 70
     1
102
RTVSPropertyOp35
 70
     1
102
RTVSPropertyOp36
 70
     1
102
RTVSPropertyOp37
 70
     1
102
RTVSPropertyOp38
 70
     1
102
RTVSPropertyOp39
 70
     1
102
RTVSPropertyOp40
 70
     1
102
RTVSPropertyOp41
 70
     1
102
RTVSPropertyOp42
 70
     1
102
RTVSPropertyOp43
 70
     1
102
RTVSPropertyOp44
 70
     1
102
RTVSPropertyOp45
 70
     1
102
RTVSPropertyOp46
 70
     1
102
RTVSPropertyOp47
 70
     1
102
RTVSPropertyOp48
 70
     1
102
RTVSPropertyOp49
 70
     1
102
RTVSPropertyOp50
 70
     1
102
RTVSPropertyOp51
 70
     0
102
RTVSPropertyOp52
 70
     0
102
RTVSPropertyOp53
 70
     1
102
RTVSPropertyOp54
 70
     1
102
RTVSPropertyOp55
 70
     1
102
RTVSPropertyOp56
 70
     1
102
RTVSPropertyOp57
 70
     1
102
RTVSPropertyOp58
 70
     1
102
RTVSPropertyOp59
 70
     1
102
RTVSPropertyOp60
 70
     1
102
RTVSPropertyOp61
 70
     1
102
RTVSPropertyOp62
 70
     1
  0
XRECORD
  5
9D21
102
{ACAD_REACTORS
330
9D20
102
}
330
9D20
100
AcDbXrecord
280
     1
102
RTVSPost2010Prop28
280
     0
102
RTVSPost2010PropOp28
 70
     1
102
RTVSPost2010Prop29
280
     1
102
RTVSPost2010PropOp29
 70
     1
102
RTVSPost2010Prop30
280
     1
102
RTVSPost2010PropOp30
 70
     1
102
RTVSPost2010Prop31
280
     0
102
RTVSPost2010PropOp31
 70
     1
102
RTVSPost2010Prop32
280
     0
102
RTVSPost2010PropOp32
 70
     1
102
RTVSPost2010Prop33
280
     0
102
RTVSPost2010PropOp33
 70
     1
102
RTVSPost2010Prop34
280
     0
102
RTVSPost2010PropOp34
 70
     1
102
RTVSPost2010Prop35
280
     0
102
RTVSPost2010PropOp35
 70
     1
102
RTVSPost2010Prop36
280
     0
102
RTVSPost2010PropOp36
 70
     1
102
RTVSPost2010Prop37
 90
       50
102
RTVSPost2010PropOp37
 70
     0
102
RTVSPost2010Prop38
140
0.0
102
RTVSPost2010PropOp38
 70
     0
102
RTVSPost2010Prop39
140
1.0
102
RTVSPost2010PropOp39
 70
     0
102
RTVSPost2010Prop40
 90
        0
102
RTVSPost2010PropOp40
 70
     0
102
RTVSPost2010Prop41ColorIndex
 90
       18
102
RTVSPost2010Prop41ColorRGB
 90
        0
102
RTVSPost2010PropOp41
 70
     0
102
RTVSPost2010Prop42
 90
       50
102
RTVSPost2010PropOp42
 70
     0
102
RTVSPost2010Prop43
 90
        3
102
RTVSPost2010PropOp43
 70
     0
102
RTVSPost2010Prop44ColorIndex
 90
        5
102
RTVSPost2010Prop44ColorRGB
 90
      255
102
RTVSPost2010PropOp44
 70
     0
102
RTVSPost2010Prop45
280
     0
102
RTVSPost2010PropOp45
 70
     1
102
RTVSPost2010Prop46
 90
       50
102
RTVSPost2010PropOp46
 70
     0
102
RTVSPost2010Prop47
 90
       50
102
RTVSPost2010PropOp47
 70
     0
102
RTVSPost2010Prop48
 90
       50
102
RTVSPost2010PropOp48
 70
     0
102
RTVSPost2010Prop49
280
     0
102
RTVSPost2010PropOp49
 70
     1
102
RTVSPost2010Prop50
 90
       50
102
RTVSPost2010PropOp50
 70
     0
102
RTVSPost2010Prop51ColorIndex
 90
      256
102
RTVSPost2010Prop51ColorRGB
 90
-16777216
102
RTVSPost2010PropOp51
 70
     0
102
RTVSPost2010Prop52
140
1.0
102
RTVSPost2010PropOp52
 70
     0
102
RTVSPost2010Prop53
 90
        2
102
RTVSPost2010PropOp53
 70
     0
102
RTVSPost2010Prop54
  1
strokes_ogs.tif
102
RTVSPost2010PropOp54
 70
     0
102
RTVSPost2010Prop55
280
     0
102
RTVSPost2010PropOp55
 70
     1
102
RTVSPost2010Prop56
140
1.0
102
RTVSPost2010PropOp56
 70
     0
102
RTVSPost2010Prop57
140
1.0
102
RTVSPost2010PropOp57
 70
     0
102
RTVSPropertyOp0
 70
     0
102
RTVSPropertyOp1
 70
     0
102
RTVSPropertyOp2
 70
     0
102
RTVSPropertyOp3
 70
     0
102
RTVSPropertyOp4
 70
     0
102
RTVSPropertyOp5
 70
     0
102
RTVSPropertyOp6
 70
     0
102
RTVSPropertyOp7
 70
     0
102
RTVSPropertyOp8
 70
     0
102
RTVSPropertyOp9
 70
     0
102
RTVSPropertyOp10
 70
     0
102
RTVSPropertyOp11
 70
     0
102
RTVSPropertyOp12
 70
     0
102
RTVSPropertyOp13
 70
     0
102
RTVSPropertyOp14
 70
     2
102
RTVSPropertyOp15
 70
     0
102
RTVSPropertyOp16
 70
     0
102
RTVSPropertyOp17
 70
     0
102
RTVSPropertyOp18
 70
     0
102
RTVSPropertyOp19
 70
     0
102
RTVSPropertyOp20
 70
     0
102
RTVSPropertyOp21
 70
     0
102
RTVSPropertyOp22
 70
     0
102
RTVSPropertyOp23
 70
     0
102
RTVSPropertyOp24
 70
     0
102
RTVSPropertyOp25
 70
     0
102
RTVSPropertyOp26
 70
     0
102
RTVSPropertyOp27
 70
     0
102
RTVSPropertyOp28
 70
     1
102
RTVSPropertyOp29
 70
     1
102
RTVSPropertyOp30
 70
     1
102
RTVSPropertyOp31
 70
     1
102
RTVSPropertyOp32
 70
     1
102
RTVSPropertyOp33
 70
     1
102
RTVSPropertyOp34
 70
     1
102
RTVSPropertyOp35
 70
     1
102
RTVSPropertyOp36
 70
     1
102
RTVSPropertyOp37
 70
     0
102
RTVSPropertyOp38
 70
     0
102
RTVSPropertyOp39
 70
     0
102
RTVSPropertyOp40
 70
     0
102
RTVSPropertyOp41
 70
     0
102
RTVSPropertyOp42
 70
     0
102
RTVSPropertyOp43
 70
     0
102
RTVSPropertyOp44
 70
     0
102
RTVSPropertyOp45
 70
     1
102
RTVSPropertyOp46
 70
     0
102
RTVSPropertyOp47
 70
     0
102
RTVSPropertyOp48
 70
     0
102
RTVSPropertyOp49
 70
     1
102
RTVSPropertyOp50
 70
     0
102
RTVSPropertyOp51
 70
     0
102
RTVSPropertyOp52
 70
     0
102
RTVSPropertyOp53
 70
     0
102
RTVSPropertyOp54
 70
     0
102
RTVSPropertyOp55
 70
     1
102
RTVSPropertyOp56
 70
     0
102
RTVSPropertyOp57
 70
     0
102
RTVSPropertyOp58
 70
     0
102
RTVSPropertyOp59
 70
     0
102
RTVSPropertyOp60
 70
     0
102
RTVSPropertyOp61
 70
     0
102
RTVSPropertyOp62
 70
     0
  0
XRECORD
  5
9D11
102
{ACAD_REACTORS
330
9D10
102
}
330
9D10
100
AcDbXrecord
280
     1
102
RTVSPost2010Prop28
280
     0
102
RTVSPost2010PropOp28
 70
     1
102
RTVSPost2010Prop29
280
     1
102
RTVSPost2010PropOp29
 70
     1
102
RTVSPost2010Prop30
280
     1
102
RTVSPost2010PropOp30
 70
     1
102
RTVSPost2010Prop31
280
     0
102
RTVSPost2010PropOp31
 70
     1
102
RTVSPost2010Prop32
280
     0
102
RTVSPost2010PropOp32
 70
     1
102
RTVSPost2010Prop33
280
     0
102
RTVSPost2010PropOp33
 70
     1
102
RTVSPost2010Prop34
280
     0
102
RTVSPost2010PropOp34
 70
     1
102
RTVSPost2010Prop35
280
     0
102
RTVSPost2010PropOp35
 70
     1
102
RTVSPost2010Prop36
280
     0
102
RTVSPost2010PropOp36
 70
     1
102
RTVSPost2010Prop37
 90
       50
102
RTVSPost2010PropOp37
 70
     1
102
RTVSPost2010Prop38
140
0.0
102
RTVSPost2010PropOp38
 70
     1
102
RTVSPost2010Prop39
140
1.0
102
RTVSPost2010PropOp39
 70
     1
102
RTVSPost2010Prop40
 90
        0
102
RTVSPost2010PropOp40
 70
     1
102
RTVSPost2010Prop41ColorIndex
 90
       18
102
RTVSPost2010Prop41ColorRGB
 90
        0
102
RTVSPost2010PropOp41
 70
     1
102
RTVSPost2010Prop42
 90
       50
102
RTVSPost2010PropOp42
 70
     1
102
RTVSPost2010Prop43
 90
        3
102
RTVSPost2010PropOp43
 70
     1
102
RTVSPost2010Prop44ColorIndex
 90
        5
102
RTVSPost2010Prop44ColorRGB
 90
      255
102
RTVSPost2010PropOp44
 70
     1
102
RTVSPost2010Prop45
280
     0
102
RTVSPost2010PropOp45
 70
     1
102
RTVSPost2010Prop46
 90
       50
102
RTVSPost2010PropOp46
 70
     1
102
RTVSPost2010Prop47
 90
       50
102
RTVSPost2010PropOp47
 70
     1
102
RTVSPost2010Prop48
 90
       50
102
RTVSPost2010PropOp48
 70
     1
102
RTVSPost2010Prop49
280
     0
102
RTVSPost2010PropOp49
 70
     1
102
RTVSPost2010Prop50
 90
       50
102
RTVSPost2010PropOp50
 70
     1
102
RTVSPost2010Prop51ColorIndex
 90
      256
102
RTVSPost2010Prop51ColorRGB
 90
-16777216
102
RTVSPost2010PropOp51
 70
     0
102
RTVSPost2010Prop52
140
1.0
102
RTVSPost2010PropOp52
 70
     0
102
RTVSPost2010Prop53
 90
        2
102
RTVSPost2010PropOp53
 70
     1
102
RTVSPost2010Prop54
  1
strokes_ogs.tif
102
RTVSPost2010PropOp54
 70
     1
102
RTVSPost2010Prop55
280
     0
102
RTVSPost2010PropOp55
 70
     1
102
RTVSPost2010Prop56
140
1.0
102
RTVSPost2010PropOp56
 70
     1
102
RTVSPost2010Prop57
140
1.0
102
RTVSPost2010PropOp57
 70
     1
102
RTVSPropertyOp0
 70
     1
102
RTVSPropertyOp1
 70
     1
102
RTVSPropertyOp2
 70
     1
102
RTVSPropertyOp3
 70
     1
102
RTVSPropertyOp4
 70
     1
102
RTVSPropertyOp5
 70
     1
102
RTVSPropertyOp6
 70
     1
102
RTVSPropertyOp7
 70
     1
102
RTVSPropertyOp8
 70
     1
102
RTVSPropertyOp9
 70
     1
102
RTVSPropertyOp10
 70
     1
102
RTVSPropertyOp11
 70
     1
102
RTVSPropertyOp12
 70
     1
102
RTVSPropertyOp13
 70
     1
102
RTVSPropertyOp14
 70
     1
102
RTVSPropertyOp15
 70
     1
102
RTVSPropertyOp16
 70
     1
102
RTVSPropertyOp17
 70
     1
102
RTVSPropertyOp18
 70
     1
102
RTVSPropertyOp19
 70
     1
102
RTVSPropertyOp20
 70
     1
102
RTVSPropertyOp21
 70
     1
102
RTVSPropertyOp22
 70
     1
102
RTVSPropertyOp23
 70
     1
102
RTVSPropertyOp24
 70
     1
102
RTVSPropertyOp25
 70
     1
102
RTVSPropertyOp26
 70
     1
102
RTVSPropertyOp27
 70
     1
102
RTVSPropertyOp28
 70
     1
102
RTVSPropertyOp29
 70
     1
102
RTVSPropertyOp30
 70
     1
102
RTVSPropertyOp31
 70
     1
102
RTVSPropertyOp32
 70
     1
102
RTVSPropertyOp33
 70
     1
102
RTVSPropertyOp34
 70
     1
102
RTVSPropertyOp35
 70
     1
102
RTVSPropertyOp36
 70
     1
102
RTVSPropertyOp37
 70
     1
102
RTVSPropertyOp38
 70
     1
102
RTVSPropertyOp39
 70
     1
102
RTVSPropertyOp40
 70
     1
102
RTVSPropertyOp41
 70
     1
102
RTVSPropertyOp42
 70
     1
102
RTVSPropertyOp43
 70
     1
102
RTVSPropertyOp44
 70
     1
102
RTVSPropertyOp45
 70
     1
102
RTVSPropertyOp46
 70
     1
102
RTVSPropertyOp47
 70
     1
102
RTVSPropertyOp48
 70
     1
102
RTVSPropertyOp49
 70
     1
102
RTVSPropertyOp50
 70
     1
102
RTVSPropertyOp51
 70
     0
102
RTVSPropertyOp52
 70
     0
102
RTVSPropertyOp53
 70
     1
102
RTVSPropertyOp54
 70
     1
102
RTVSPropertyOp55
 70
     1
102
RTVSPropertyOp56
 70
     1
102
RTVSPropertyOp57
 70
     1
102
RTVSPropertyOp58
 70
     1
102
RTVSPropertyOp59
 70
     1
102
RTVSPropertyOp60
 70
     1
102
RTVSPropertyOp61
 70
     1
102
RTVSPropertyOp62
 70
     1
  0
XRECORD
  5
9D23
102
{ACAD_REACTORS
330
9D22
102
}
330
9D22
100
AcDbXrecord
280
     1
102
RTVSPost2010Prop28
280
     0
102
RTVSPost2010PropOp28
 70
     1
102
RTVSPost2010Prop29
280
     1
102
RTVSPost2010PropOp29
 70
     1
102
RTVSPost2010Prop30
280
     1
102
RTVSPost2010PropOp30
 70
     1
102
RTVSPost2010Prop31
280
     0
102
RTVSPost2010PropOp31
 70
     1
102
RTVSPost2010Prop32
280
     0
102
RTVSPost2010PropOp32
 70
     1
102
RTVSPost2010Prop33
280
     0
102
RTVSPost2010PropOp33
 70
     1
102
RTVSPost2010Prop34
280
     0
102
RTVSPost2010PropOp34
 70
     1
102
RTVSPost2010Prop35
280
     0
102
RTVSPost2010PropOp35
 70
     1
102
RTVSPost2010Prop36
280
     0
102
RTVSPost2010PropOp36
 70
     1
102
RTVSPost2010Prop37
 90
       50
102
RTVSPost2010PropOp37
 70
     0
102
RTVSPost2010Prop38
140
0.0
102
RTVSPost2010PropOp38
 70
     0
102
RTVSPost2010Prop39
140
1.0
102
RTVSPost2010PropOp39
 70
     0
102
RTVSPost2010Prop40
 90
        0
102
RTVSPost2010PropOp40
 70
     0
102
RTVSPost2010Prop41ColorIndex
 90
       18
102
RTVSPost2010Prop41ColorRGB
 90
        0
102
RTVSPost2010PropOp41
 70
     0
102
RTVSPost2010Prop42
 90
       50
102
RTVSPost2010PropOp42
 70
     0
102
RTVSPost2010Prop43
 90
        3
102
RTVSPost2010PropOp43
 70
     0
102
RTVSPost2010Prop44ColorIndex
 90
        5
102
RTVSPost2010Prop44ColorRGB
 90
      255
102
RTVSPost2010PropOp44
 70
     0
102
RTVSPost2010Prop45
280
     0
102
RTVSPost2010PropOp45
 70
     1
102
RTVSPost2010Prop46
 90
       50
102
RTVSPost2010PropOp46
 70
     0
102
RTVSPost2010Prop47
 90
       50
102
RTVSPost2010PropOp47
 70
     0
102
RTVSPost2010Prop48
 90
       50
102
RTVSPost2010PropOp48
 70
     0
102
RTVSPost2010Prop49
280
     0
102
RTVSPost2010PropOp49
 70
     1
102
RTVSPost2010Prop50
 90
       50
102
RTVSPost2010PropOp50
 70
     0
102
RTVSPost2010Prop51ColorIndex
 90
      256
102
RTVSPost2010Prop51ColorRGB
 90
-16777216
102
RTVSPost2010PropOp51
 70
     0
102
RTVSPost2010Prop52
140
1.0
102
RTVSPost2010PropOp52
 70
     0
102
RTVSPost2010Prop53
 90
        2
102
RTVSPost2010PropOp53
 70
     0
102
RTVSPost2010Prop54
  1
strokes_ogs.tif
102
RTVSPost2010PropOp54
 70
     0
102
RTVSPost2010Prop55
280
     0
102
RTVSPost2010PropOp55
 70
     1
102
RTVSPost2010Prop56
140
1.0
102
RTVSPost2010PropOp56
 70
     0
102
RTVSPost2010Prop57
140
1.0
102
RTVSPost2010PropOp57
 70
     0
102
RTVSPropertyOp0
 70
     0
102
RTVSPropertyOp1
 70
     0
102
RTVSPropertyOp2
 70
     0
102
RTVSPropertyOp3
 70
     0
102
RTVSPropertyOp4
 70
     0
102
RTVSPropertyOp5
 70
     0
102
RTVSPropertyOp6
 70
     0
102
RTVSPropertyOp7
 70
     0
102
RTVSPropertyOp8
 70
     0
102
RTVSPropertyOp9
 70
     0
102
RTVSPropertyOp10
 70
     0
102
RTVSPropertyOp11
 70
     0
102
RTVSPropertyOp12
 70
     0
102
RTVSPropertyOp13
 70
     0
102
RTVSPropertyOp14
 70
     2
102
RTVSPropertyOp15
 70
     0
102
RTVSPropertyOp16
 70
     0
102
RTVSPropertyOp17
 70
     0
102
RTVSPropertyOp18
 70
     0
102
RTVSPropertyOp19
 70
     0
102
RTVSPropertyOp20
 70
     0
102
RTVSPropertyOp21
 70
     0
102
RTVSPropertyOp22
 70
     0
102
RTVSPropertyOp23
 70
     0
102
RTVSPropertyOp24
 70
     0
102
RTVSPropertyOp25
 70
     0
102
RTVSPropertyOp26
 70
     0
102
RTVSPropertyOp27
 70
     0
102
RTVSPropertyOp28
 70
     1
102
RTVSPropertyOp29
 70
     1
102
RTVSPropertyOp30
 70
     1
102
RTVSPropertyOp31
 70
     1
102
RTVSPropertyOp32
 70
     1
102
RTVSPropertyOp33
 70
     1
102
RTVSPropertyOp34
 70
     1
102
RTVSPropertyOp35
 70
     1
102
RTVSPropertyOp36
 70
     1
102
RTVSPropertyOp37
 70
     0
102
RTVSPropertyOp38
 70
     0
102
RTVSPropertyOp39
 70
     0
102
RTVSPropertyOp40
 70
     0
102
RTVSPropertyOp41
 70
     0
102
RTVSPropertyOp42
 70
     0
102
RTVSPropertyOp43
 70
     0
102
RTVSPropertyOp44
 70
     0
102
RTVSPropertyOp45
 70
     1
102
RTVSPropertyOp46
 70
     0
102
RTVSPropertyOp47
 70
     0
102
RTVSPropertyOp48
 70
     0
102
RTVSPropertyOp49
 70
     1
102
RTVSPropertyOp50
 70
     0
102
RTVSPropertyOp51
 70
     0
102
RTVSPropertyOp52
 70
     0
102
RTVSPropertyOp53
 70
     0
102
RTVSPropertyOp54
 70
     0
102
RTVSPropertyOp55
 70
     1
102
RTVSPropertyOp56
 70
     0
102
RTVSPropertyOp57
 70
     0
102
RTVSPropertyOp58
 70
     0
102
RTVSPropertyOp59
 70
     0
102
RTVSPropertyOp60
 70
     0
102
RTVSPropertyOp61
 70
     0
102
RTVSPropertyOp62
 70
     0
  0
XRECORD
  5
9D09
102
{ACAD_REACTORS
330
9D08
102
}
330
9D08
100
AcDbXrecord
280
     1
102
RTVSPost2010Prop28
280
     0
102
RTVSPost2010PropOp28
 70
     1
102
RTVSPost2010Prop29
280
     1
102
RTVSPost2010PropOp29
 70
     1
102
RTVSPost2010Prop30
280
     1
102
RTVSPost2010PropOp30
 70
     1
102
RTVSPost2010Prop31
280
     0
102
RTVSPost2010PropOp31
 70
     1
102
RTVSPost2010Prop32
280
     0
102
RTVSPost2010PropOp32
 70
     1
102
RTVSPost2010Prop33
280
     0
102
RTVSPost2010PropOp33
 70
     1
102
RTVSPost2010Prop34
280
     0
102
RTVSPost2010PropOp34
 70
     1
102
RTVSPost2010Prop35
280
     0
102
RTVSPost2010PropOp35
 70
     1
102
RTVSPost2010Prop36
280
     0
102
RTVSPost2010PropOp36
 70
     1
102
RTVSPost2010Prop37
 90
       50
102
RTVSPost2010PropOp37
 70
     1
102
RTVSPost2010Prop38
140
0.0
102
RTVSPost2010PropOp38
 70
     1
102
RTVSPost2010Prop39
140
1.0
102
RTVSPost2010PropOp39
 70
     1
102
RTVSPost2010Prop40
 90
        0
102
RTVSPost2010PropOp40
 70
     1
102
RTVSPost2010Prop41ColorIndex
 90
       18
102
RTVSPost2010Prop41ColorRGB
 90
        0
102
RTVSPost2010PropOp41
 70
     1
102
RTVSPost2010Prop42
 90
       50
102
RTVSPost2010PropOp42
 70
     1
102
RTVSPost2010Prop43
 90
        3
102
RTVSPost2010PropOp43
 70
     1
102
RTVSPost2010Prop44ColorIndex
 90
        5
102
RTVSPost2010Prop44ColorRGB
 90
      255
102
RTVSPost2010PropOp44
 70
     1
102
RTVSPost2010Prop45
280
     0
102
RTVSPost2010PropOp45
 70
     1
102
RTVSPost2010Prop46
 90
       50
102
RTVSPost2010PropOp46
 70
     1
102
RTVSPost2010Prop47
 90
       50
102
RTVSPost2010PropOp47
 70
     1
102
RTVSPost2010Prop48
 90
       50
102
RTVSPost2010PropOp48
 70
     1
102
RTVSPost2010Prop49
280
     0
102
RTVSPost2010PropOp49
 70
     1
102
RTVSPost2010Prop50
 90
       50
102
RTVSPost2010PropOp50
 70
     1
102
RTVSPost2010Prop51ColorIndex
 90
      256
102
RTVSPost2010Prop51ColorRGB
 90
-16777216
102
RTVSPost2010PropOp51
 70
     0
102
RTVSPost2010Prop52
140
1.0
102
RTVSPost2010PropOp52
 70
     0
102
RTVSPost2010Prop53
 90
        2
102
RTVSPost2010PropOp53
 70
     1
102
RTVSPost2010Prop54
  1
strokes_ogs.tif
102
RTVSPost2010PropOp54
 70
     1
102
RTVSPost2010Prop55
280
     0
102
RTVSPost2010PropOp55
 70
     1
102
RTVSPost2010Prop56
140
1.0
102
RTVSPost2010PropOp56
 70
     1
102
RTVSPost2010Prop57
140
1.0
102
RTVSPost2010PropOp57
 70
     1
102
RTVSPropertyOp0
 70
     1
102
RTVSPropertyOp1
 70
     1
102
RTVSPropertyOp2
 70
     1
102
RTVSPropertyOp3
 70
     1
102
RTVSPropertyOp4
 70
     1
102
RTVSPropertyOp5
 70
     1
102
RTVSPropertyOp6
 70
     1
102
RTVSPropertyOp7
 70
     1
102
RTVSPropertyOp8
 70
     1
102
RTVSPropertyOp9
 70
     1
102
RTVSPropertyOp10
 70
     1
102
RTVSPropertyOp11
 70
     1
102
RTVSPropertyOp12
 70
     1
102
RTVSPropertyOp13
 70
     1
102
RTVSPropertyOp14
 70
     1
102
RTVSPropertyOp15
 70
     1
102
RTVSPropertyOp16
 70
     1
102
RTVSPropertyOp17
 70
     1
102
RTVSPropertyOp18
 70
     1
102
RTVSPropertyOp19
 70
     1
102
RTVSPropertyOp20
 70
     1
102
RTVSPropertyOp21
 70
     1
102
RTVSPropertyOp22
 70
     1
102
RTVSPropertyOp23
 70
     1
102
RTVSPropertyOp24
 70
     1
102
RTVSPropertyOp25
 70
     1
102
RTVSPropertyOp26
 70
     1
102
RTVSPropertyOp27
 70
     1
102
RTVSPropertyOp28
 70
     1
102
RTVSPropertyOp29
 70
     1
102
RTVSPropertyOp30
 70
     1
102
RTVSPropertyOp31
 70
     1
102
RTVSPropertyOp32
 70
     1
102
RTVSPropertyOp33
 70
     1
102
RTVSPropertyOp34
 70
     1
102
RTVSPropertyOp35
 70
     1
102
RTVSPropertyOp36
 70
     1
102
RTVSPropertyOp37
 70
     1
102
RTVSPropertyOp38
 70
     1
102
RTVSPropertyOp39
 70
     1
102
RTVSPropertyOp40
 70
     1
102
RTVSPropertyOp41
 70
     1
102
RTVSPropertyOp42
 70
     1
102
RTVSPropertyOp43
 70
     1
102
RTVSPropertyOp44
 70
     1
102
RTVSPropertyOp45
 70
     1
102
RTVSPropertyOp46
 70
     1
102
RTVSPropertyOp47
 70
     1
102
RTVSPropertyOp48
 70
     1
102
RTVSPropertyOp49
 70
     1
102
RTVSPropertyOp50
 70
     1
102
RTVSPropertyOp51
 70
     0
102
RTVSPropertyOp52
 70
     0
102
RTVSPropertyOp53
 70
     1
102
RTVSPropertyOp54
 70
     1
102
RTVSPropertyOp55
 70
     1
102
RTVSPropertyOp56
 70
     1
102
RTVSPropertyOp57
 70
     1
102
RTVSPropertyOp58
 70
     1
102
RTVSPropertyOp59
 70
     1
102
RTVSPropertyOp60
 70
     1
102
RTVSPropertyOp61
 70
     1
102
RTVSPropertyOp62
 70
     1
  0
XRECORD
  5
9D1F
102
{ACAD_REACTORS
330
9D1E
102
}
330
9D1E
100
AcDbXrecord
280
     1
102
RTVSPost2010Prop28
280
     0
102
RTVSPost2010PropOp28
 70
     1
102
RTVSPost2010Prop29
280
     1
102
RTVSPost2010PropOp29
 70
     1
102
RTVSPost2010Prop30
280
     1
102
RTVSPost2010PropOp30
 70
     1
102
RTVSPost2010Prop31
280
     0
102
RTVSPost2010PropOp31
 70
     1
102
RTVSPost2010Prop32
280
     0
102
RTVSPost2010PropOp32
 70
     1
102
RTVSPost2010Prop33
280
     0
102
RTVSPost2010PropOp33
 70
     1
102
RTVSPost2010Prop34
280
     0
102
RTVSPost2010PropOp34
 70
     1
102
RTVSPost2010Prop35
280
     0
102
RTVSPost2010PropOp35
 70
     1
102
RTVSPost2010Prop36
280
     0
102
RTVSPost2010PropOp36
 70
     1
102
RTVSPost2010Prop37
 90
       50
102
RTVSPost2010PropOp37
 70
     1
102
RTVSPost2010Prop38
140
0.0
102
RTVSPost2010PropOp38
 70
     1
102
RTVSPost2010Prop39
140
1.0
102
RTVSPost2010PropOp39
 70
     1
102
RTVSPost2010Prop40
 90
        0
102
RTVSPost2010PropOp40
 70
     1
102
RTVSPost2010Prop41ColorIndex
 90
       18
102
RTVSPost2010Prop41ColorRGB
 90
        0
102
RTVSPost2010PropOp41
 70
     1
102
RTVSPost2010Prop42
 90
       50
102
RTVSPost2010PropOp42
 70
     1
102
RTVSPost2010Prop43
 90
        3
102
RTVSPost2010PropOp43
 70
     1
102
RTVSPost2010Prop44ColorIndex
 90
        5
102
RTVSPost2010Prop44ColorRGB
 90
      255
102
RTVSPost2010PropOp44
 70
     1
102
RTVSPost2010Prop45
280
     0
102
RTVSPost2010PropOp45
 70
     1
102
RTVSPost2010Prop46
 90
       50
102
RTVSPost2010PropOp46
 70
     1
102
RTVSPost2010Prop47
 90
       50
102
RTVSPost2010PropOp47
 70
     1
102
RTVSPost2010Prop48
 90
       50
102
RTVSPost2010PropOp48
 70
     1
102
RTVSPost2010Prop49
280
     0
102
RTVSPost2010PropOp49
 70
     1
102
RTVSPost2010Prop50
 90
       50
102
RTVSPost2010PropOp50
 70
     1
102
RTVSPost2010Prop51ColorIndex
 90
      256
102
RTVSPost2010Prop51ColorRGB
 90
-16777216
102
RTVSPost2010PropOp51
 70
     0
102
RTVSPost2010Prop52
140
1.0
102
RTVSPost2010PropOp52
 70
     0
102
RTVSPost2010Prop53
 90
        2
102
RTVSPost2010PropOp53
 70
     1
102
RTVSPost2010Prop54
  1
strokes_ogs.tif
102
RTVSPost2010PropOp54
 70
     1
102
RTVSPost2010Prop55
280
     0
102
RTVSPost2010PropOp55
 70
     1
102
RTVSPost2010Prop56
140
1.0
102
RTVSPost2010PropOp56
 70
     1
102
RTVSPost2010Prop57
140
1.0
102
RTVSPost2010PropOp57
 70
     1
102
RTVSPropertyOp0
 70
     1
102
RTVSPropertyOp1
 70
     1
102
RTVSPropertyOp2
 70
     1
102
RTVSPropertyOp3
 70
     1
102
RTVSPropertyOp4
 70
     1
102
RTVSPropertyOp5
 70
     1
102
RTVSPropertyOp6
 70
     1
102
RTVSPropertyOp7
 70
     1
102
RTVSPropertyOp8
 70
     1
102
RTVSPropertyOp9
 70
     1
102
RTVSPropertyOp10
 70
     1
102
RTVSPropertyOp11
 70
     1
102
RTVSPropertyOp12
 70
     1
102
RTVSPropertyOp13
 70
     1
102
RTVSPropertyOp14
 70
     1
102
RTVSPropertyOp15
 70
     1
102
RTVSPropertyOp16
 70
     1
102
RTVSPropertyOp17
 70
     1
102
RTVSPropertyOp18
 70
     1
102
RTVSPropertyOp19
 70
     1
102
RTVSPropertyOp20
 70
     1
102
RTVSPropertyOp21
 70
     1
102
RTVSPropertyOp22
 70
     1
102
RTVSPropertyOp23
 70
     1
102
RTVSPropertyOp24
 70
     1
102
RTVSPropertyOp25
 70
     1
102
RTVSPropertyOp26
 70
     1
102
RTVSPropertyOp27
 70
     1
102
RTVSPropertyOp28
 70
     1
102
RTVSPropertyOp29
 70
     1
102
RTVSPropertyOp30
 70
     1
102
RTVSPropertyOp31
 70
     1
102
RTVSPropertyOp32
 70
     1
102
RTVSPropertyOp33
 70
     1
102
RTVSPropertyOp34
 70
     1
102
RTVSPropertyOp35
 70
     1
102
RTVSPropertyOp36
 70
     1
102
RTVSPropertyOp37
 70
     1
102
RTVSPropertyOp38
 70
     1
102
RTVSPropertyOp39
 70
     1
102
RTVSPropertyOp40
 70
     1
102
RTVSPropertyOp41
 70
     1
102
RTVSPropertyOp42
 70
     1
102
RTVSPropertyOp43
 70
     1
102
RTVSPropertyOp44
 70
     1
102
RTVSPropertyOp45
 70
     1
102
RTVSPropertyOp46
 70
     1
102
RTVSPropertyOp47
 70
     1
102
RTVSPropertyOp48
 70
     1
102
RTVSPropertyOp49
 70
     1
102
RTVSPropertyOp50
 70
     1
102
RTVSPropertyOp51
 70
     0
102
RTVSPropertyOp52
 70
     0
102
RTVSPropertyOp53
 70
     1
102
RTVSPropertyOp54
 70
     1
102
RTVSPropertyOp55
 70
     1
102
RTVSPropertyOp56
 70
     1
102
RTVSPropertyOp57
 70
     1
102
RTVSPropertyOp58
 70
     1
102
RTVSPropertyOp59
 70
     1
102
RTVSPropertyOp60
 70
     1
102
RTVSPropertyOp61
 70
     1
102
RTVSPropertyOp62
 70
     1
  0
XRECORD
  5
9D1D
102
{ACAD_REACTORS
330
9D1C
102
}
330
9D1C
100
AcDbXrecord
280
     1
102
RTVSPost2010Prop28
280
     0
102
RTVSPost2010PropOp28
 70
     1
102
RTVSPost2010Prop29
280
     1
102
RTVSPost2010PropOp29
 70
     1
102
RTVSPost2010Prop30
280
     1
102
RTVSPost2010PropOp30
 70
     1
102
RTVSPost2010Prop31
280
     0
102
RTVSPost2010PropOp31
 70
     1
102
RTVSPost2010Prop32
280
     0
102
RTVSPost2010PropOp32
 70
     1
102
RTVSPost2010Prop33
280
     0
102
RTVSPost2010PropOp33
 70
     1
102
RTVSPost2010Prop34
280
     0
102
RTVSPost2010PropOp34
 70
     1
102
RTVSPost2010Prop35
280
     0
102
RTVSPost2010PropOp35
 70
     1
102
RTVSPost2010Prop36
280
     0
102
RTVSPost2010PropOp36
 70
     1
102
RTVSPost2010Prop37
 90
       50
102
RTVSPost2010PropOp37
 70
     1
102
RTVSPost2010Prop38
140
0.0
102
RTVSPost2010PropOp38
 70
     1
102
RTVSPost2010Prop39
140
1.0
102
RTVSPost2010PropOp39
 70
     1
102
RTVSPost2010Prop40
 90
        0
102
RTVSPost2010PropOp40
 70
     1
102
RTVSPost2010Prop41ColorIndex
 90
       18
102
RTVSPost2010Prop41ColorRGB
 90
        0
102
RTVSPost2010PropOp41
 70
     1
102
RTVSPost2010Prop42
 90
       50
102
RTVSPost2010PropOp42
 70
     1
102
RTVSPost2010Prop43
 90
        3
102
RTVSPost2010PropOp43
 70
     1
102
RTVSPost2010Prop44ColorIndex
 90
        5
102
RTVSPost2010Prop44ColorRGB
 90
      255
102
RTVSPost2010PropOp44
 70
     1
102
RTVSPost2010Prop45
280
     0
102
RTVSPost2010PropOp45
 70
     1
102
RTVSPost2010Prop46
 90
       50
102
RTVSPost2010PropOp46
 70
     1
102
RTVSPost2010Prop47
 90
       50
102
RTVSPost2010PropOp47
 70
     1
102
RTVSPost2010Prop48
 90
       50
102
RTVSPost2010PropOp48
 70
     1
102
RTVSPost2010Prop49
280
     0
102
RTVSPost2010PropOp49
 70
     1
102
RTVSPost2010Prop50
 90
       50
102
RTVSPost2010PropOp50
 70
     1
102
RTVSPost2010Prop51ColorIndex
 90
      256
102
RTVSPost2010Prop51ColorRGB
 90
-16777216
102
RTVSPost2010PropOp51
 70
     0
102
RTVSPost2010Prop52
140
1.0
102
RTVSPost2010PropOp52
 70
     0
102
RTVSPost2010Prop53
 90
        2
102
RTVSPost2010PropOp53
 70
     1
102
RTVSPost2010Prop54
  1
strokes_ogs.tif
102
RTVSPost2010PropOp54
 70
     1
102
RTVSPost2010Prop55
280
     0
102
RTVSPost2010PropOp55
 70
     1
102
RTVSPost2010Prop56
140
1.0
102
RTVSPost2010PropOp56
 70
     1
102
RTVSPost2010Prop57
140
1.0
102
RTVSPost2010PropOp57
 70
     1
102
RTVSPropertyOp0
 70
     1
102
RTVSPropertyOp1
 70
     1
102
RTVSPropertyOp2
 70
     1
102
RTVSPropertyOp3
 70
     1
102
RTVSPropertyOp4
 70
     1
102
RTVSPropertyOp5
 70
     1
102
RTVSPropertyOp6
 70
     1
102
RTVSPropertyOp7
 70
     1
102
RTVSPropertyOp8
 70
     1
102
RTVSPropertyOp9
 70
     1
102
RTVSPropertyOp10
 70
     1
102
RTVSPropertyOp11
 70
     1
102
RTVSPropertyOp12
 70
     1
102
RTVSPropertyOp13
 70
     1
102
RTVSPropertyOp14
 70
     1
102
RTVSPropertyOp15
 70
     1
102
RTVSPropertyOp16
 70
     1
102
RTVSPropertyOp17
 70
     1
102
RTVSPropertyOp18
 70
     1
102
RTVSPropertyOp19
 70
     1
102
RTVSPropertyOp20
 70
     1
102
RTVSPropertyOp21
 70
     1
102
RTVSPropertyOp22
 70
     1
102
RTVSPropertyOp23
 70
     1
102
RTVSPropertyOp24
 70
     1
102
RTVSPropertyOp25
 70
     1
102
RTVSPropertyOp26
 70
     1
102
RTVSPropertyOp27
 70
     1
102
RTVSPropertyOp28
 70
     1
102
RTVSPropertyOp29
 70
     1
102
RTVSPropertyOp30
 70
     1
102
RTVSPropertyOp31
 70
     1
102
RTVSPropertyOp32
 70
     1
102
RTVSPropertyOp33
 70
     1
102
RTVSPropertyOp34
 70
     1
102
RTVSPropertyOp35
 70
     1
102
RTVSPropertyOp36
 70
     1
102
RTVSPropertyOp37
 70
     1
102
RTVSPropertyOp38
 70
     1
102
RTVSPropertyOp39
 70
     1
102
RTVSPropertyOp40
 70
     1
102
RTVSPropertyOp41
 70
     1
102
RTVSPropertyOp42
 70
     1
102
RTVSPropertyOp43
 70
     1
102
RTVSPropertyOp44
 70
     1
102
RTVSPropertyOp45
 70
     1
102
RTVSPropertyOp46
 70
     1
102
RTVSPropertyOp47
 70
     1
102
RTVSPropertyOp48
 70
     1
102
RTVSPropertyOp49
 70
     1
102
RTVSPropertyOp50
 70
     1
102
RTVSPropertyOp51
 70
     0
102
RTVSPropertyOp52
 70
     0
102
RTVSPropertyOp53
 70
     1
102
RTVSPropertyOp54
 70
     1
102
RTVSPropertyOp55
 70
     1
102
RTVSPropertyOp56
 70
     1
102
RTVSPropertyOp57
 70
     1
102
RTVSPropertyOp58
 70
     1
102
RTVSPropertyOp59
 70
     1
102
RTVSPropertyOp60
 70
     1
102
RTVSPropertyOp61
 70
     1
102
RTVSPropertyOp62
 70
     1
  0
XRECORD
  5
9D17
102
{ACAD_REACTORS
330
9D16
102
}
330
9D16
100
AcDbXrecord
280
     1
102
RTVSPost2010Prop28
280
     0
102
RTVSPost2010PropOp28
 70
     1
102
RTVSPost2010Prop29
280
     1
102
RTVSPost2010PropOp29
 70
     1
102
RTVSPost2010Prop30
280
     1
102
RTVSPost2010PropOp30
 70
     1
102
RTVSPost2010Prop31
280
     0
102
RTVSPost2010PropOp31
 70
     1
102
RTVSPost2010Prop32
280
     0
102
RTVSPost2010PropOp32
 70
     1
102
RTVSPost2010Prop33
280
     0
102
RTVSPost2010PropOp33
 70
     1
102
RTVSPost2010Prop34
280
     0
102
RTVSPost2010PropOp34
 70
     1
102
RTVSPost2010Prop35
280
     0
102
RTVSPost2010PropOp35
 70
     1
102
RTVSPost2010Prop36
280
     0
102
RTVSPost2010PropOp36
 70
     1
102
RTVSPost2010Prop37
 90
       50
102
RTVSPost2010PropOp37
 70
     1
102
RTVSPost2010Prop38
140
0.0
102
RTVSPost2010PropOp38
 70
     1
102
RTVSPost2010Prop39
140
1.0
102
RTVSPost2010PropOp39
 70
     1
102
RTVSPost2010Prop40
 90
        0
102
RTVSPost2010PropOp40
 70
     1
102
RTVSPost2010Prop41ColorIndex
 90
       18
102
RTVSPost2010Prop41ColorRGB
 90
        0
102
RTVSPost2010PropOp41
 70
     1
102
RTVSPost2010Prop42
 90
       50
102
RTVSPost2010PropOp42
 70
     1
102
RTVSPost2010Prop43
 90
        3
102
RTVSPost2010PropOp43
 70
     1
102
RTVSPost2010Prop44ColorIndex
 90
        5
102
RTVSPost2010Prop44ColorRGB
 90
      255
102
RTVSPost2010PropOp44
 70
     1
102
RTVSPost2010Prop45
280
     0
102
RTVSPost2010PropOp45
 70
     1
102
RTVSPost2010Prop46
 90
       50
102
RTVSPost2010PropOp46
 70
     1
102
RTVSPost2010Prop47
 90
       50
102
RTVSPost2010PropOp47
 70
     1
102
RTVSPost2010Prop48
 90
       50
102
RTVSPost2010PropOp48
 70
     1
102
RTVSPost2010Prop49
280
     0
102
RTVSPost2010PropOp49
 70
     1
102
RTVSPost2010Prop50
 90
       50
102
RTVSPost2010PropOp50
 70
     1
102
RTVSPost2010Prop51ColorIndex
 90
      256
102
RTVSPost2010Prop51ColorRGB
 90
-16777216
102
RTVSPost2010PropOp51
 70
     0
102
RTVSPost2010Prop52
140
1.0
102
RTVSPost2010PropOp52
 70
     0
102
RTVSPost2010Prop53
 90
        2
102
RTVSPost2010PropOp53
 70
     1
102
RTVSPost2010Prop54
  1
strokes_ogs.tif
102
RTVSPost2010PropOp54
 70
     1
102
RTVSPost2010Prop55
280
     0
102
RTVSPost2010PropOp55
 70
     1
102
RTVSPost2010Prop56
140
1.0
102
RTVSPost2010PropOp56
 70
     1
102
RTVSPost2010Prop57
140
1.0
102
RTVSPost2010PropOp57
 70
     1
102
RTVSPropertyOp0
 70
     1
102
RTVSPropertyOp1
 70
     1
102
RTVSPropertyOp2
 70
     1
102
RTVSPropertyOp3
 70
     1
102
RTVSPropertyOp4
 70
     1
102
RTVSPropertyOp5
 70
     1
102
RTVSPropertyOp6
 70
     1
102
RTVSPropertyOp7
 70
     1
102
RTVSPropertyOp8
 70
     1
102
RTVSPropertyOp9
 70
     1
102
RTVSPropertyOp10
 70
     1
102
RTVSPropertyOp11
 70
     1
102
RTVSPropertyOp12
 70
     1
102
RTVSPropertyOp13
 70
     1
102
RTVSPropertyOp14
 70
     1
102
RTVSPropertyOp15
 70
     1
102
RTVSPropertyOp16
 70
     1
102
RTVSPropertyOp17
 70
     1
102
RTVSPropertyOp18
 70
     1
102
RTVSPropertyOp19
 70
     1
102
RTVSPropertyOp20
 70
     1
102
RTVSPropertyOp21
 70
     1
102
RTVSPropertyOp22
 70
     1
102
RTVSPropertyOp23
 70
     1
102
RTVSPropertyOp24
 70
     1
102
RTVSPropertyOp25
 70
     1
102
RTVSPropertyOp26
 70
     1
102
RTVSPropertyOp27
 70
     1
102
RTVSPropertyOp28
 70
     1
102
RTVSPropertyOp29
 70
     1
102
RTVSPropertyOp30
 70
     1
102
RTVSPropertyOp31
 70
     1
102
RTVSPropertyOp32
 70
     1
102
RTVSPropertyOp33
 70
     1
102
RTVSPropertyOp34
 70
     1
102
RTVSPropertyOp35
 70
     1
102
RTVSPropertyOp36
 70
     1
102
RTVSPropertyOp37
 70
     1
102
RTVSPropertyOp38
 70
     1
102
RTVSPropertyOp39
 70
     1
102
RTVSPropertyOp40
 70
     1
102
RTVSPropertyOp41
 70
     1
102
RTVSPropertyOp42
 70
     1
102
RTVSPropertyOp43
 70
     1
102
RTVSPropertyOp44
 70
     1
102
RTVSPropertyOp45
 70
     1
102
RTVSPropertyOp46
 70
     1
102
RTVSPropertyOp47
 70
     1
102
RTVSPropertyOp48
 70
     1
102
RTVSPropertyOp49
 70
     1
102
RTVSPropertyOp50
 70
     1
102
RTVSPropertyOp51
 70
     0
102
RTVSPropertyOp52
 70
     0
102
RTVSPropertyOp53
 70
     1
102
RTVSPropertyOp54
 70
     1
102
RTVSPropertyOp55
 70
     1
102
RTVSPropertyOp56
 70
     1
102
RTVSPropertyOp57
 70
     1
102
RTVSPropertyOp58
 70
     1
102
RTVSPropertyOp59
 70
     1
102
RTVSPropertyOp60
 70
     1
102
RTVSPropertyOp61
 70
     1
102
RTVSPropertyOp62
 70
     1
  0
XRECORD
  5
9D19
102
{ACAD_REACTORS
330
9D18
102
}
330
9D18
100
AcDbXrecord
280
     1
102
RTVSPost2010Prop28
280
     0
102
RTVSPost2010PropOp28
 70
     1
102
RTVSPost2010Prop29
280
     1
102
RTVSPost2010PropOp29
 70
     1
102
RTVSPost2010Prop30
280
     1
102
RTVSPost2010PropOp30
 70
     1
102
RTVSPost2010Prop31
280
     0
102
RTVSPost2010PropOp31
 70
     1
102
RTVSPost2010Prop32
280
     0
102
RTVSPost2010PropOp32
 70
     1
102
RTVSPost2010Prop33
280
     0
102
RTVSPost2010PropOp33
 70
     1
102
RTVSPost2010Prop34
280
     0
102
RTVSPost2010PropOp34
 70
     1
102
RTVSPost2010Prop35
280
     0
102
RTVSPost2010PropOp35
 70
     1
102
RTVSPost2010Prop36
280
     0
102
RTVSPost2010PropOp36
 70
     1
102
RTVSPost2010Prop37
 90
       50
102
RTVSPost2010PropOp37
 70
     1
102
RTVSPost2010Prop38
140
0.0
102
RTVSPost2010PropOp38
 70
     1
102
RTVSPost2010Prop39
140
1.0
102
RTVSPost2010PropOp39
 70
     1
102
RTVSPost2010Prop40
 90
        0
102
RTVSPost2010PropOp40
 70
     1
102
RTVSPost2010Prop41ColorIndex
 90
       18
102
RTVSPost2010Prop41ColorRGB
 90
        0
102
RTVSPost2010PropOp41
 70
     1
102
RTVSPost2010Prop42
 90
       50
102
RTVSPost2010PropOp42
 70
     1
102
RTVSPost2010Prop43
 90
        3
102
RTVSPost2010PropOp43
 70
     1
102
RTVSPost2010Prop44ColorIndex
 90
        5
102
RTVSPost2010Prop44ColorRGB
 90
      255
102
RTVSPost2010PropOp44
 70
     1
102
RTVSPost2010Prop45
280
     0
102
RTVSPost2010PropOp45
 70
     1
102
RTVSPost2010Prop46
 90
       50
102
RTVSPost2010PropOp46
 70
     1
102
RTVSPost2010Prop47
 90
       50
102
RTVSPost2010PropOp47
 70
     1
102
RTVSPost2010Prop48
 90
       50
102
RTVSPost2010PropOp48
 70
     1
102
RTVSPost2010Prop49
280
     0
102
RTVSPost2010PropOp49
 70
     1
102
RTVSPost2010Prop50
 90
       50
102
RTVSPost2010PropOp50
 70
     1
102
RTVSPost2010Prop51ColorIndex
 90
      256
102
RTVSPost2010Prop51ColorRGB
 90
-16777216
102
RTVSPost2010PropOp51
 70
     0
102
RTVSPost2010Prop52
140
1.0
102
RTVSPost2010PropOp52
 70
     0
102
RTVSPost2010Prop53
 90
        2
102
RTVSPost2010PropOp53
 70
     1
102
RTVSPost2010Prop54
  1
strokes_ogs.tif
102
RTVSPost2010PropOp54
 70
     1
102
RTVSPost2010Prop55
280
     0
102
RTVSPost2010PropOp55
 70
     1
102
RTVSPost2010Prop56
140
1.0
102
RTVSPost2010PropOp56
 70
     1
102
RTVSPost2010Prop57
140
1.0
102
RTVSPost2010PropOp57
 70
     1
102
RTVSPropertyOp0
 70
     1
102
RTVSPropertyOp1
 70
     1
102
RTVSPropertyOp2
 70
     1
102
RTVSPropertyOp3
 70
     1
102
RTVSPropertyOp4
 70
     1
102
RTVSPropertyOp5
 70
     1
102
RTVSPropertyOp6
 70
     1
102
RTVSPropertyOp7
 70
     1
102
RTVSPropertyOp8
 70
     1
102
RTVSPropertyOp9
 70
     1
102
RTVSPropertyOp10
 70
     1
102
RTVSPropertyOp11
 70
     1
102
RTVSPropertyOp12
 70
     1
102
RTVSPropertyOp13
 70
     1
102
RTVSPropertyOp14
 70
     1
102
RTVSPropertyOp15
 70
     1
102
RTVSPropertyOp16
 70
     1
102
RTVSPropertyOp17
 70
     1
102
RTVSPropertyOp18
 70
     1
102
RTVSPropertyOp19
 70
     1
102
RTVSPropertyOp20
 70
     1
102
RTVSPropertyOp21
 70
     1
102
RTVSPropertyOp22
 70
     1
102
RTVSPropertyOp23
 70
     1
102
RTVSPropertyOp24
 70
     1
102
RTVSPropertyOp25
 70
     1
102
RTVSPropertyOp26
 70
     1
102
RTVSPropertyOp27
 70
     1
102
RTVSPropertyOp28
 70
     1
102
RTVSPropertyOp29
 70
     1
102
RTVSPropertyOp30
 70
     1
102
RTVSPropertyOp31
 70
     1
102
RTVSPropertyOp32
 70
     1
102
RTVSPropertyOp33
 70
     1
102
RTVSPropertyOp34
 70
     1
102
RTVSPropertyOp35
 70
     1
102
RTVSPropertyOp36
 70
     1
102
RTVSPropertyOp37
 70
     1
102
RTVSPropertyOp38
 70
     1
102
RTVSPropertyOp39
 70
     1
102
RTVSPropertyOp40
 70
     1
102
RTVSPropertyOp41
 70
     1
102
RTVSPropertyOp42
 70
     1
102
RTVSPropertyOp43
 70
     1
102
RTVSPropertyOp44
 70
     1
102
RTVSPropertyOp45
 70
     1
102
RTVSPropertyOp46
 70
     1
102
RTVSPropertyOp47
 70
     1
102
RTVSPropertyOp48
 70
     1
102
RTVSPropertyOp49
 70
     1
102
RTVSPropertyOp50
 70
     1
102
RTVSPropertyOp51
 70
     0
102
RTVSPropertyOp52
 70
     0
102
RTVSPropertyOp53
 70
     1
102
RTVSPropertyOp54
 70
     1
102
RTVSPropertyOp55
 70
     1
102
RTVSPropertyOp56
 70
     1
102
RTVSPropertyOp57
 70
     1
102
RTVSPropertyOp58
 70
     1
102
RTVSPropertyOp59
 70
     1
102
RTVSPropertyOp60
 70
     1
102
RTVSPropertyOp61
 70
     1
102
RTVSPropertyOp62
 70
     1
  0
XRECORD
  5
9D0F
102
{ACAD_REACTORS
330
9D0E
102
}
330
9D0E
100
AcDbXrecord
280
     1
102
RTVSPost2010Prop28
280
     0
102
RTVSPost2010PropOp28
 70
     1
102
RTVSPost2010Prop29
280
     1
102
RTVSPost2010PropOp29
 70
     1
102
RTVSPost2010Prop30
280
     1
102
RTVSPost2010PropOp30
 70
     1
102
RTVSPost2010Prop31
280
     0
102
RTVSPost2010PropOp31
 70
     1
102
RTVSPost2010Prop32
280
     0
102
RTVSPost2010PropOp32
 70
     1
102
RTVSPost2010Prop33
280
     0
102
RTVSPost2010PropOp33
 70
     1
102
RTVSPost2010Prop34
280
     0
102
RTVSPost2010PropOp34
 70
     1
102
RTVSPost2010Prop35
280
     0
102
RTVSPost2010PropOp35
 70
     1
102
RTVSPost2010Prop36
280
     0
102
RTVSPost2010PropOp36
 70
     1
102
RTVSPost2010Prop37
 90
       50
102
RTVSPost2010PropOp37
 70
     1
102
RTVSPost2010Prop38
140
0.0
102
RTVSPost2010PropOp38
 70
     1
102
RTVSPost2010Prop39
140
1.0
102
RTVSPost2010PropOp39
 70
     1
102
RTVSPost2010Prop40
 90
        0
102
RTVSPost2010PropOp40
 70
     1
102
RTVSPost2010Prop41ColorIndex
 90
       18
102
RTVSPost2010Prop41ColorRGB
 90
        0
102
RTVSPost2010PropOp41
 70
     1
102
RTVSPost2010Prop42
 90
       50
102
RTVSPost2010PropOp42
 70
     1
102
RTVSPost2010Prop43
 90
        3
102
RTVSPost2010PropOp43
 70
     1
102
RTVSPost2010Prop44ColorIndex
 90
        5
102
RTVSPost2010Prop44ColorRGB
 90
      255
102
RTVSPost2010PropOp44
 70
     1
102
RTVSPost2010Prop45
280
     0
102
RTVSPost2010PropOp45
 70
     1
102
RTVSPost2010Prop46
 90
       50
102
RTVSPost2010PropOp46
 70
     1
102
RTVSPost2010Prop47
 90
       50
102
RTVSPost2010PropOp47
 70
     1
102
RTVSPost2010Prop48
 90
       50
102
RTVSPost2010PropOp48
 70
     1
102
RTVSPost2010Prop49
280
     0
102
RTVSPost2010PropOp49
 70
     1
102
RTVSPost2010Prop50
 90
       50
102
RTVSPost2010PropOp50
 70
     1
102
RTVSPost2010Prop51ColorIndex
 90
      256
102
RTVSPost2010Prop51ColorRGB
 90
-16777216
102
RTVSPost2010PropOp51
 70
     0
102
RTVSPost2010Prop52
140
1.0
102
RTVSPost2010PropOp52
 70
     0
102
RTVSPost2010Prop53
 90
        2
102
RTVSPost2010PropOp53
 70
     1
102
RTVSPost2010Prop54
  1
strokes_ogs.tif
102
RTVSPost2010PropOp54
 70
     1
102
RTVSPost2010Prop55
280
     0
102
RTVSPost2010PropOp55
 70
     1
102
RTVSPost2010Prop56
140
1.0
102
RTVSPost2010PropOp56
 70
     1
102
RTVSPost2010Prop57
140
1.0
102
RTVSPost2010PropOp57
 70
     1
102
RTVSPropertyOp0
 70
     1
102
RTVSPropertyOp1
 70
     1
102
RTVSPropertyOp2
 70
     1
102
RTVSPropertyOp3
 70
     1
102
RTVSPropertyOp4
 70
     1
102
RTVSPropertyOp5
 70
     1
102
RTVSPropertyOp6
 70
     1
102
RTVSPropertyOp7
 70
     1
102
RTVSPropertyOp8
 70
     1
102
RTVSPropertyOp9
 70
     1
102
RTVSPropertyOp10
 70
     1
102
RTVSPropertyOp11
 70
     1
102
RTVSPropertyOp12
 70
     1
102
RTVSPropertyOp13
 70
     1
102
RTVSPropertyOp14
 70
     1
102
RTVSPropertyOp15
 70
     1
102
RTVSPropertyOp16
 70
     1
102
RTVSPropertyOp17
 70
     1
102
RTVSPropertyOp18
 70
     1
102
RTVSPropertyOp19
 70
     1
102
RTVSPropertyOp20
 70
     1
102
RTVSPropertyOp21
 70
     1
102
RTVSPropertyOp22
 70
     1
102
RTVSPropertyOp23
 70
     1
102
RTVSPropertyOp24
 70
     1
102
RTVSPropertyOp25
 70
     1
102
RTVSPropertyOp26
 70
     1
102
RTVSPropertyOp27
 70
     1
102
RTVSPropertyOp28
 70
     1
102
RTVSPropertyOp29
 70
     1
102
RTVSPropertyOp30
 70
     1
102
RTVSPropertyOp31
 70
     1
102
RTVSPropertyOp32
 70
     1
102
RTVSPropertyOp33
 70
     1
102
RTVSPropertyOp34
 70
     1
102
RTVSPropertyOp35
 70
     1
102
RTVSPropertyOp36
 70
     1
102
RTVSPropertyOp37
 70
     1
102
RTVSPropertyOp38
 70
     1
102
RTVSPropertyOp39
 70
     1
102
RTVSPropertyOp40
 70
     1
102
RTVSPropertyOp41
 70
     1
102
RTVSPropertyOp42
 70
     1
102
RTVSPropertyOp43
 70
     1
102
RTVSPropertyOp44
 70
     1
102
RTVSPropertyOp45
 70
     1
102
RTVSPropertyOp46
 70
     1
102
RTVSPropertyOp47
 70
     1
102
RTVSPropertyOp48
 70
     1
102
RTVSPropertyOp49
 70
     1
102
RTVSPropertyOp50
 70
     1
102
RTVSPropertyOp51
 70
     0
102
RTVSPropertyOp52
 70
     0
102
RTVSPropertyOp53
 70
     1
102
RTVSPropertyOp54
 70
     1
102
RTVSPropertyOp55
 70
     1
102
RTVSPropertyOp56
 70
     1
102
RTVSPropertyOp57
 70
     1
102
RTVSPropertyOp58
 70
     1
102
RTVSPropertyOp59
 70
     1
102
RTVSPropertyOp60
 70
     1
102
RTVSPropertyOp61
 70
     1
102
RTVSPropertyOp62
 70
     1
  0
XRECORD
  5
9D03
102
{ACAD_REACTORS
330
9D02
102
}
330
9D02
100
AcDbXrecord
280
     1
102
RTVSPost2010Prop28
280
     0
102
RTVSPost2010PropOp28
 70
     1
102
RTVSPost2010Prop29
280
     1
102
RTVSPost2010PropOp29
 70
     1
102
RTVSPost2010Prop30
280
     1
102
RTVSPost2010PropOp30
 70
     1
102
RTVSPost2010Prop31
280
     0
102
RTVSPost2010PropOp31
 70
     1
102
RTVSPost2010Prop32
280
     0
102
RTVSPost2010PropOp32
 70
     1
102
RTVSPost2010Prop33
280
     0
102
RTVSPost2010PropOp33
 70
     1
102
RTVSPost2010Prop34
280
     0
102
RTVSPost2010PropOp34
 70
     1
102
RTVSPost2010Prop35
280
     0
102
RTVSPost2010PropOp35
 70
     1
102
RTVSPost2010Prop36
280
     0
102
RTVSPost2010PropOp36
 70
     1
102
RTVSPost2010Prop37
 90
       50
102
RTVSPost2010PropOp37
 70
     1
102
RTVSPost2010Prop38
140
0.0
102
RTVSPost2010PropOp38
 70
     1
102
RTVSPost2010Prop39
140
1.0
102
RTVSPost2010PropOp39
 70
     1
102
RTVSPost2010Prop40
 90
        0
102
RTVSPost2010PropOp40
 70
     1
102
RTVSPost2010Prop41ColorIndex
 90
       18
102
RTVSPost2010Prop41ColorRGB
 90
        0
102
RTVSPost2010PropOp41
 70
     1
102
RTVSPost2010Prop42
 90
       50
102
RTVSPost2010PropOp42
 70
     1
102
RTVSPost2010Prop43
 90
        3
102
RTVSPost2010PropOp43
 70
     1
102
RTVSPost2010Prop44ColorIndex
 90
        5
102
RTVSPost2010Prop44ColorRGB
 90
      255
102
RTVSPost2010PropOp44
 70
     1
102
RTVSPost2010Prop45
280
     0
102
RTVSPost2010PropOp45
 70
     1
102
RTVSPost2010Prop46
 90
       50
102
RTVSPost2010PropOp46
 70
     1
102
RTVSPost2010Prop47
 90
       50
102
RTVSPost2010PropOp47
 70
     1
102
RTVSPost2010Prop48
 90
       50
102
RTVSPost2010PropOp48
 70
     1
102
RTVSPost2010Prop49
280
     0
102
RTVSPost2010PropOp49
 70
     1
102
RTVSPost2010Prop50
 90
       50
102
RTVSPost2010PropOp50
 70
     1
102
RTVSPost2010Prop51ColorIndex
 90
      256
102
RTVSPost2010Prop51ColorRGB
 90
-16777216
102
RTVSPost2010PropOp51
 70
     0
102
RTVSPost2010Prop52
140
1.0
102
RTVSPost2010PropOp52
 70
     0
102
RTVSPost2010Prop53
 90
        2
102
RTVSPost2010PropOp53
 70
     1
102
RTVSPost2010Prop54
  1
strokes_ogs.tif
102
RTVSPost2010PropOp54
 70
     1
102
RTVSPost2010Prop55
280
     0
102
RTVSPost2010PropOp55
 70
     1
102
RTVSPost2010Prop56
140
1.0
102
RTVSPost2010PropOp56
 70
     1
102
RTVSPost2010Prop57
140
1.0
102
RTVSPost2010PropOp57
 70
     1
102
RTVSPropertyOp0
 70
     1
102
RTVSPropertyOp1
 70
     1
102
RTVSPropertyOp2
 70
     1
102
RTVSPropertyOp3
 70
     1
102
RTVSPropertyOp4
 70
     1
102
RTVSPropertyOp5
 70
     1
102
RTVSPropertyOp6
 70
     1
102
RTVSPropertyOp7
 70
     1
102
RTVSPropertyOp8
 70
     1
102
RTVSPropertyOp9
 70
     1
102
RTVSPropertyOp10
 70
     1
102
RTVSPropertyOp11
 70
     1
102
RTVSPropertyOp12
 70
     1
102
RTVSPropertyOp13
 70
     1
102
RTVSPropertyOp14
 70
     1
102
RTVSPropertyOp15
 70
     1
102
RTVSPropertyOp16
 70
     1
102
RTVSPropertyOp17
 70
     1
102
RTVSPropertyOp18
 70
     1
102
RTVSPropertyOp19
 70
     1
102
RTVSPropertyOp20
 70
     1
102
RTVSPropertyOp21
 70
     1
102
RTVSPropertyOp22
 70
     1
102
RTVSPropertyOp23
 70
     1
102
RTVSPropertyOp24
 70
     1
102
RTVSPropertyOp25
 70
     1
102
RTVSPropertyOp26
 70
     1
102
RTVSPropertyOp27
 70
     1
102
RTVSPropertyOp28
 70
     1
102
RTVSPropertyOp29
 70
     1
102
RTVSPropertyOp30
 70
     1
102
RTVSPropertyOp31
 70
     1
102
RTVSPropertyOp32
 70
     1
102
RTVSPropertyOp33
 70
     1
102
RTVSPropertyOp34
 70
     1
102
RTVSPropertyOp35
 70
     1
102
RTVSPropertyOp36
 70
     1
102
RTVSPropertyOp37
 70
     1
102
RTVSPropertyOp38
 70
     1
102
RTVSPropertyOp39
 70
     1
102
RTVSPropertyOp40
 70
     1
102
RTVSPropertyOp41
 70
     1
102
RTVSPropertyOp42
 70
     1
102
RTVSPropertyOp43
 70
     1
102
RTVSPropertyOp44
 70
     1
102
RTVSPropertyOp45
 70
     1
102
RTVSPropertyOp46
 70
     1
102
RTVSPropertyOp47
 70
     1
102
RTVSPropertyOp48
 70
     1
102
RTVSPropertyOp49
 70
     1
102
RTVSPropertyOp50
 70
     1
102
RTVSPropertyOp51
 70
     0
102
RTVSPropertyOp52
 70
     0
102
RTVSPropertyOp53
 70
     1
102
RTVSPropertyOp54
 70
     1
102
RTVSPropertyOp55
 70
     1
102
RTVSPropertyOp56
 70
     1
102
RTVSPropertyOp57
 70
     1
102
RTVSPropertyOp58
 70
     1
102
RTVSPropertyOp59
 70
     1
102
RTVSPropertyOp60
 70
     1
102
RTVSPropertyOp61
 70
     1
102
RTVSPropertyOp62
 70
     1
  0
XRECORD
  5
9D1B
102
{ACAD_REACTORS
330
9D1A
102
}
330
9D1A
100
AcDbXrecord
280
     1
102
RTVSPost2010Prop28
280
     0
102
RTVSPost2010PropOp28
 70
     1
102
RTVSPost2010Prop29
280
     1
102
RTVSPost2010PropOp29
 70
     1
102
RTVSPost2010Prop30
280
     1
102
RTVSPost2010PropOp30
 70
     1
102
RTVSPost2010Prop31
280
     0
102
RTVSPost2010PropOp31
 70
     1
102
RTVSPost2010Prop32
280
     0
102
RTVSPost2010PropOp32
 70
     1
102
RTVSPost2010Prop33
280
     0
102
RTVSPost2010PropOp33
 70
     1
102
RTVSPost2010Prop34
280
     0
102
RTVSPost2010PropOp34
 70
     1
102
RTVSPost2010Prop35
280
     0
102
RTVSPost2010PropOp35
 70
     1
102
RTVSPost2010Prop36
280
     0
102
RTVSPost2010PropOp36
 70
     1
102
RTVSPost2010Prop37
 90
       50
102
RTVSPost2010PropOp37
 70
     1
102
RTVSPost2010Prop38
140
0.0
102
RTVSPost2010PropOp38
 70
     1
102
RTVSPost2010Prop39
140
1.0
102
RTVSPost2010PropOp39
 70
     1
102
RTVSPost2010Prop40
 90
        0
102
RTVSPost2010PropOp40
 70
     1
102
RTVSPost2010Prop41ColorIndex
 90
       18
102
RTVSPost2010Prop41ColorRGB
 90
        0
102
RTVSPost2010PropOp41
 70
     1
102
RTVSPost2010Prop42
 90
       50
102
RTVSPost2010PropOp42
 70
     1
102
RTVSPost2010Prop43
 90
        3
102
RTVSPost2010PropOp43
 70
     1
102
RTVSPost2010Prop44ColorIndex
 90
        5
102
RTVSPost2010Prop44ColorRGB
 90
      255
102
RTVSPost2010PropOp44
 70
     1
102
RTVSPost2010Prop45
280
     0
102
RTVSPost2010PropOp45
 70
     1
102
RTVSPost2010Prop46
 90
       50
102
RTVSPost2010PropOp46
 70
     1
102
RTVSPost2010Prop47
 90
       50
102
RTVSPost2010PropOp47
 70
     1
102
RTVSPost2010Prop48
 90
       50
102
RTVSPost2010PropOp48
 70
     1
102
RTVSPost2010Prop49
280
     0
102
RTVSPost2010PropOp49
 70
     1
102
RTVSPost2010Prop50
 90
       50
102
RTVSPost2010PropOp50
 70
     1
102
RTVSPost2010Prop51ColorIndex
 90
      256
102
RTVSPost2010Prop51ColorRGB
 90
-16777216
102
RTVSPost2010PropOp51
 70
     0
102
RTVSPost2010Prop52
140
1.0
102
RTVSPost2010PropOp52
 70
     0
102
RTVSPost2010Prop53
 90
        2
102
RTVSPost2010PropOp53
 70
     1
102
RTVSPost2010Prop54
  1
strokes_ogs.tif
102
RTVSPost2010PropOp54
 70
     1
102
RTVSPost2010Prop55
280
     0
102
RTVSPost2010PropOp55
 70
     1
102
RTVSPost2010Prop56
140
1.0
102
RTVSPost2010PropOp56
 70
     1
102
RTVSPost2010Prop57
140
1.0
102
RTVSPost2010PropOp57
 70
     1
102
RTVSPropertyOp0
 70
     1
102
RTVSPropertyOp1
 70
     1
102
RTVSPropertyOp2
 70
     1
102
RTVSPropertyOp3
 70
     1
102
RTVSPropertyOp4
 70
     1
102
RTVSPropertyOp5
 70
     1
102
RTVSPropertyOp6
 70
     1
102
RTVSPropertyOp7
 70
     1
102
RTVSPropertyOp8
 70
     1
102
RTVSPropertyOp9
 70
     1
102
RTVSPropertyOp10
 70
     1
102
RTVSPropertyOp11
 70
     1
102
RTVSPropertyOp12
 70
     1
102
RTVSPropertyOp13
 70
     1
102
RTVSPropertyOp14
 70
     1
102
RTVSPropertyOp15
 70
     1
102
RTVSPropertyOp16
 70
     1
102
RTVSPropertyOp17
 70
     1
102
RTVSPropertyOp18
 70
     1
102
RTVSPropertyOp19
 70
     1
102
RTVSPropertyOp20
 70
     1
102
RTVSPropertyOp21
 70
     1
102
RTVSPropertyOp22
 70
     1
102
RTVSPropertyOp23
 70
     1
102
RTVSPropertyOp24
 70
     1
102
RTVSPropertyOp25
 70
     1
102
RTVSPropertyOp26
 70
     1
102
RTVSPropertyOp27
 70
     1
102
RTVSPropertyOp28
 70
     1
102
RTVSPropertyOp29
 70
     1
102
RTVSPropertyOp30
 70
     1
102
RTVSPropertyOp31
 70
     1
102
RTVSPropertyOp32
 70
     1
102
RTVSPropertyOp33
 70
     1
102
RTVSPropertyOp34
 70
     1
102
RTVSPropertyOp35
 70
     1
102
RTVSPropertyOp36
 70
     1
102
RTVSPropertyOp37
 70
     1
102
RTVSPropertyOp38
 70
     1
102
RTVSPropertyOp39
 70
     1
102
RTVSPropertyOp40
 70
     1
102
RTVSPropertyOp41
 70
     1
102
RTVSPropertyOp42
 70
     1
102
RTVSPropertyOp43
 70
     1
102
RTVSPropertyOp44
 70
     1
102
RTVSPropertyOp45
 70
     1
102
RTVSPropertyOp46
 70
     1
102
RTVSPropertyOp47
 70
     1
102
RTVSPropertyOp48
 70
     1
102
RTVSPropertyOp49
 70
     1
102
RTVSPropertyOp50
 70
     1
102
RTVSPropertyOp51
 70
     0
102
RTVSPropertyOp52
 70
     0
102
RTVSPropertyOp53
 70
     1
102
RTVSPropertyOp54
 70
     1
102
RTVSPropertyOp55
 70
     1
102
RTVSPropertyOp56
 70
     1
102
RTVSPropertyOp57
 70
     1
102
RTVSPropertyOp58
 70
     1
102
RTVSPropertyOp59
 70
     1
102
RTVSPropertyOp60
 70
     1
102
RTVSPropertyOp61
 70
     1
102
RTVSPropertyOp62
 70
     1
  0
ENDSEC
  0
EOF
