  0
SECTION
  2
HEADER
  9
$ACADVER
  1
AC1015
  9
$ACADMAINTVER
 70
    20
  9
$DWGCODEPAGE
  3
ANSI_932
  9
$INSBASE
 10
0.0
 20
0.0
 30
0.0
  9
$EXTMIN
 10
9.99995
 20
9.999999999999998
 30
0.0
  9
$EXTMAX
 10
498.617645
 20
378.942139
 30
0.0
  9
$LIMMIN
 10
0.0
 20
0.0
  9
$LIMMAX
 10
554.3999999999998
 20
382.2
  9
$ORTHOMODE
 70
     1
  9
$REGENMODE
 70
     1
  9
$FILLMODE
 70
     1
  9
$QTEXTMODE
 70
     0
  9
$MIRRTEXT
 70
     1
  9
$LTSCALE
 40
20.0
  9
$ATTMODE
 70
     1
  9
$TEXTSIZE
 40
5.0
  9
$TRACEWID
 40
1.0
  9
$TEXTSTYLE
  7
STANDARD
  9
$CLAYER
  8
0
  9
$CELTYPE
  6
BYLAYER
  9
$CECOLOR
 62
   256
  9
$CELTSCALE
 40
1.0
  9
$DISPSILH
 70
     0
  9
$DIMSCALE
 40
1.0
  9
$DIMASZ
 40
3.0
  9
$DIMEXO
 40
1.0
  9
$DIMDLI
 40
10.0
  9
$DIMRND
 40
0.0
  9
$DIMDLE
 40
0.0
  9
$DIMEXE
 40
1.0
  9
$DIMTP
 40
0.0
  9
$DIMTM
 40
0.0
  9
$DIMTXT
 40
3.2
  9
$DIMCEN
 40
0.0
  9
$DIMTSZ
 40
0.0
  9
$DIMTOL
 70
     0
  9
$DIMLIM
 70
     0
  9
$DIMTIH
 70
     0
  9
$DIMTOH
 70
     0
  9
$DIMSE1
 70
     0
  9
$DIMSE2
 70
     0
  9
$DIMTAD
 70
     3
  9
$DIMZIN
 70
     8
  9
$DIMBLK
  1

  9
$DIMASO
 70
     1
  9
$DIMSHO
 70
     1
  9
$DIMPOST
  1

  9
$DIMAPOST
  1

  9
$DIMALT
 70
     0
  9
$DIMALTD
 70
     2
  9
$DIMALTF
 40
25.4
  9
$DIMLFAC
 40
1.0
  9
$DIMTOFL
 70
     1
  9
$DIMTVP
 40
0.0
  9
$DIMTIX
 70
     0
  9
$DIMSOXD
 70
     0
  9
$DIMSAH
 70
     1
  9
$DIMBLK1
  1

  9
$DIMBLK2
  1

  9
$DIMSTYLE
  2
STANDARD
  9
$DIMCLRD
 70
     0
  9
$DIMCLRE
 70
     0
  9
$DIMCLRT
 70
     0
  9
$DIMTFAC
 40
1.0
  9
$DIMGAP
 40
1.0
  9
$DIMJUST
 70
     0
  9
$DIMSD1
 70
     0
  9
$DIMSD2
 70
     0
  9
$DIMTOLJ
 70
     1
  9
$DIMTZIN
 70
     0
  9
$DIMALTZ
 70
     0
  9
$DIMALTTZ
 70
     0
  9
$DIMUPT
 70
     0
  9
$DIMDEC
 70
     4
  9
$DIMTDEC
 70
     4
  9
$DIMALTU
 70
     2
  9
$DIMALTTD
 70
     2
  9
$DIMTXSTY
  7
STANDARD
  9
$DIMAUNIT
 70
     0
  9
$DIMADEC
 70
     0
  9
$DIMALTRND
 40
0.0
  9
$DIMAZIN
 70
     0
  9
$DIMDSEP
 70
    46
  9
$DIMATFIT
 70
     3
  9
$DIMFRAC
 70
     0
  9
$DIMLDRBLK
  1

  9
$DIMLUNIT
 70
     2
  9
$DIMLWD
 70
    -2
  9
$DIMLWE
 70
    -2
  9
$DIMTMOVE
 70
     0
  9
$LUNITS
 70
     2
  9
$LUPREC
 70
     4
  9
$SKETCHINC
 40
1.0
  9
$FILLETRAD
 40
0.0
  9
$AUNITS
 70
     0
  9
$AUPREC
 70
     2
  9
$MENU
  1
.
  9
$ELEVATION
 40
0.0
  9
$PELEVATION
 40
0.0
  9
$THICKNESS
 40
0.0
  9
$LIMCHECK
 70
     0
  9
$CHAMFERA
 40
10.0
  9
$CHAMFERB
 40
10.0
  9
$CHAMFERC
 40
0.0
  9
$CHAMFERD
 40
0.0
  9
$SKPOLY
 70
     0
  9
$TDCREATE
 40
2451074.628889236
  9
$TDUCREATE
 40
2451074.253889236
  9
$TDUPDATE
 40
2457192.622894850
  9
$TDUUPDATE
 40
2457192.247894850
  9
$TDINDWG
 40
0.0000149884
  9
$TDUSRTIMER
 40
0.0000146644
  9
$USRTIMER
 70
     1
  9
$ANGBASE
 50
0.0
  9
$ANGDIR
 70
     0
  9
$PDMODE
 70
     0
  9
$PDSIZE
 40
0.0
  9
$PLINEWID
 40
0.0
  9
$SPLFRAME
 70
     0
  9
$SPLINETYPE
 70
     6
  9
$SPLINESEGS
 70
     8
  9
$HANDSEED
  5
97A9
  9
$SURFTAB1
 70
     6
  9
$SURFTAB2
 70
     6
  9
$SURFTYPE
 70
     6
  9
$SURFU
 70
     6
  9
$SURFV
 70
     6
  9
$UCSBASE
  2

  9
$UCSNAME
  2

  9
$UCSORG
 10
0.0
 20
0.0
 30
0.0
  9
$UCSXDIR
 10
1.0
 20
0.0
 30
0.0
  9
$UCSYDIR
 10
0.0
 20
1.0
 30
0.0
  9
$UCSORTHOREF
  2

  9
$UCSORTHOVIEW
 70
     0
  9
$UCSORGTOP
 10
0.0
 20
0.0
 30
0.0
  9
$UCSORGBOTTOM
 10
0.0
 20
0.0
 30
0.0
  9
$UCSORGLEFT
 10
0.0
 20
0.0
 30
0.0
  9
$UCSORGRIGHT
 10
0.0
 20
0.0
 30
0.0
  9
$UCSORGFRONT
 10
0.0
 20
0.0
 30
0.0
  9
$UCSORGBACK
 10
0.0
 20
0.0
 30
0.0
  9
$PUCSBASE
  2

  9
$PUCSNAME
  2

  9
$PUCSORG
 10
0.0
 20
0.0
 30
0.0
  9
$PUCSXDIR
 10
1.0
 20
0.0
 30
0.0
  9
$PUCSYDIR
 10
0.0
 20
1.0
 30
0.0
  9
$PUCSORTHOREF
  2

  9
$PUCSORTHOVIEW
 70
     0
  9
$PUCSORGTOP
 10
0.0
 20
0.0
 30
0.0
  9
$PUCSORGBOTTOM
 10
0.0
 20
0.0
 30
0.0
  9
$PUCSORGLEFT
 10
0.0
 20
0.0
 30
0.0
  9
$PUCSORGRIGHT
 10
0.0
 20
0.0
 30
0.0
  9
$PUCSORGFRONT
 10
0.0
 20
0.0
 30
0.0
  9
$PUCSORGBACK
 10
0.0
 20
0.0
 30
0.0
  9
$USERI1
 70
     0
  9
$USERI2
 70
     0
  9
$USERI3
 70
     0
  9
$USERI4
 70
     0
  9
$USERI5
 70
     0
  9
$USERR1
 40
0.0
  9
$USERR2
 40
0.0
  9
$USERR3
 40
0.0
  9
$USERR4
 40
0.0
  9
$USERR5
 40
0.0
  9
$WORLDVIEW
 70
     1
  9
$SHADEDGE
 70
     3
  9
$SHADEDIF
 70
    70
  9
$TILEMODE
 70
     1
  9
$MAXACTVP
 70
    16
  9
$PINSBASE
 10
0.0
 20
0.0
 30
0.0
  9
$PLIMCHECK
 70
     0
  9
$PEXTMIN
 10
1.000000000000000E+20
 20
1.000000000000000E+20
 30
1.000000000000000E+20
  9
$PEXTMAX
 10
-1.000000000000000E+20
 20
-1.000000000000000E+20
 30
-1.000000000000000E+20
  9
$PLIMMIN
 10
0.0
 20
0.0
  9
$PLIMMAX
 10
420.0
 20
297.0
  9
$UNITMODE
 70
     0
  9
$VISRETAIN
 70
     0
  9
$PLINEGEN
 70
     0
  9
$PSLTSCALE
 70
     0
  9
$TREEDEPTH
 70
  3020
  9
$CMLSTYLE
  2
STANDARD
  9
$CMLJUST
 70
     0
  9
$CMLSCALE
 40
1.0
  9
$PROXYGRAPHICS
 70
     1
  9
$MEASUREMENT
 70
     0
  9
$CELWEIGHT
370
    -1
  9
$ENDCAPS
280
     0
  9
$JOINSTYLE
280
     0
  9
$LWDISPLAY
290
     0
  9
$INSUNITS
 70
     0
  9
$HYPERLINKBASE
  1

  9
$STYLESHEET
  1

  9
$XEDIT
290
     1
  9
$CEPSNTYPE
380
     0
  9
$PSTYLEMODE
290
     1
  9
$FINGERPRINTGUID
  2
{D1413F5B-5A89-4D79-994F-80A1BD110526}
  9
$VERSIONGUID
  2
{0C19D2A2-1794-4DBF-9D18-E41D5BF1AECA}
  9
$EXTNAMES
290
     1
  9
$PSVPSCALE
 40
0.0
  9
$OLESTARTUP
290
     0
  0
ENDSEC
  0
SECTION
  2
CLASSES
  0
CLASS
  1
ACDBDICTIONARYWDFLT
  2
AcDbDictionaryWithDefault
  3
ObjectDBX Classes
 90
        0
280
     0
281
     0
  0
CLASS
  1
ACDBPLACEHOLDER
  2
AcDbPlaceHolder
  3
ObjectDBX Classes
 90
        0
280
     0
281
     0
  0
CLASS
  1
LAYOUT
  2
AcDbLayout
  3
ObjectDBX Classes
 90
        0
280
     0
281
     0
  0
CLASS
  1
DICTIONARYVAR
  2
AcDbDictionaryVar
  3
ObjectDBX Classes
 90
        0
280
     0
281
     0
  0
CLASS
  1
MATERIAL
  2
AcDbMaterial
  3
ObjectDBX Classes
 90
     1153
280
     0
281
     0
  0
CLASS
  1
VISUALSTYLE
  2
AcDbVisualStyle
  3
ObjectDBX Classes
 90
     4095
280
     0
281
     0
  0
CLASS
  1
TABLESTYLE
  2
AcDbTableStyle
  3
ObjectDBX Classes
 90
     4095
280
     0
281
     0
  0
CLASS
  1
SCALE
  2
AcDbScale
  3
ObjectDBX Classes
 90
     1153
280
     0
281
     0
  0
CLASS
  1
MLEADERSTYLE
  2
AcDbMLeaderStyle
  3
ACDB_MLEADERSTYLE_CLASS
 90
     4095
280
     0
281
     0
  0
CLASS
  1
ACDBSECTIONVIEWSTYLE
  2
AcDbSectionViewStyle
  3
ObjectDBX Classes
 90
     1025
280
     0
281
     0
  0
CLASS
  1
ACDBDETAILVIEWSTYLE
  2
AcDbDetailViewStyle
  3
ObjectDBX Classes
 90
     1025
280
     0
281
     0
  0
CLASS
  1
CELLSTYLEMAP
  2
AcDbCellStyleMap
  3
ObjectDBX Classes
 90
     1152
280
     0
281
     0
  0
ENDSEC
  0
SECTION
  2
TABLES
  0
TABLE
  2
VPORT
  5
94C9
330
0
100
AcDbSymbolTable
 70
     1
  0
VPORT
  5
96F2
330
94C9
100
AcDbSymbolTableRecord
100
AcDbViewportTableRecord
  2
*ACTIVE
 70
     0
 10
0.0
 20
0.0
 11
1.0
 21
1.0
 12
366.0460134352751
 22
194.4679284450689
 13
0.0
 23
0.0
 14
10.0
 24
10.0
 15
10.0
 25
10.0
 16
0.0
 26
0.0
 36
1.0
 17
0.0
 27
0.0
 37
0.0
 40
373.0822892750139
 41
1.899603698811096
 42
50.0
 43
0.0
 44
0.0
 50
0.0
 51
0.0
 71
     0
 72
   100
 73
     1
 74
     0
 75
     0
 76
     0
 77
     0
 78
     0
281
     0
 65
     1
110
0.0
120
0.0
130
0.0
111
1.0
121
0.0
131
0.0
112
0.0
122
1.0
132
0.0
 79
     0
146
0.0
1001
ACAD_NAV_VCDISPLAY
1070
     3
  0
ENDTAB
  0
TABLE
  2
LTYPE
  5
94C6
330
0
100
AcDbSymbolTable
 70
     4
  0
LTYPE
  5
94D4
330
94C6
100
AcDbSymbolTableRecord
100
AcDbLinetypeTableRecord
  2
BYBLOCK
 70
     0
  3

 72
    65
 73
     0
 40
0.0
  0
LTYPE
  5
94D5
330
94C6
100
AcDbSymbolTableRecord
100
AcDbLinetypeTableRecord
  2
BYLAYER
 70
     0
  3

 72
    65
 73
     0
 40
0.0
  0
LTYPE
  5
94D6
330
94C6
100
AcDbSymbolTableRecord
100
AcDbLinetypeTableRecord
  2
CONTINUOUS
 70
     0
  3
Solid line
 72
    65
 73
     0
 40
0.0
  0
LTYPE
  5
94E4
330
94C6
100
AcDbSymbolTableRecord
100
AcDbLinetypeTableRecord
  2
DASHED
 70
     0
  3
__ __ __ __ __ __ __ __ __ __ __ __ __ __ __ __
 72
    65
 73
     2
 40
0.75
 49
0.5
 74
     0
 49
-0.25
 74
     0
  0
LTYPE
  5
94E5
330
94C6
100
AcDbSymbolTableRecord
100
AcDbLinetypeTableRecord
  2
CENTER
 70
     0
  3
____ _ ____ _ ____ _ ____ _ ____ _ ____ _ ____ 
 72
    65
 73
     4
 40
2.0
 49
1.25
 74
     0
 49
-0.25
 74
     0
 49
0.25
 74
     0
 49
-0.25
 74
     0
  0
LTYPE
  5
94E6
330
94C6
100
AcDbSymbolTableRecord
100
AcDbLinetypeTableRecord
  2
PHANTOM
 70
     0
  3
______  __  __  ______  __  __  ______  __  __ 
 72
    65
 73
     6
 40
2.5
 49
1.25
 74
     0
 49
-0.25
 74
     0
 49
0.25
 74
     0
 49
-0.25
 74
     0
 49
0.25
 74
     0
 49
-0.25
 74
     0
  0
ENDTAB
  0
TABLE
  2
LAYER
  5
94C3
330
0
100
AcDbSymbolTable
 70
     8
  0
LAYER
  5
94D1
102
{ACAD_XDICTIONARY
360
974D
102
}
330
94C3
100
AcDbSymbolTableRecord
100
AcDbLayerTableRecord
  2
0
 70
     0
 62
     7
  6
CONTINUOUS
370
    -3
390
96FB
  0
LAYER
  5
94E7
102
{ACAD_XDICTIONARY
360
974F
102
}
330
94C3
100
AcDbSymbolTableRecord
100
AcDbLayerTableRecord
  2
4
 70
     0
 62
     1
  6
CENTER
370
    -3
390
96FB
  0
LAYER
  5
94E8
102
{ACAD_XDICTIONARY
360
9751
102
}
330
94C3
100
AcDbSymbolTableRecord
100
AcDbLayerTableRecord
  2
5
 70
     0
 62
     6
  6
PHANTOM
370
    -3
390
96FB
  0
LAYER
  5
94E9
102
{ACAD_XDICTIONARY
360
9753
102
}
330
94C3
100
AcDbSymbolTableRecord
100
AcDbLayerTableRecord
  2
1
 70
     0
 62
     7
  6
CONTINUOUS
370
    -3
390
96FB
  0
LAYER
  5
94EA
102
{ACAD_XDICTIONARY
360
9755
102
}
330
94C3
100
AcDbSymbolTableRecord
100
AcDbLayerTableRecord
  2
2
 70
     0
 62
     4
  6
CONTINUOUS
370
    -3
390
96FB
  0
LAYER
  5
94EB
102
{ACAD_XDICTIONARY
360
9757
102
}
330
94C3
100
AcDbSymbolTableRecord
100
AcDbLayerTableRecord
  2
3
 70
     0
 62
     2
  6
DASHED
370
    -3
390
96FB
  0
LAYER
  5
94EC
102
{ACAD_XDICTIONARY
360
9759
102
}
330
94C3
100
AcDbSymbolTableRecord
100
AcDbLayerTableRecord
  2
6
 70
     0
 62
     5
  6
CONTINUOUS
370
    -3
390
96FB
  0
LAYER
  5
94ED
102
{ACAD_XDICTIONARY
360
975B
102
}
330
94C3
100
AcDbSymbolTableRecord
100
AcDbLayerTableRecord
  2
7
 70
     0
 62
     3
  6
CONTINUOUS
370
    -3
390
96FB
  0
ENDTAB
  0
TABLE
  2
STYLE
  5
94C4
330
0
100
AcDbSymbolTable
 70
     1
  0
STYLE
  5
94D2
330
94C4
100
AcDbSymbolTableRecord
100
AcDbTextStyleTableRecord
  2
STANDARD
 70
     0
 40
0.0
 41
1.0
 50
0.0
 71
     0
 42
5.0
  3
txt
  4

  0
ENDTAB
  0
TABLE
  2
VIEW
  5
94C7
330
0
100
AcDbSymbolTable
 70
     0
  0
ENDTAB
  0
TABLE
  2
UCS
  5
94C8
330
0
100
AcDbSymbolTable
 70
     0
  0
ENDTAB
  0
TABLE
  2
APPID
  5
94CA
330
0
100
AcDbSymbolTable
 70
     3
  0
APPID
  5
94D3
330
94CA
100
AcDbSymbolTableRecord
100
AcDbRegAppTableRecord
  2
ACAD
 70
     0
  0
APPID
  5
9767
330
94CA
100
AcDbSymbolTableRecord
100
AcDbRegAppTableRecord
  2
ACAD_NAV_VCDISPLAY
 70
     0
  0
APPID
  5
97A0
330
94CA
100
AcDbSymbolTableRecord
100
AcDbRegAppTableRecord
  2
ACAD_MLEADERVER
 70
     0
  0
ENDTAB
  0
TABLE
  2
DIMSTYLE
  5
94CB
330
0
100
AcDbSymbolTable
 70
     1
100
AcDbDimStyleTable
 71
     0
  0
DIMSTYLE
105
94EF
330
94CB
100
AcDbSymbolTableRecord
100
AcDbDimStyleTableRecord
  2
STANDARD
 70
     0
 41
3.0
 42
1.0
 43
10.0
 44
1.0
 73
     0
 74
     0
 77
     3
 78
     8
140
3.2
141
0.0
147
1.0
172
     1
173
     1
284
     8
285
     8
286
     8
340
94D2
  0
ENDTAB
  0
TABLE
  2
BLOCK_RECORD
  5
94C2
330
0
100
AcDbSymbolTable
 70
     0
  0
BLOCK_RECORD
  5
94DF
102
{ACAD_XDICTIONARY
360
96F5
102
}
330
94C2
100
AcDbSymbolTableRecord
100
AcDbBlockTableRecord
  2
*MODEL_SPACE
340
9749
  0
BLOCK_RECORD
  5
94DB
102
{ACAD_XDICTIONARY
360
96F3
102
}
330
94C2
100
AcDbSymbolTableRecord
100
AcDbBlockTableRecord
  2
*PAPER_SPACE
340
974A
  0
ENDTAB
  0
ENDSEC
  0
SECTION
  2
BLOCKS
  0
BLOCK
  5
94E0
330
94DF
100
AcDbEntity
  8
0
100
AcDbBlockBegin
  2
*MODEL_SPACE
 70
     0
 10
0.0
 20
0.0
 30
0.0
  3
*MODEL_SPACE
  1

  0
ENDBLK
  5
94E1
330
94DF
100
AcDbEntity
  8
0
100
AcDbBlockEnd
  0
BLOCK
  5
94DC
330
94DB
100
AcDbEntity
 67
     1
  8
0
100
AcDbBlockBegin
  2
*PAPER_SPACE
 70
     0
 10
0.0
 20
0.0
 30
0.0
  3
*PAPER_SPACE
  1

  0
ENDBLK
  5
94DD
330
94DB
100
AcDbEntity
 67
     1
  8
0
100
AcDbBlockEnd
  0
ENDSEC
  0
SECTION
  2
ENTITIES
  0
LINE
  5
94F7
330
94DF
100
AcDbEntity
  8
4
  6
CENTER
100
AcDbLine
 10
484.217682
 20
200.471069
 30
0.0
 11
469.01767
 21
200.471069
 31
0.0
  0
LINE
  5
94F8
330
94DF
100
AcDbEntity
  8
1
  6
Continuous
100
AcDbLine
 10
122.0
 20
200.471069
 30
0.0
 11
122.0
 21
120.4710689999999
 31
0.0
  0
LINE
  5
94F9
330
94DF
100
AcDbEntity
  8
1
  6
Continuous
100
AcDbLine
 10
110.1188159999999
 20
119.282959
 30
0.0
 11
94.277233
 21
197.698792
 31
0.0
  0
LINE
  5
94FA
330
94DF
100
AcDbEntity
  8
1
  6
Continuous
100
AcDbLine
 10
124.0
 20
205.4710689999998
 30
0.0
 11
122.0
 21
205.4710689999998
 31
0.0
  0
LINE
  5
94FB
330
94DF
100
AcDbEntity
  8
1
  6
Continuous
100
AcDbLine
 10
124.0
 20
195.4710689999998
 30
0.0
 11
124.0
 21
205.4710689999998
 31
0.0
  0
LINE
  5
94FC
330
94DF
100
AcDbEntity
  8
1
  6
Continuous
100
AcDbLine
 10
124.0
 20
195.4710689999998
 30
0.0
 11
122.0
 21
195.4710689999998
 31
0.0
  0
LINE
  5
94FD
330
94DF
100
AcDbEntity
  8
1
  6
Continuous
100
AcDbLine
 10
124.0
 20
200.471069
 30
0.0
 11
122.0
 21
200.471069
 31
0.0
  0
LINE
  5
94FE
330
94DF
100
AcDbEntity
  8
1
  6
Continuous
100
AcDbLine
 10
128.0
 20
126.471069
 30
0.0
 11
122.0
 21
126.471069
 31
0.0
  0
LINE
  5
94FF
330
94DF
100
AcDbEntity
  8
1
  6
Continuous
100
AcDbLine
 10
128.0
 20
114.4710689999999
 30
0.0
 11
117.7499999999999
 21
114.4710689999999
 31
0.0
  0
LINE
  5
9500
330
94DF
100
AcDbEntity
  8
1
  6
Continuous
100
AcDbLine
 10
122.0
 20
118.721069
 30
0.0
 11
122.0
 21
114.4710689999999
 31
0.0
  0
LINE
  5
9501
330
94DF
100
AcDbEntity
  8
1
  6
Continuous
100
AcDbLine
 10
110.0
 20
118.721069
 30
0.0
 11
110.0
 21
114.4710689999999
 31
0.0
  0
LINE
  5
9502
330
94DF
100
AcDbEntity
  8
1
  6
Continuous
100
AcDbLine
 10
108.666687
 20
126.471069
 30
0.0
 11
104.0
 21
126.471069
 31
0.0
  0
LINE
  5
9503
330
94DF
100
AcDbEntity
  8
1
  6
Continuous
100
AcDbLine
 10
498.617645
 20
289.471069
 30
0.0
 11
482.117645
 21
289.471069
 31
0.0
  0
LINE
  5
9504
330
94DF
100
AcDbEntity
  8
1
  6
Continuous
100
AcDbLine
 10
498.617645
 20
287.471069
 30
0.0
 11
482.117645
 21
287.471069
 31
0.0
  0
LINE
  5
9505
330
94DF
100
AcDbEntity
  8
4
  6
CENTER
100
AcDbLine
 10
485.6176449999998
 20
280.4710689999998
 30
0.0
 11
474.117645
 21
280.4710689999998
 31
0.0
  0
LINE
  5
9506
330
94DF
100
AcDbEntity
  8
4
  6
CENTER
100
AcDbLine
 10
480.1176449999998
 20
120.4710689999999
 30
0.0
 11
466.117645
 21
120.4710689999999
 31
0.0
  0
LINE
  5
9507
330
94DF
100
AcDbEntity
  8
1
  6
Continuous
100
AcDbLine
 10
479.6176449999999
 20
286.7210689999998
 30
0.0
 11
479.6176449999999
 21
186.471069
 31
0.0
  0
LINE
  5
9508
330
94DF
100
AcDbEntity
  8
1
  6
Continuous
100
AcDbLine
 10
477.617645
 20
286.4710689999999
 30
0.0
 11
477.617645
 21
186.471069
 31
0.0
  0
LINE
  5
9509
330
94DF
100
AcDbEntity
  8
1
  6
Continuous
100
AcDbLine
 10
476.6176449999998
 20
214.471069
 30
0.0
 11
476.6176449999998
 21
114.4710689999999
 31
0.0
  0
LINE
  5
950A
330
94DF
100
AcDbEntity
  8
1
  6
Continuous
100
AcDbLine
 10
474.617645
 20
214.471069
 30
0.0
 11
474.617645
 21
114.2210689999999
 31
0.0
  0
LINE
  5
950B
330
94DF
100
AcDbEntity
  8
1
  6
Continuous
100
AcDbLine
 10
474.01767
 20
213.4710689999999
 30
0.0
 11
474.01767
 21
187.471069
 31
0.0
  0
LINE
  5
950C
330
94DF
100
AcDbEntity
  8
1
  6
Continuous
100
AcDbLine
 10
480.217682
 20
213.4710689999999
 30
0.0
 11
480.217682
 21
187.471069
 31
0.0
  0
LINE
  5
950D
330
94DF
100
AcDbEntity
  8
1
  6
Continuous
100
AcDbLine
 10
482.217682
 20
204.9710689999999
 30
0.0
 11
482.217682
 21
195.9710689999998
 31
0.0
  0
LINE
  5
950E
330
94DF
100
AcDbEntity
  8
1
  6
Continuous
100
AcDbLine
 10
472.51767
 20
205.4710689999998
 30
0.0
 11
472.51767
 21
195.4710689999998
 31
0.0
  0
LINE
  5
950F
330
94DF
100
AcDbEntity
  8
1
  6
Continuous
100
AcDbLine
 10
480.217682
 20
213.4710689999999
 30
0.0
 11
479.6176449999999
 21
213.4710689999999
 31
0.0
  0
LINE
  5
9510
330
94DF
100
AcDbEntity
  8
1
  6
Continuous
100
AcDbLine
 10
480.217682
 20
187.471069
 30
0.0
 11
479.6176449999999
 21
187.471069
 31
0.0
  0
LINE
  5
9511
330
94DF
100
AcDbEntity
  8
1
  6
Continuous
100
AcDbLine
 10
474.617645
 20
213.4710689999999
 30
0.0
 11
474.01767
 21
213.4710689999999
 31
0.0
  0
LINE
  5
9512
330
94DF
100
AcDbEntity
  8
1
  6
Continuous
100
AcDbLine
 10
474.617645
 20
187.471069
 30
0.0
 11
474.01767
 21
187.471069
 31
0.0
  0
LINE
  5
9513
330
94DF
100
AcDbEntity
  8
1
  6
Continuous
100
AcDbLine
 10
481.717682
 20
205.4710689999998
 30
0.0
 11
480.217682
 21
205.4710689999998
 31
0.0
  0
LINE
  5
9514
330
94DF
100
AcDbEntity
  8
1
  6
Continuous
100
AcDbLine
 10
481.717682
 20
195.4710689999998
 30
0.0
 11
480.217682
 21
195.4710689999998
 31
0.0
  0
LINE
  5
9515
330
94DF
100
AcDbEntity
  8
1
  6
Continuous
100
AcDbLine
 10
474.01767
 20
205.4710689999998
 30
0.0
 11
472.51767
 21
205.4710689999998
 31
0.0
  0
LINE
  5
9516
330
94DF
100
AcDbEntity
  8
1
  6
Continuous
100
AcDbLine
 10
474.01767
 20
195.4710689999998
 30
0.0
 11
472.51767
 21
195.4710689999998
 31
0.0
  0
LINE
  5
9517
330
94DF
100
AcDbEntity
  8
1
  6
Continuous
100
AcDbLine
 10
479.6176449999999
 20
186.471069
 30
0.0
 11
477.617645
 21
186.471069
 31
0.0
  0
LINE
  5
9518
330
94DF
100
AcDbEntity
  8
1
  6
Continuous
100
AcDbLine
 10
476.6176449999998
 20
214.471069
 30
0.0
 11
474.617645
 21
214.471069
 31
0.0
  0
LINE
  5
9519
330
94DF
100
AcDbEntity
  8
1
  6
Continuous
100
AcDbLine
 10
472.51767
 20
202.8710629999999
 30
0.0
 11
471.5176699999998
 21
202.8710629999999
 31
0.0
  0
LINE
  5
951A
330
94DF
100
AcDbEntity
  8
1
  6
Continuous
100
AcDbLine
 10
472.51767
 20
198.071075
 30
0.0
 11
471.5176699999998
 21
198.071075
 31
0.0
  0
LINE
  5
951B
330
94DF
100
AcDbEntity
  8
1
  6
Continuous
100
AcDbLine
 10
477.617645
 20
192.721069
 30
0.0
 11
476.6176449999998
 21
192.721069
 31
0.0
  0
LINE
  5
951C
330
94DF
100
AcDbEntity
  8
1
  6
Continuous
100
AcDbLine
 10
477.617645
 20
208.221069
 30
0.0
 11
476.6176449999998
 21
208.221069
 31
0.0
  0
LINE
  5
951D
330
94DF
100
AcDbEntity
  8
1
  6
Continuous
100
AcDbLine
 10
480.1176449999998
 20
287.471069
 30
0.0
 11
480.1176449999998
 21
274.2210689999998
 31
0.0
  0
LINE
  5
951E
330
94DF
100
AcDbEntity
  8
1
  6
Continuous
100
AcDbLine
 10
480.1176449999998
 20
286.7210689999998
 30
0.0
 11
479.6176449999999
 21
286.7210689999998
 31
0.0
  0
LINE
  5
951F
330
94DF
100
AcDbEntity
  8
1
  6
Continuous
100
AcDbLine
 10
480.1176449999998
 20
274.2210689999998
 30
0.0
 11
479.6176449999999
 21
274.2210689999998
 31
0.0
  0
LINE
  5
9520
330
94DF
100
AcDbEntity
  8
1
  6
Continuous
100
AcDbLine
 10
479.6176449999999
 20
286.4710689999999
 30
0.0
 11
477.617645
 21
286.4710689999999
 31
0.0
  0
LINE
  5
9521
330
94DF
100
AcDbEntity
  8
1
  6
Continuous
100
AcDbLine
 10
482.117645
 20
287.471069
 30
0.0
 11
482.117645
 21
274.471069
 31
0.0
  0
LINE
  5
9522
330
94DF
100
AcDbEntity
  8
1
  6
Continuous
100
AcDbLine
 10
482.117645
 20
274.471069
 30
0.0
 11
480.1176449999998
 21
274.471069
 31
0.0
  0
LINE
  5
9523
330
94DF
100
AcDbEntity
  8
1
  6
Continuous
100
AcDbLine
 10
498.617645
 20
289.471069
 30
0.0
 11
498.617645
 21
287.471069
 31
0.0
  0
LINE
  5
9524
330
94DF
100
AcDbEntity
  8
4
  6
CENTER
100
AcDbLine
 10
486.617645
 20
291.471069
 30
0.0
 11
486.617645
 21
285.471069
 31
0.0
  0
LINE
  5
9525
330
94DF
100
AcDbEntity
  8
4
  6
CENTER
100
AcDbLine
 10
493.6176449999998
 20
291.471069
 30
0.0
 11
493.6176449999998
 21
285.471069
 31
0.0
  0
LINE
  5
9526
330
94DF
100
AcDbEntity
  8
1
  6
Continuous
100
AcDbLine
 10
483.117645
 20
284.4710689999999
 30
0.0
 11
482.117645
 21
284.4710689999999
 31
0.0
  0
LINE
  5
9527
330
94DF
100
AcDbEntity
  8
1
  6
Continuous
100
AcDbLine
 10
483.117645
 20
276.471069
 30
0.0
 11
482.117645
 21
276.471069
 31
0.0
  0
LINE
  5
9528
330
94DF
100
AcDbEntity
  8
1
  6
Continuous
100
AcDbLine
 10
483.6176449999999
 20
283.971069
 30
0.0
 11
483.6176449999999
 21
276.971069
 31
0.0
  0
LINE
  5
9529
330
94DF
100
AcDbEntity
  8
1
  6
Continuous
100
AcDbLine
 10
477.617645
 20
282.8710629999998
 30
0.0
 11
476.417633
 21
282.8710629999998
 31
0.0
  0
LINE
  5
952A
330
94DF
100
AcDbEntity
  8
1
  6
Continuous
100
AcDbLine
 10
477.617645
 20
278.071075
 30
0.0
 11
476.417633
 21
278.071075
 31
0.0
  0
LINE
  5
952B
330
94DF
100
AcDbEntity
  8
1
  6
Continuous
100
AcDbLine
 10
474.117645
 20
126.471069
 30
0.0
 11
468.1176449999998
 21
126.471069
 31
0.0
  0
LINE
  5
952C
330
94DF
100
AcDbEntity
  8
1
  6
Continuous
100
AcDbLine
 10
476.6176449999998
 20
114.4710689999999
 30
0.0
 11
474.617645
 21
114.4710689999999
 31
0.0
  0
LINE
  5
952D
330
94DF
100
AcDbEntity
  8
1
  6
Continuous
100
AcDbLine
 10
474.117645
 20
126.7210689999999
 30
0.0
 11
474.117645
 21
114.2210689999999
 31
0.0
  0
LINE
  5
952E
330
94DF
100
AcDbEntity
  8
1
  6
Continuous
100
AcDbLine
 10
474.617645
 20
126.7210689999999
 30
0.0
 11
474.117645
 21
126.7210689999999
 31
0.0
  0
LINE
  5
952F
330
94DF
100
AcDbEntity
  8
1
  6
Continuous
100
AcDbLine
 10
474.617645
 20
114.2210689999999
 30
0.0
 11
474.117645
 21
114.2210689999999
 31
0.0
  0
LINE
  5
9530
330
94DF
100
AcDbEntity
  8
1
  6
Continuous
100
AcDbLine
 10
468.1176449999998
 20
126.471069
 30
0.0
 11
468.1176449999998
 21
114.4710689999999
 31
0.0
  0
LINE
  5
9531
330
94DF
100
AcDbEntity
  8
1
  6
Continuous
100
AcDbLine
 10
470.117645
 20
126.471069
 30
0.0
 11
470.117645
 21
114.4710689999999
 31
0.0
  0
LINE
  5
9532
330
94DF
100
AcDbEntity
  8
1
  6
Continuous
100
AcDbLine
 10
478.117645
 20
123.971069
 30
0.0
 11
478.117645
 21
116.971069
 31
0.0
  0
LINE
  5
9533
330
94DF
100
AcDbEntity
  8
1
  6
Continuous
100
AcDbLine
 10
477.617645
 20
124.471069
 30
0.0
 11
476.6176449999998
 21
124.471069
 31
0.0
  0
LINE
  5
9534
330
94DF
100
AcDbEntity
  8
1
  6
Continuous
100
AcDbLine
 10
477.617645
 20
116.4710689999999
 30
0.0
 11
476.6176449999998
 21
116.4710689999999
 31
0.0
  0
LINE
  5
9535
330
94DF
100
AcDbEntity
  8
1
  6
Continuous
100
AcDbLine
 10
474.117645
 20
114.4710689999999
 30
0.0
 11
468.1176449999998
 21
114.4710689999999
 31
0.0
  0
LINE
  5
9536
330
94DF
100
AcDbEntity
  8
1
  6
Continuous
100
AcDbLine
 10
203.0179289999999
 20
350.692139
 30
0.0
 11
203.0179289999999
 21
377.9421389999998
 31
0.0
  0
LINE
  5
9537
330
94DF
100
AcDbEntity
  8
1
  6
Continuous
100
AcDbLine
 10
203.6179349999999
 20
350.9421389999998
 30
0.0
 11
203.6179349999999
 21
378.942139
 31
0.0
  0
LINE
  5
9538
330
94DF
100
AcDbEntity
  8
1
  6
Continuous
100
AcDbLine
 10
205.6179349999999
 20
350.9421389999998
 30
0.0
 11
205.6179349999999
 21
378.942139
 31
0.0
  0
LINE
  5
9539
330
94DF
100
AcDbEntity
  8
1
  6
Continuous
100
AcDbLine
 10
207.1179349999999
 20
354.542145
 30
0.0
 11
207.1179349999999
 21
359.3421329999998
 31
0.0
  0
LINE
  5
953A
330
94DF
100
AcDbEntity
  8
4
  6
CENTER
100
AcDbLine
 10
182.6179349999999
 20
356.942139
 30
0.0
 11
214.1179349999999
 21
356.942139
 31
0.0
  0
LINE
  5
953B
330
94DF
100
AcDbEntity
  8
1
  6
Continuous
100
AcDbLine
 10
186.6179349999999
 20
350.9421389999998
 30
0.0
 11
203.0179289999999
 21
350.9421389999998
 31
0.0
  0
LINE
  5
953C
330
94DF
100
AcDbEntity
  8
1
  6
Continuous
100
AcDbLine
 10
186.6179349999999
 20
362.942139
 30
0.0
 11
203.0179289999999
 21
362.942139
 31
0.0
  0
LINE
  5
953D
330
94DF
100
AcDbEntity
  8
1
  6
Continuous
100
AcDbLine
 10
203.0179289999999
 20
350.692139
 30
0.0
 11
203.6179349999999
 21
350.692139
 31
0.0
  0
LINE
  5
953E
330
94DF
100
AcDbEntity
  8
1
  6
Continuous
100
AcDbLine
 10
203.0179289999999
 20
363.192139
 30
0.0
 11
203.6179349999999
 21
363.192139
 31
0.0
  0
LINE
  5
953F
330
94DF
100
AcDbEntity
  8
1
  6
Continuous
100
AcDbLine
 10
203.6179349999999
 20
350.9421389999998
 30
0.0
 11
205.6179349999999
 21
350.9421389999998
 31
0.0
  0
LINE
  5
9540
330
94DF
100
AcDbEntity
  8
1
  6
Continuous
100
AcDbLine
 10
205.6179349999999
 20
354.542145
 30
0.0
 11
207.1179349999999
 21
354.542145
 31
0.0
  0
LINE
  5
9541
330
94DF
100
AcDbEntity
  8
1
  6
Continuous
100
AcDbLine
 10
205.6179349999999
 20
359.3421329999998
 30
0.0
 11
207.1179349999999
 21
359.3421329999998
 31
0.0
  0
LINE
  5
9542
330
94DF
100
AcDbEntity
  8
1
  6
Continuous
100
AcDbLine
 10
203.6179349999999
 20
378.942139
 30
0.0
 11
205.6179349999999
 21
378.942139
 31
0.0
  0
LINE
  5
9543
330
94DF
100
AcDbEntity
  8
1
  6
Continuous
100
AcDbLine
 10
206.617935
 20
350.9421389999998
 30
0.0
 11
206.617935
 21
354.542145
 31
0.0
  0
LINE
  5
9544
330
94DF
100
AcDbEntity
  8
1
  6
Continuous
100
AcDbLine
 10
208.617935
 20
350.9421389999998
 30
0.0
 11
208.617935
 21
378.942139
 31
0.0
  0
LINE
  5
9545
330
94DF
100
AcDbEntity
  8
1
  6
Continuous
100
AcDbLine
 10
209.2179409999999
 20
351.942139
 30
0.0
 11
209.2179409999999
 21
377.9421389999998
 31
0.0
  0
LINE
  5
9546
330
94DF
100
AcDbEntity
  8
1
  6
Continuous
100
AcDbLine
 10
210.717941
 20
359.9421389999998
 30
0.0
 11
210.717941
 21
369.9421389999998
 31
0.0
  0
LINE
  5
9547
330
94DF
100
AcDbEntity
  8
1
  6
Continuous
100
AcDbLine
 10
212.217941
 20
362.542145
 30
0.0
 11
212.217941
 21
367.342133
 31
0.0
  0
LINE
  5
9548
330
94DF
100
AcDbEntity
  8
1
  6
Continuous
100
AcDbLine
 10
206.617935
 20
350.9421389999998
 30
0.0
 11
208.617935
 21
350.9421389999998
 31
0.0
  0
LINE
  5
9549
330
94DF
100
AcDbEntity
  8
4
  6
CENTER
100
AcDbLine
 10
199.017929
 20
364.942139
 30
0.0
 11
217.117935
 21
364.942139
 31
0.0
  0
LINE
  5
954A
330
94DF
100
AcDbEntity
  8
1
  6
Continuous
100
AcDbLine
 10
205.6179349999999
 20
372.692139
 30
0.0
 11
206.617935
 21
372.692139
 31
0.0
  0
LINE
  5
954B
330
94DF
100
AcDbEntity
  8
1
  6
Continuous
100
AcDbLine
 10
206.617935
 20
378.942139
 30
0.0
 11
208.617935
 21
378.942139
 31
0.0
  0
LINE
  5
954C
330
94DF
100
AcDbEntity
  8
1
  6
Continuous
100
AcDbLine
 10
208.617935
 20
351.942139
 30
0.0
 11
209.2179409999999
 21
351.942139
 31
0.0
  0
LINE
  5
954D
330
94DF
100
AcDbEntity
  8
1
  6
Continuous
100
AcDbLine
 10
203.0179289999999
 20
377.9421389999998
 30
0.0
 11
203.6179349999999
 21
377.9421389999998
 31
0.0
  0
LINE
  5
954E
330
94DF
100
AcDbEntity
  8
1
  6
Continuous
100
AcDbLine
 10
208.617935
 20
377.9421389999998
 30
0.0
 11
209.2179409999999
 21
377.9421389999998
 31
0.0
  0
LINE
  5
954F
330
94DF
100
AcDbEntity
  8
1
  6
Continuous
100
AcDbLine
 10
209.2179409999999
 20
359.9421389999998
 30
0.0
 11
210.717941
 21
359.9421389999998
 31
0.0
  0
LINE
  5
9550
330
94DF
100
AcDbEntity
  8
1
  6
Continuous
100
AcDbLine
 10
209.2179409999999
 20
369.9421389999998
 30
0.0
 11
210.717941
 21
369.9421389999998
 31
0.0
  0
LINE
  5
9551
330
94DF
100
AcDbEntity
  8
1
  6
Continuous
100
AcDbLine
 10
210.717941
 20
367.342133
 30
0.0
 11
212.217941
 21
367.342133
 31
0.0
  0
LINE
  5
9552
330
94DF
100
AcDbEntity
  8
1
  6
Continuous
100
AcDbLine
 10
210.717941
 20
362.542145
 30
0.0
 11
212.217941
 21
362.542145
 31
0.0
  0
LINE
  5
9553
330
94DF
100
AcDbEntity
  8
1
  6
Continuous
100
AcDbLine
 10
209.1179349999999
 20
350.692139
 30
0.0
 11
209.1179349999999
 21
351.942139
 31
0.0
  0
LINE
  5
9554
330
94DF
100
AcDbEntity
  8
1
  6
Continuous
100
AcDbLine
 10
213.117935
 20
342.9421389999999
 30
0.0
 11
213.117935
 21
350.9421389999998
 31
0.0
  0
LINE
  5
9555
330
94DF
100
AcDbEntity
  8
1
  6
Continuous
100
AcDbLine
 10
215.117935
 20
342.9421389999999
 30
0.0
 11
215.117935
 21
350.9421389999998
 31
0.0
  0
LINE
  5
9556
330
94DF
100
AcDbEntity
  8
1
  6
Continuous
100
AcDbLine
 10
211.117935
 20
352.9421389999998
 30
0.0
 11
211.117935
 21
360.942139
 31
0.0
  0
LINE
  5
9557
330
94DF
100
AcDbEntity
  8
1
  6
Continuous
100
AcDbLine
 10
213.117935
 20
342.9421389999999
 30
0.0
 11
215.117935
 21
342.9421389999999
 31
0.0
  0
LINE
  5
9558
330
94DF
100
AcDbEntity
  8
1
  6
Continuous
100
AcDbLine
 10
213.117935
 20
370.942139
 30
0.0
 11
215.117935
 21
370.942139
 31
0.0
  0
LINE
  5
9559
330
94DF
100
AcDbEntity
  8
1
  6
Continuous
100
AcDbLine
 10
211.117935
 20
350.9421389999998
 30
0.0
 11
213.117935
 21
350.9421389999998
 31
0.0
  0
LINE
  5
955A
330
94DF
100
AcDbEntity
  8
1
  6
Continuous
100
AcDbLine
 10
212.217941
 20
362.942139
 30
0.0
 11
213.117935
 21
362.942139
 31
0.0
  0
LINE
  5
955B
330
94DF
100
AcDbEntity
  8
1
  6
Continuous
100
AcDbLine
 10
211.117935
 20
352.9421389999998
 30
0.0
 11
213.117935
 21
352.9421389999998
 31
0.0
  0
LINE
  5
955C
330
94DF
100
AcDbEntity
  8
1
  6
Continuous
100
AcDbLine
 10
211.117935
 20
360.942139
 30
0.0
 11
213.117935
 21
360.942139
 31
0.0
  0
LINE
  5
955D
330
94DF
100
AcDbEntity
  8
1
  6
Continuous
100
AcDbLine
 10
213.117935
 20
362.942139
 30
0.0
 11
213.117935
 21
370.942139
 31
0.0
  0
LINE
  5
955E
330
94DF
100
AcDbEntity
  8
1
  6
Continuous
100
AcDbLine
 10
215.117935
 20
362.942139
 30
0.0
 11
215.117935
 21
370.942139
 31
0.0
  0
LINE
  5
955F
330
94DF
100
AcDbEntity
  8
1
  6
Continuous
100
AcDbLine
 10
208.6022489999999
 20
350.692139
 30
0.0
 11
209.1179349999999
 21
350.692139
 31
0.0
  0
LINE
  5
9560
330
94DF
100
AcDbEntity
  8
1
  6
Continuous
100
AcDbLine
 10
211.117935
 20
354.942139
 30
0.0
 11
212.3179319999999
 21
354.942139
 31
0.0
  0
LINE
  5
9561
330
94DF
100
AcDbEntity
  8
1
  6
Continuous
100
AcDbLine
 10
211.117935
 20
358.942139
 30
0.0
 11
212.3179319999999
 21
358.942139
 31
0.0
  0
LINE
  5
9562
330
94DF
100
AcDbEntity
  8
1
  6
Continuous
100
AcDbLine
 10
201.0179289999999
 20
362.942139
 30
0.0
 11
201.0179289999999
 21
369.442139
 31
0.0
  0
LINE
  5
9563
330
94DF
100
AcDbEntity
  8
1
  6
Continuous
100
AcDbLine
 10
201.517929
 20
369.9421389999998
 30
0.0
 11
203.0179289999999
 21
369.9421389999998
 31
0.0
  0
LINE
  5
9564
330
94DF
100
AcDbEntity
  8
4
  6
CENTER
100
AcDbLine
 10
211.117935
 20
346.9421389999998
 30
0.0
 11
217.117935
 21
346.9421389999998
 31
0.0
  0
LINE
  5
9565
330
94DF
100
AcDbEntity
  8
4
  6
CENTER
100
AcDbLine
 10
211.117935
 20
366.942139
 30
0.0
 11
217.117935
 21
366.942139
 31
0.0
  0
LINE
  5
9566
330
94DF
100
AcDbEntity
  8
1
  6
Continuous
100
AcDbLine
 10
207.6179349999999
 20
349.638885
 30
0.0
 11
207.6179349999999
 21
350.4062499999998
 31
0.0
  0
LINE
  5
9567
330
94DF
100
AcDbEntity
  8
1
  6
Continuous
100
AcDbLine
 10
205.6179199999998
 20
350.9421389999998
 30
0.0
 11
207.6179349999999
 21
350.4062499999998
 31
0.0
  0
LINE
  5
9568
330
94DF
100
AcDbEntity
  8
1
  6
Continuous
100
AcDbLine
 10
205.1002959999999
 20
349.010284
 30
0.0
 11
206.359116
 21
348.672974
 31
0.0
  0
LINE
  5
9569
330
94DF
100
AcDbEntity
  8
1
  6
Continuous
100
AcDbLine
 10
206.617905
 20
350.9421389999998
 30
0.0
 11
206.1179349999999
 21
350.8081669999999
 31
0.0
  0
LINE
  5
956A
330
94DF
100
AcDbEntity
  8
1
  6
Continuous
100
AcDbLine
 10
206.11792
 20
348.73761
 30
0.0
 11
205.876755
 21
348.672974
 31
0.0
  0
LINE
  5
956B
330
94DF
100
AcDbEntity
  8
1
  6
Continuous
100
AcDbLine
 10
206.617935
 20
359.3421329999998
 30
0.0
 11
206.617935
 21
378.942139
 31
0.0
  0
LINE
  5
956C
330
94DF
100
AcDbEntity
  8
1
  6
Continuous
100
AcDbLine
 10
203.0179289999999
 20
59.25
 30
0.0
 11
203.0179289999999
 21
32.0
 31
0.0
  0
LINE
  5
956D
330
94DF
100
AcDbEntity
  8
1
  6
Continuous
100
AcDbLine
 10
203.6179349999999
 20
59.25
 30
0.0
 11
203.6179349999999
 21
31.0
 31
0.0
  0
LINE
  5
956E
330
94DF
100
AcDbEntity
  8
4
  6
CENTER
100
AcDbLine
 10
182.6179349999999
 20
53.0
 30
0.0
 11
214.1179349999999
 21
53.0
 31
0.0
  0
LINE
  5
956F
330
94DF
100
AcDbEntity
  8
1
  6
Continuous
100
AcDbLine
 10
186.6179349999999
 20
59.0
 30
0.0
 11
203.0179289999999
 21
59.0
 31
0.0
  0
LINE
  5
9570
330
94DF
100
AcDbEntity
  8
1
  6
Continuous
100
AcDbLine
 10
186.6179349999999
 20
47.0
 30
0.0
 11
201.0179289999999
 21
47.0
 31
0.0
  0
LINE
  5
9571
330
94DF
100
AcDbEntity
  8
1
  6
Continuous
100
AcDbLine
 10
203.0179289999999
 20
59.25
 30
0.0
 11
203.6179349999999
 21
59.25
 31
0.0
  0
LINE
  5
9572
330
94DF
100
AcDbEntity
  8
1
  6
Continuous
100
AcDbLine
 10
203.6179349999999
 20
59.0
 30
0.0
 11
205.6179349999999
 21
59.0
 31
0.0
  0
LINE
  5
9573
330
94DF
100
AcDbEntity
  8
1
  6
Continuous
100
AcDbLine
 10
203.6179349999999
 20
31.0
 30
0.0
 11
205.6179349999999
 21
31.0
 31
0.0
  0
LINE
  5
9574
330
94DF
100
AcDbEntity
  8
1
  6
Continuous
100
AcDbLine
 10
206.617935
 20
59.0
 30
0.0
 11
206.617935
 21
31.0
 31
0.0
  0
LINE
  5
9575
330
94DF
100
AcDbEntity
  8
1
  6
Continuous
100
AcDbLine
 10
208.617935
 20
59.0
 30
0.0
 11
208.617935
 21
31.0
 31
0.0
  0
LINE
  5
9576
330
94DF
100
AcDbEntity
  8
1
  6
Continuous
100
AcDbLine
 10
209.2179409999999
 20
58.0
 30
0.0
 11
209.2179409999999
 21
57.62451899999999
 31
0.0
  0
LINE
  5
9577
330
94DF
100
AcDbEntity
  8
1
  6
Continuous
100
AcDbLine
 10
210.717941
 20
47.040405
 30
0.0
 11
210.717941
 21
40.0
 31
0.0
  0
LINE
  5
9578
330
94DF
100
AcDbEntity
  8
1
  6
Continuous
100
AcDbLine
 10
212.217941
 20
47.0
 30
0.0
 11
212.217941
 21
42.600006
 31
0.0
  0
LINE
  5
9579
330
94DF
100
AcDbEntity
  8
1
  6
Continuous
100
AcDbLine
 10
206.617935
 20
59.0
 30
0.0
 11
208.617935
 21
59.0
 31
0.0
  0
LINE
  5
957A
330
94DF
100
AcDbEntity
  8
4
  6
CENTER
100
AcDbLine
 10
199.017929
 20
45.0
 30
0.0
 11
217.117935
 21
45.0
 31
0.0
  0
LINE
  5
957B
330
94DF
100
AcDbEntity
  8
1
  6
Continuous
100
AcDbLine
 10
205.6179349999999
 20
37.25
 30
0.0
 11
206.617935
 21
37.25
 31
0.0
  0
LINE
  5
957C
330
94DF
100
AcDbEntity
  8
1
  6
Continuous
100
AcDbLine
 10
206.617935
 20
31.0
 30
0.0
 11
208.617935
 21
31.0
 31
0.0
  0
LINE
  5
957D
330
94DF
100
AcDbEntity
  8
1
  6
Continuous
100
AcDbLine
 10
209.1179349999999
 20
58.0
 30
0.0
 11
209.2179409999999
 21
58.0
 31
0.0
  0
LINE
  5
957E
330
94DF
100
AcDbEntity
  8
1
  6
Continuous
100
AcDbLine
 10
203.0179289999999
 20
32.0
 30
0.0
 11
203.6179349999999
 21
32.0
 31
0.0
  0
LINE
  5
957F
330
94DF
100
AcDbEntity
  8
1
  6
Continuous
100
AcDbLine
 10
208.617935
 20
32.0
 30
0.0
 11
209.2179409999999
 21
32.0
 31
0.0
  0
LINE
  5
9580
330
94DF
100
AcDbEntity
  8
1
  6
Continuous
100
AcDbLine
 10
209.2179409999999
 20
40.0
 30
0.0
 11
210.717941
 21
40.0
 31
0.0
  0
LINE
  5
9581
330
94DF
100
AcDbEntity
  8
1
  6
Continuous
100
AcDbLine
 10
210.717941
 20
42.600006
 30
0.0
 11
212.217941
 21
42.600006
 31
0.0
  0
LINE
  5
9582
330
94DF
100
AcDbEntity
  8
1
  6
Continuous
100
AcDbLine
 10
209.1179349999999
 20
59.25
 30
0.0
 11
209.1179349999999
 21
46.74999999999999
 31
0.0
  0
LINE
  5
9583
330
94DF
100
AcDbEntity
  8
1
  6
Continuous
100
AcDbLine
 10
213.117935
 20
67.0
 30
0.0
 11
213.117935
 21
59.0
 31
0.0
  0
LINE
  5
9584
330
94DF
100
AcDbEntity
  8
1
  6
Continuous
100
AcDbLine
 10
215.117935
 20
67.0
 30
0.0
 11
215.117935
 21
59.0
 31
0.0
  0
LINE
  5
9585
330
94DF
100
AcDbEntity
  8
1
  6
Continuous
100
AcDbLine
 10
211.117935
 20
57.0
 30
0.0
 11
211.117935
 21
49.0
 31
0.0
  0
LINE
  5
9586
330
94DF
100
AcDbEntity
  8
1
  6
Continuous
100
AcDbLine
 10
213.117935
 20
67.0
 30
0.0
 11
215.117935
 21
67.0
 31
0.0
  0
LINE
  5
9587
330
94DF
100
AcDbEntity
  8
1
  6
Continuous
100
AcDbLine
 10
213.117935
 20
39.0
 30
0.0
 11
215.117935
 21
39.0
 31
0.0
  0
LINE
  5
9588
330
94DF
100
AcDbEntity
  8
1
  6
Continuous
100
AcDbLine
 10
211.117935
 20
59.0
 30
0.0
 11
213.117935
 21
59.0
 31
0.0
  0
LINE
  5
9589
330
94DF
100
AcDbEntity
  8
1
  6
Continuous
100
AcDbLine
 10
211.117935
 20
47.0
 30
0.0
 11
213.117935
 21
47.0
 31
0.0
  0
LINE
  5
958A
330
94DF
100
AcDbEntity
  8
1
  6
Continuous
100
AcDbLine
 10
211.117935
 20
57.0
 30
0.0
 11
213.117935
 21
57.0
 31
0.0
  0
LINE
  5
958B
330
94DF
100
AcDbEntity
  8
1
  6
Continuous
100
AcDbLine
 10
211.117935
 20
49.0
 30
0.0
 11
213.117935
 21
49.0
 31
0.0
  0
LINE
  5
958C
330
94DF
100
AcDbEntity
  8
1
  6
Continuous
100
AcDbLine
 10
213.117935
 20
47.0
 30
0.0
 11
213.117935
 21
39.0
 31
0.0
  0
LINE
  5
958D
330
94DF
100
AcDbEntity
  8
1
  6
Continuous
100
AcDbLine
 10
215.117935
 20
47.0
 30
0.0
 11
215.117935
 21
39.0
 31
0.0
  0
LINE
  5
958E
330
94DF
100
AcDbEntity
  8
1
  6
Continuous
100
AcDbLine
 10
208.6022489999999
 20
59.25
 30
0.0
 11
209.1179349999999
 21
59.25
 31
0.0
  0
LINE
  5
958F
330
94DF
100
AcDbEntity
  8
1
  6
Continuous
100
AcDbLine
 10
211.117935
 20
55.0
 30
0.0
 11
212.3179319999999
 21
55.0
 31
0.0
  0
LINE
  5
9590
330
94DF
100
AcDbEntity
  8
1
  6
Continuous
100
AcDbLine
 10
211.117935
 20
51.0
 30
0.0
 11
212.3179319999999
 21
51.0
 31
0.0
  0
LINE
  5
9591
330
94DF
100
AcDbEntity
  8
1
  6
Continuous
100
AcDbLine
 10
201.0179289999999
 20
49.500004
 30
0.0
 11
201.0179289999999
 21
40.500019
 31
0.0
  0
LINE
  5
9592
330
94DF
100
AcDbEntity
  8
1
  6
Continuous
100
AcDbLine
 10
201.517929
 20
40.0
 30
0.0
 11
203.0179289999999
 21
40.0
 31
0.0
  0
LINE
  5
9593
330
94DF
100
AcDbEntity
  8
4
  6
CENTER
100
AcDbLine
 10
211.117935
 20
63.0
 30
0.0
 11
217.117935
 21
63.0
 31
0.0
  0
LINE
  5
9594
330
94DF
100
AcDbEntity
  8
4
  6
CENTER
100
AcDbLine
 10
211.117935
 20
43.0
 30
0.0
 11
217.117935
 21
43.0
 31
0.0
  0
LINE
  5
9595
330
94DF
100
AcDbEntity
  8
1
  6
Continuous
100
AcDbLine
 10
204.617935
 20
60.303215
 30
0.0
 11
204.617935
 21
59.53588899999999
 31
0.0
  0
LINE
  5
9596
330
94DF
100
AcDbEntity
  8
1
  6
Continuous
100
AcDbLine
 10
206.61795
 20
58.99998499999998
 30
0.0
 11
204.61795
 21
59.53588100000001
 31
0.0
  0
LINE
  5
9597
330
94DF
100
AcDbEntity
  8
1
  6
Continuous
100
AcDbLine
 10
207.1355899999999
 20
60.931831
 30
0.0
 11
205.876755
 21
61.269135
 31
0.0
  0
LINE
  5
9598
330
94DF
100
AcDbEntity
  8
1
  6
Continuous
100
AcDbLine
 10
205.6179199999998
 20
58.99999199999999
 30
0.0
 11
206.11792
 21
59.133972
 31
0.0
  0
LINE
  5
9599
330
94DF
100
AcDbEntity
  8
1
  6
Continuous
100
AcDbLine
 10
206.11792
 20
61.204521
 30
0.0
 11
206.359116
 21
61.26915
 31
0.0
  0
LINE
  5
959A
330
94DF
100
AcDbEntity
  8
1
  6
Continuous
100
AcDbLine
 10
208.617935
 20
46.74999999999999
 30
0.0
 11
209.1179349999999
 21
46.74999999999999
 31
0.0
  0
LINE
  5
959B
330
94DF
100
AcDbEntity
  8
1
  6
Continuous
100
AcDbLine
 10
205.1179349999999
 20
56.49999199999999
 30
0.0
 11
205.1179349999999
 21
49.500008
 31
0.0
  0
LINE
  5
959C
330
94DF
100
AcDbEntity
  8
1
  6
Continuous
100
AcDbLine
 10
205.6179349999999
 20
59.0
 30
0.0
 11
205.6179349999999
 21
31.0
 31
0.0
  0
LINE
  5
959D
330
94DF
100
AcDbEntity
  8
1
  6
Continuous
100
AcDbLine
 10
201.1179349999999
 20
50.0
 30
0.0
 11
203.0179289999999
 21
50.0
 31
0.0
  0
LINE
  5
959E
330
94DF
100
AcDbEntity
  8
1
  6
Continuous
100
AcDbLine
 10
201.1179349999999
 20
59.0
 30
0.0
 11
201.1179349999999
 21
50.0
 31
0.0
  0
LINE
  5
959F
330
94DF
100
AcDbEntity
  8
1
  6
Continuous
100
AcDbLine
 10
199.617935
 20
56.49999199999999
 30
0.0
 11
199.617935
 21
49.500008
 31
0.0
  0
LINE
  5
95A0
330
94DF
100
AcDbEntity
  8
1
  6
Continuous
100
AcDbLine
 10
205.6179349999999
 20
49.000008
 30
0.0
 11
206.617935
 21
49.000008
 31
0.0
  0
LINE
  5
95A1
330
94DF
100
AcDbEntity
  8
1
  6
Continuous
100
AcDbLine
 10
205.6179349999999
 20
56.999992
 30
0.0
 11
206.617935
 21
56.999992
 31
0.0
  0
LINE
  5
95A2
330
94DF
100
AcDbEntity
  8
1
  6
Continuous
100
AcDbLine
 10
200.117935
 20
49.000008
 30
0.0
 11
201.0179289999999
 21
49.000008
 31
0.0
  0
LINE
  5
95A3
330
94DF
100
AcDbEntity
  8
1
  6
Continuous
100
AcDbLine
 10
200.117935
 20
56.999992
 30
0.0
 11
201.1179349999999
 21
56.999992
 31
0.0
  0
LINE
  5
95A4
330
94DF
100
AcDbEntity
  8
1
  6
Continuous
100
AcDbLine
 10
209.2179409999999
 20
48.375481
 30
0.0
 11
209.2179409999999
 21
32.0
 31
0.0
  0
LINE
  5
95A5
330
94DF
100
AcDbEntity
  8
4
  6
CENTER
100
AcDbLine
 10
289.2753299999998
 20
200.4710849999999
 30
0.0
 11
327.866852
 21
200.4710849999999
 31
0.0
  0
LINE
  5
95A6
330
94DF
100
AcDbEntity
  8
4
  6
CENTER
100
AcDbLine
 10
309.493469
 20
218.478775
 30
0.0
 11
309.493469
 21
181.688736
 31
0.0
  0
LINE
  5
95A7
330
94DF
100
AcDbEntity
  8
5
  6
PHANTOM
100
AcDbLine
 10
323.493469
 20
200.4710849999999
 30
0.0
 11
323.493469
 21
120.4711
 31
0.0
  0
LINE
  5
95A8
330
94DF
100
AcDbEntity
  8
5
  6
PHANTOM
100
AcDbLine
 10
295.7707209999999
 20
197.698792
 30
0.0
 11
311.612305
 21
119.282959
 31
0.0
  0
LINE
  5
95A9
330
94DF
100
AcDbEntity
  8
1
  6
Continuous
100
AcDbLine
 10
295.4934689999999
 20
195.4710849999999
 30
0.0
 11
295.4934689999999
 21
126.471085
 31
0.0
  0
LINE
  5
95AA
330
94DF
100
AcDbEntity
  8
1
  6
Continuous
100
AcDbLine
 10
308.8267819999999
 20
126.471069
 30
0.0
 11
323.2162169999999
 21
197.6988069999999
 31
0.0
  0
LINE
  5
95AB
330
94DF
100
AcDbEntity
  8
1
  6
Continuous
100
AcDbLine
 10
293.493469
 20
205.4710849999999
 30
0.0
 11
295.4934689999999
 21
205.4710849999999
 31
0.0
  0
LINE
  5
95AC
330
94DF
100
AcDbEntity
  8
1
  6
Continuous
100
AcDbLine
 10
293.493469
 20
195.4710849999999
 30
0.0
 11
293.493469
 21
205.4710849999999
 31
0.0
  0
LINE
  5
95AD
330
94DF
100
AcDbEntity
  8
1
  6
Continuous
100
AcDbLine
 10
293.493469
 20
195.4710849999999
 30
0.0
 11
295.4934689999999
 21
195.4710849999999
 31
0.0
  0
LINE
  5
95AE
330
94DF
100
AcDbEntity
  8
1
  6
Continuous
100
AcDbLine
 10
293.493469
 20
200.4710849999999
 30
0.0
 11
295.4934689999999
 21
200.4710849999999
 31
0.0
  0
LINE
  5
95AF
330
94DF
100
AcDbEntity
  8
1
  6
Continuous
100
AcDbLine
 10
313.493469
 20
114.471085
 30
0.0
 11
289.4934689999999
 21
114.471085
 31
0.0
  0
LINE
  5
95B0
330
94DF
100
AcDbEntity
  8
1
  6
Continuous
100
AcDbLine
 10
313.493469
 20
126.471085
 30
0.0
 11
289.4934689999999
 21
126.471085
 31
0.0
  0
LINE
  5
95B1
330
94DF
100
AcDbEntity
  8
4
  6
CENTER
100
AcDbLine
 10
199.017899
 20
200.471069
 30
0.0
 11
214.2179109999999
 21
200.471069
 31
0.0
  0
LINE
  5
95B2
330
94DF
100
AcDbEntity
  8
1
  6
Continuous
100
AcDbLine
 10
184.6179349999999
 20
289.471069
 30
0.0
 11
201.1179349999999
 21
289.471069
 31
0.0
  0
LINE
  5
95B3
330
94DF
100
AcDbEntity
  8
1
  6
Continuous
100
AcDbLine
 10
184.6179349999999
 20
287.471069
 30
0.0
 11
201.1179349999999
 21
287.471069
 31
0.0
  0
LINE
  5
95B4
330
94DF
100
AcDbEntity
  8
4
  6
CENTER
100
AcDbLine
 10
197.6179349999999
 20
280.4710689999998
 30
0.0
 11
209.1179349999999
 21
280.4710689999998
 31
0.0
  0
LINE
  5
95B5
330
94DF
100
AcDbEntity
  8
4
  6
CENTER
100
AcDbLine
 10
203.1179349999999
 20
120.4710689999999
 30
0.0
 11
217.117935
 21
120.4710689999999
 31
0.0
  0
LINE
  5
95B6
330
94DF
100
AcDbEntity
  8
1
  6
Continuous
100
AcDbLine
 10
203.6179349999999
 20
286.7210689999998
 30
0.0
 11
203.6179349999999
 21
186.471069
 31
0.0
  0
LINE
  5
95B7
330
94DF
100
AcDbEntity
  8
1
  6
Continuous
100
AcDbLine
 10
205.6179349999999
 20
286.4710689999999
 30
0.0
 11
205.6179349999999
 21
205.4710689999998
 31
0.0
  0
LINE
  5
95B8
330
94DF
100
AcDbEntity
  8
1
  6
Continuous
100
AcDbLine
 10
206.617935
 20
214.471069
 30
0.0
 11
206.617935
 21
205.4710689999998
 31
0.0
  0
LINE
  5
95B9
330
94DF
100
AcDbEntity
  8
1
  6
Continuous
100
AcDbLine
 10
208.617935
 20
214.471069
 30
0.0
 11
208.617935
 21
114.2210689999999
 31
0.0
  0
LINE
  5
95BA
330
94DF
100
AcDbEntity
  8
1
  6
Continuous
100
AcDbLine
 10
209.217911
 20
213.4710689999999
 30
0.0
 11
209.217911
 21
187.471069
 31
0.0
  0
LINE
  5
95BB
330
94DF
100
AcDbEntity
  8
1
  6
Continuous
100
AcDbLine
 10
203.017899
 20
213.4710689999999
 30
0.0
 11
203.017899
 21
187.471069
 31
0.0
  0
LINE
  5
95BC
330
94DF
100
AcDbEntity
  8
1
  6
Continuous
100
AcDbLine
 10
201.0178989999999
 20
204.9710689999999
 30
0.0
 11
201.0178989999999
 21
195.9710689999998
 31
0.0
  0
LINE
  5
95BD
330
94DF
100
AcDbEntity
  8
1
  6
Continuous
100
AcDbLine
 10
210.7179109999999
 20
205.4710689999998
 30
0.0
 11
210.7179109999999
 21
195.4710689999998
 31
0.0
  0
LINE
  5
95BE
330
94DF
100
AcDbEntity
  8
1
  6
Continuous
100
AcDbLine
 10
203.017899
 20
213.4710689999999
 30
0.0
 11
203.6179349999999
 21
213.4710689999999
 31
0.0
  0
LINE
  5
95BF
330
94DF
100
AcDbEntity
  8
1
  6
Continuous
100
AcDbLine
 10
203.017899
 20
187.471069
 30
0.0
 11
203.6179349999999
 21
187.471069
 31
0.0
  0
LINE
  5
95C0
330
94DF
100
AcDbEntity
  8
1
  6
Continuous
100
AcDbLine
 10
208.617935
 20
213.4710689999999
 30
0.0
 11
209.217911
 21
213.4710689999999
 31
0.0
  0
LINE
  5
95C1
330
94DF
100
AcDbEntity
  8
1
  6
Continuous
100
AcDbLine
 10
208.617935
 20
187.471069
 30
0.0
 11
209.217911
 21
187.471069
 31
0.0
  0
LINE
  5
95C2
330
94DF
100
AcDbEntity
  8
1
  6
Continuous
100
AcDbLine
 10
201.5178989999999
 20
205.4710689999998
 30
0.0
 11
203.017899
 21
205.4710689999998
 31
0.0
  0
LINE
  5
95C3
330
94DF
100
AcDbEntity
  8
1
  6
Continuous
100
AcDbLine
 10
201.5178989999999
 20
195.4710689999998
 30
0.0
 11
203.017899
 21
195.4710689999998
 31
0.0
  0
LINE
  5
95C4
330
94DF
100
AcDbEntity
  8
1
  6
Continuous
100
AcDbLine
 10
209.217911
 20
205.4710689999998
 30
0.0
 11
210.7179109999999
 21
205.4710689999998
 31
0.0
  0
LINE
  5
95C5
330
94DF
100
AcDbEntity
  8
1
  6
Continuous
100
AcDbLine
 10
209.217911
 20
195.4710689999998
 30
0.0
 11
210.7179109999999
 21
195.4710689999998
 31
0.0
  0
LINE
  5
95C6
330
94DF
100
AcDbEntity
  8
1
  6
Continuous
100
AcDbLine
 10
203.6179349999999
 20
186.471069
 30
0.0
 11
205.6179349999999
 21
186.471069
 31
0.0
  0
LINE
  5
95C7
330
94DF
100
AcDbEntity
  8
1
  6
Continuous
100
AcDbLine
 10
206.617935
 20
214.471069
 30
0.0
 11
208.617935
 21
214.471069
 31
0.0
  0
LINE
  5
95C8
330
94DF
100
AcDbEntity
  8
1
  6
Continuous
100
AcDbLine
 10
210.7179109999999
 20
202.8710629999999
 30
0.0
 11
211.7179109999999
 21
202.8710629999999
 31
0.0
  0
LINE
  5
95C9
330
94DF
100
AcDbEntity
  8
1
  6
Continuous
100
AcDbLine
 10
210.7179109999999
 20
198.071075
 30
0.0
 11
211.7179109999999
 21
198.071075
 31
0.0
  0
LINE
  5
95CA
330
94DF
100
AcDbEntity
  8
1
  6
Continuous
100
AcDbLine
 10
205.6179349999999
 20
192.721069
 30
0.0
 11
206.617935
 21
192.721069
 31
0.0
  0
LINE
  5
95CB
330
94DF
100
AcDbEntity
  8
1
  6
Continuous
100
AcDbLine
 10
205.6179349999999
 20
208.221069
 30
0.0
 11
206.617935
 21
208.221069
 31
0.0
  0
LINE
  5
95CC
330
94DF
100
AcDbEntity
  8
1
  6
Continuous
100
AcDbLine
 10
203.1179349999999
 20
287.471069
 30
0.0
 11
203.1179349999999
 21
274.2210689999998
 31
0.0
  0
LINE
  5
95CD
330
94DF
100
AcDbEntity
  8
1
  6
Continuous
100
AcDbLine
 10
203.1179349999999
 20
286.7210689999998
 30
0.0
 11
203.6179349999999
 21
286.7210689999998
 31
0.0
  0
LINE
  5
95CE
330
94DF
100
AcDbEntity
  8
1
  6
Continuous
100
AcDbLine
 10
203.1179349999999
 20
274.2210689999998
 30
0.0
 11
203.6179349999999
 21
274.2210689999998
 31
0.0
  0
LINE
  5
95CF
330
94DF
100
AcDbEntity
  8
1
  6
Continuous
100
AcDbLine
 10
203.6179349999999
 20
286.4710689999999
 30
0.0
 11
205.6179349999999
 21
286.4710689999999
 31
0.0
  0
LINE
  5
95D0
330
94DF
100
AcDbEntity
  8
1
  6
Continuous
100
AcDbLine
 10
201.1179349999999
 20
287.471069
 30
0.0
 11
201.1179349999999
 21
274.471069
 31
0.0
  0
LINE
  5
95D1
330
94DF
100
AcDbEntity
  8
1
  6
Continuous
100
AcDbLine
 10
201.1179349999999
 20
274.471069
 30
0.0
 11
203.1179349999999
 21
274.471069
 31
0.0
  0
LINE
  5
95D2
330
94DF
100
AcDbEntity
  8
1
  6
Continuous
100
AcDbLine
 10
184.6179349999999
 20
289.471069
 30
0.0
 11
184.6179349999999
 21
287.471069
 31
0.0
  0
LINE
  5
95D3
330
94DF
100
AcDbEntity
  8
4
  6
CENTER
100
AcDbLine
 10
196.6179349999999
 20
291.471069
 30
0.0
 11
196.6179349999999
 21
285.471069
 31
0.0
  0
LINE
  5
95D4
330
94DF
100
AcDbEntity
  8
4
  6
CENTER
100
AcDbLine
 10
189.6179349999999
 20
291.471069
 30
0.0
 11
189.6179349999999
 21
285.471069
 31
0.0
  0
LINE
  5
95D5
330
94DF
100
AcDbEntity
  8
1
  6
Continuous
100
AcDbLine
 10
200.117935
 20
284.4710689999999
 30
0.0
 11
201.1179349999999
 21
284.4710689999999
 31
0.0
  0
LINE
  5
95D6
330
94DF
100
AcDbEntity
  8
1
  6
Continuous
100
AcDbLine
 10
200.117935
 20
276.471069
 30
0.0
 11
201.1179349999999
 21
276.471069
 31
0.0
  0
LINE
  5
95D7
330
94DF
100
AcDbEntity
  8
1
  6
Continuous
100
AcDbLine
 10
199.617935
 20
283.971069
 30
0.0
 11
199.617935
 21
276.971069
 31
0.0
  0
LINE
  5
95D8
330
94DF
100
AcDbEntity
  8
1
  6
Continuous
100
AcDbLine
 10
205.6179349999999
 20
282.8710629999998
 30
0.0
 11
206.817932
 21
282.8710629999998
 31
0.0
  0
LINE
  5
95D9
330
94DF
100
AcDbEntity
  8
1
  6
Continuous
100
AcDbLine
 10
205.6179349999999
 20
278.071075
 30
0.0
 11
206.817932
 21
278.071075
 31
0.0
  0
LINE
  5
95DA
330
94DF
100
AcDbEntity
  8
1
  6
Continuous
100
AcDbLine
 10
209.1179349999999
 20
126.471069
 30
0.0
 11
215.117935
 21
126.471069
 31
0.0
  0
LINE
  5
95DB
330
94DF
100
AcDbEntity
  8
1
  6
Continuous
100
AcDbLine
 10
206.617935
 20
114.4710689999999
 30
0.0
 11
208.617935
 21
114.4710689999999
 31
0.0
  0
LINE
  5
95DC
330
94DF
100
AcDbEntity
  8
1
  6
Continuous
100
AcDbLine
 10
209.1179349999999
 20
126.7210689999999
 30
0.0
 11
209.1179349999999
 21
114.2210689999999
 31
0.0
  0
LINE
  5
95DD
330
94DF
100
AcDbEntity
  8
1
  6
Continuous
100
AcDbLine
 10
208.617935
 20
126.7210689999999
 30
0.0
 11
209.1179349999999
 21
126.7210689999999
 31
0.0
  0
LINE
  5
95DE
330
94DF
100
AcDbEntity
  8
1
  6
Continuous
100
AcDbLine
 10
208.617935
 20
114.2210689999999
 30
0.0
 11
209.1179349999999
 21
114.2210689999999
 31
0.0
  0
LINE
  5
95DF
330
94DF
100
AcDbEntity
  8
1
  6
Continuous
100
AcDbLine
 10
215.117935
 20
126.471069
 30
0.0
 11
215.117935
 21
114.4710689999999
 31
0.0
  0
LINE
  5
95E0
330
94DF
100
AcDbEntity
  8
1
  6
Continuous
100
AcDbLine
 10
213.117935
 20
126.471069
 30
0.0
 11
213.117935
 21
114.4710689999999
 31
0.0
  0
LINE
  5
95E1
330
94DF
100
AcDbEntity
  8
1
  6
Continuous
100
AcDbLine
 10
205.1179349999999
 20
123.971069
 30
0.0
 11
205.1179349999999
 21
116.971069
 31
0.0
  0
LINE
  5
95E2
330
94DF
100
AcDbEntity
  8
1
  6
Continuous
100
AcDbLine
 10
205.6179349999999
 20
124.471069
 30
0.0
 11
206.617935
 21
124.471069
 31
0.0
  0
LINE
  5
95E3
330
94DF
100
AcDbEntity
  8
1
  6
Continuous
100
AcDbLine
 10
205.6179349999999
 20
116.4710689999999
 30
0.0
 11
206.617935
 21
116.4710689999999
 31
0.0
  0
LINE
  5
95E4
330
94DF
100
AcDbEntity
  8
1
  6
Continuous
100
AcDbLine
 10
209.1179349999999
 20
114.4710689999999
 30
0.0
 11
215.117935
 21
114.4710689999999
 31
0.0
  0
LINE
  5
95E5
330
94DF
100
AcDbEntity
  8
1
  6
Continuous
100
AcDbLine
 10
305.493469
 20
126.471085
 30
0.0
 11
305.493469
 21
114.471085
 31
0.0
  0
LINE
  5
95E6
330
94DF
100
AcDbEntity
  8
1
  6
Continuous
100
AcDbLine
 10
297.4934689999999
 20
126.471085
 30
0.0
 11
297.4934689999999
 21
114.471085
 31
0.0
  0
LINE
  5
95E7
330
94DF
100
AcDbEntity
  8
1
  6
Continuous
100
AcDbLine
 10
203.6179349999999
 20
205.4710689999998
 30
0.0
 11
207.6179349999999
 21
205.4710689999998
 31
0.0
  0
LINE
  5
95E8
330
94DF
100
AcDbEntity
  8
1
  6
Continuous
100
AcDbLine
 10
204.617935
 20
195.4710689999998
 30
0.0
 11
208.617935
 21
195.4710689999998
 31
0.0
  0
LINE
  5
95E9
330
94DF
100
AcDbEntity
  8
1
  6
Continuous
100
AcDbLine
 10
204.617935
 20
200.471069
 30
0.0
 11
204.617935
 21
195.4710689999998
 31
0.0
  0
LINE
  5
95EA
330
94DF
100
AcDbEntity
  8
1
  6
Continuous
100
AcDbLine
 10
206.617935
 20
195.4710689999998
 30
0.0
 11
206.617935
 21
114.4710689999999
 31
0.0
  0
LINE
  5
95EB
330
94DF
100
AcDbEntity
  8
1
  6
Continuous
100
AcDbLine
 10
205.6179349999999
 20
195.4710689999998
 30
0.0
 11
205.6179349999999
 21
186.471069
 31
0.0
  0
LINE
  5
95EC
330
94DF
100
AcDbEntity
  8
1
  6
Continuous
100
AcDbLine
 10
207.6179349999999
 20
205.4710689999998
 30
0.0
 11
207.6179349999999
 21
200.471069
 31
0.0
  0
LINE
  5
95ED
330
94DF
100
AcDbEntity
  8
1
  6
Continuous
100
AcDbLine
 10
208.617935
 20
200.471069
 30
0.0
 11
203.6179349999999
 21
200.471069
 31
0.0
  0
LINE
  5
95EE
330
94DF
100
AcDbEntity
  8
4
  6
CENTER
100
AcDbLine
 10
116.0
 20
128.471069
 30
0.0
 11
116.0
 21
112.471069
 31
0.0
  0
LINE
  5
95EF
330
94DF
100
AcDbEntity
  8
4
  6
CENTER
100
AcDbLine
 10
301.493469
 20
128.4710849999999
 30
0.0
 11
301.493469
 21
112.471085
 31
0.0
  0
LINE
  5
95F0
330
94DF
100
AcDbEntity
  8
4
  6
CENTER
100
AcDbLine
 10
126.0
 20
200.471069
 30
0.0
 11
90.0
 21
200.471069
 31
0.0
  0
LINE
  5
95F1
330
94DF
100
AcDbEntity
  8
4
  6
CENTER
100
AcDbLine
 10
108.0
 20
218.471069
 30
0.0
 11
108.0
 21
182.471069
 31
0.0
  0
LINE
  5
95F2
330
94DF
100
AcDbEntity
  8
4
  6
CENTER
100
AcDbLine
 10
193.2179409999999
 20
354.942139
 30
0.0
 11
186.0179289999999
 21
354.942139
 31
0.0
  0
LINE
  5
95F3
330
94DF
100
AcDbEntity
  8
4
  6
CENTER
100
AcDbLine
 10
189.6179349999999
 20
358.542145
 30
0.0
 11
189.6179349999999
 21
351.3421329999998
 31
0.0
  0
LINE
  5
95F4
330
94DF
100
AcDbEntity
  8
4
  6
CENTER
100
AcDbLine
 10
200.217941
 20
358.942139
 30
0.0
 11
193.017929
 21
358.942139
 31
0.0
  0
LINE
  5
95F5
330
94DF
100
AcDbEntity
  8
4
  6
CENTER
100
AcDbLine
 10
196.6179349999999
 20
362.542145
 30
0.0
 11
196.6179349999999
 21
355.3421329999998
 31
0.0
  0
LINE
  5
95F6
330
94DF
100
AcDbEntity
  8
4
  6
CENTER
100
AcDbLine
 10
194.8679349999999
 20
55.0
 30
0.0
 11
184.367935
 21
55.0
 31
0.0
  0
LINE
  5
95F7
330
94DF
100
AcDbEntity
  8
4
  6
CENTER
100
AcDbLine
 10
189.6179349999999
 20
60.25
 30
0.0
 11
189.6179349999999
 21
49.75
 31
0.0
  0
LINE
  5
95F8
330
94DF
100
AcDbEntity
  8
4
  6
CENTER
100
AcDbLine
 10
201.8679349999999
 20
51.0
 30
0.0
 11
191.3679349999999
 21
51.0
 31
0.0
  0
LINE
  5
95F9
330
94DF
100
AcDbEntity
  8
4
  6
CENTER
100
AcDbLine
 10
196.6179349999999
 20
56.25
 30
0.0
 11
196.6179349999999
 21
45.75
 31
0.0
  0
LINE
  5
95FA
330
94DF
100
AcDbEntity
  8
4
  6
CENTER
100
AcDbLine
 10
309.493469
 20
120.4711
 30
0.0
 11
325.493469
 21
120.4711
 31
0.0
  0
LINE
  5
95FB
330
94DF
100
AcDbEntity
  8
4
  6
CENTER
100
AcDbLine
 10
317.493469
 20
112.4711
 30
0.0
 11
317.493469
 21
128.4711
 31
0.0
  0
LINE
  5
95FC
330
94DF
100
AcDbEntity
  8
4
  6
CENTER
100
AcDbLine
 10
106.0
 20
126.7210689999999
 30
0.0
 11
106.0
 21
114.2210689999999
 31
0.0
  0
LINE
  5
95FD
330
94DF
100
AcDbEntity
  8
4
  6
CENTER
100
AcDbLine
 10
99.75000000000001
 20
120.4710689999999
 30
0.0
 11
132.25
 21
120.4710689999999
 31
0.0
  0
LINE
  5
95FE
330
94DF
100
AcDbEntity
  8
4
  6
CENTER
100
AcDbLine
 10
126.0
 20
126.7210689999999
 30
0.0
 11
126.0
 21
114.2210689999999
 31
0.0
  0
LINE
  5
95FF
330
94DF
100
AcDbEntity
  8
4
  6
CENTER
100
AcDbLine
 10
291.4934689999999
 20
124.071091
 30
0.0
 11
291.4934689999999
 21
116.871078
 31
0.0
  0
LINE
  5
9600
330
94DF
100
AcDbEntity
  8
4
  6
CENTER
100
AcDbLine
 10
285.622589
 20
120.471085
 30
0.0
 11
317.950439
 21
120.471085
 31
0.0
  0
LINE
  5
9601
330
94DF
100
AcDbEntity
  8
4
  6
CENTER
100
AcDbLine
 10
311.493469
 20
124.071091
 30
0.0
 11
311.493469
 21
116.871078
 31
0.0
  0
LINE
  5
9602
330
94DF
100
AcDbEntity
  8
1
  6
Continuous
100
AcDbLine
 10
205.1179349999999
 20
116.971069
 30
0.0
 11
205.6179349999999
 21
116.4710689999999
 31
0.0
  0
LINE
  5
9603
330
94DF
100
AcDbEntity
  8
1
  6
Continuous
100
AcDbLine
 10
205.1179349999999
 20
123.971069
 30
0.0
 11
205.6179349999999
 21
124.471069
 31
0.0
  0
LINE
  5
9604
330
94DF
100
AcDbEntity
  8
1
  6
Continuous
100
AcDbLine
 10
200.11792
 20
284.4710689999999
 30
0.0
 11
199.617935
 21
283.971069
 31
0.0
  0
LINE
  5
9605
330
94DF
100
AcDbEntity
  8
1
  6
Continuous
100
AcDbLine
 10
199.61792
 20
276.971069
 30
0.0
 11
200.117935
 21
276.471069
 31
0.0
  0
LINE
  5
9606
330
94DF
100
AcDbEntity
  8
1
  6
Continuous
100
AcDbLine
 10
483.117645
 20
276.4710999999999
 30
0.0
 11
483.6176449999999
 21
276.971069
 31
0.0
  0
LINE
  5
9607
330
94DF
100
AcDbEntity
  8
1
  6
Continuous
100
AcDbLine
 10
483.1176759999998
 20
284.4710689999999
 30
0.0
 11
483.6176759999998
 21
283.971069
 31
0.0
  0
LINE
  5
9608
330
94DF
100
AcDbEntity
  8
1
  6
Continuous
100
AcDbLine
 10
481.717682
 20
205.4710689999998
 30
0.0
 11
482.217682
 21
204.9710689999999
 31
0.0
  0
LINE
  5
9609
330
94DF
100
AcDbEntity
  8
1
  6
Continuous
100
AcDbLine
 10
481.717682
 20
195.4710689999998
 30
0.0
 11
482.217682
 21
195.971054
 31
0.0
  0
LINE
  5
960A
330
94DF
100
AcDbEntity
  8
1
  6
Continuous
100
AcDbLine
 10
477.617645
 20
124.471069
 30
0.0
 11
478.117645
 21
123.971069
 31
0.0
  0
LINE
  5
960B
330
94DF
100
AcDbEntity
  8
1
  6
Continuous
100
AcDbLine
 10
477.617645
 20
116.471085
 30
0.0
 11
478.117645
 21
116.971069
 31
0.0
  0
LINE
  5
960C
330
94DF
100
AcDbEntity
  8
1
  6
Continuous
100
AcDbLine
 10
199.617935
 20
49.500011
 30
0.0
 11
200.117935
 21
49.000011
 31
0.0
  0
LINE
  5
960D
330
94DF
100
AcDbEntity
  8
1
  6
Continuous
100
AcDbLine
 10
205.6179349999999
 20
49.00000399999999
 30
0.0
 11
205.1179349999999
 21
49.500004
 31
0.0
  0
LINE
  5
960E
330
94DF
100
AcDbEntity
  8
1
  6
Continuous
100
AcDbLine
 10
201.517929
 20
369.9421389999998
 30
0.0
 11
201.0179139999999
 21
369.442139
 31
0.0
  0
LINE
  5
960F
330
94DF
100
AcDbEntity
  8
1
  6
Continuous
100
AcDbLine
 10
201.5179139999999
 20
49.999992
 30
0.0
 11
201.0179289999999
 21
49.500004
 31
0.0
  0
LINE
  5
9610
330
94DF
100
AcDbEntity
  8
1
  6
Continuous
100
AcDbLine
 10
201.5179439999998
 20
40.000008
 30
0.0
 11
201.0179439999999
 21
40.500008
 31
0.0
  0
LINE
  5
9611
330
94DF
100
AcDbEntity
  8
1
  6
Continuous
100
AcDbLine
 10
211.7179109999999
 20
202.8710629999999
 30
0.0
 11
211.7179109999999
 21
198.071075
 31
0.0
  0
LINE
  5
9612
330
94DF
100
AcDbEntity
  8
1
  6
Continuous
100
AcDbLine
 10
471.5176699999998
 20
202.8710629999999
 30
0.0
 11
471.5176699999998
 21
198.071075
 31
0.0
  0
LINE
  5
9613
330
94DF
100
AcDbEntity
  8
1
  6
Continuous
100
AcDbLine
 10
206.817932
 20
282.8710629999998
 30
0.0
 11
206.817932
 21
278.071075
 31
0.0
  0
LINE
  5
9614
330
94DF
100
AcDbEntity
  8
1
  6
Continuous
100
AcDbLine
 10
476.417633
 20
282.8710629999998
 30
0.0
 11
476.417633
 21
278.071075
 31
0.0
  0
LINE
  5
9615
330
94DF
100
AcDbEntity
  8
1
  6
Continuous
100
AcDbLine
 10
212.3179319999999
 20
55.0
 30
0.0
 11
212.3179319999999
 21
51.0
 31
0.0
  0
LINE
  5
9616
330
94DF
100
AcDbEntity
  8
1
  6
Continuous
100
AcDbLine
 10
212.3179319999999
 20
354.942139
 30
0.0
 11
212.3179319999999
 21
358.942139
 31
0.0
  0
LINE
  5
9617
330
94DF
100
AcDbEntity
  8
1
  6
Continuous
100
AcDbLine
 10
199.617935
 20
56.49998499999998
 30
0.0
 11
200.117935
 21
56.999992
 31
0.0
  0
LINE
  5
9618
330
94DF
100
AcDbEntity
  8
1
  6
Continuous
100
AcDbLine
 10
205.6179349999999
 20
57.0
 30
0.0
 11
205.1179349999999
 21
56.5
 31
0.0
  0
LINE
  5
9619
330
94DF
100
AcDbEntity
  8
1
  6
Continuous
100
AcDbLine
 10
200.117935
 20
56.999992
 30
0.0
 11
200.117935
 21
49.000008
 31
0.0
  0
LINE
  5
961A
330
94DF
100
AcDbEntity
  8
1
  6
Continuous
100
AcDbLine
 10
201.517929
 20
50.0
 30
0.0
 11
201.517929
 21
40.0
 31
0.0
  0
LINE
  5
961B
330
94DF
100
AcDbEntity
  8
1
  6
Continuous
100
AcDbLine
 10
200.117935
 20
284.4710689999999
 30
0.0
 11
200.117935
 21
276.471069
 31
0.0
  0
LINE
  5
961C
330
94DF
100
AcDbEntity
  8
1
  6
Continuous
100
AcDbLine
 10
201.517929
 20
369.9421389999998
 30
0.0
 11
201.517929
 21
362.942139
 31
0.0
  0
LINE
  5
961D
330
94DF
100
AcDbEntity
  8
1
  6
Continuous
100
AcDbLine
 10
483.117645
 20
284.4710689999999
 30
0.0
 11
483.117645
 21
276.471069
 31
0.0
  0
LINE
  5
961E
330
94DF
100
AcDbEntity
  8
1
  6
Continuous
100
AcDbLine
 10
481.717682
 20
205.4710689999998
 30
0.0
 11
481.717682
 21
195.4710689999998
 31
0.0
  0
LINE
  5
961F
330
94DF
100
AcDbEntity
  8
1
  6
Continuous
100
AcDbLine
 10
477.617645
 20
124.471069
 30
0.0
 11
477.617645
 21
116.4710689999999
 31
0.0
  0
LINE
  5
9620
330
94DF
100
AcDbEntity
  8
1
  6
Continuous
100
AcDbLine
 10
205.6179349999999
 20
124.471069
 30
0.0
 11
205.6179349999999
 21
116.4710689999999
 31
0.0
  0
LINE
  5
9621
330
94DF
100
AcDbEntity
  8
1
  6
Continuous
100
AcDbLine
 10
114.25
 20
114.4710689999999
 30
0.0
 11
104.0
 21
114.4710689999999
 31
0.0
  0
LINE
  5
9622
330
94DF
100
AcDbEntity
  8
1
  6
Continuous
100
AcDbLine
 10
201.5178829999999
 20
205.471054
 30
0.0
 11
201.0178989999999
 21
204.9710689999999
 31
0.0
  0
LINE
  5
9623
330
94DF
100
AcDbEntity
  8
1
  6
Continuous
100
AcDbLine
 10
201.5178989999999
 20
205.4710689999998
 30
0.0
 11
201.5178989999999
 21
195.4710689999998
 31
0.0
  0
LINE
  5
9624
330
94DF
100
AcDbEntity
  8
1
  6
Continuous
100
AcDbLine
 10
201.5179139999999
 20
195.4710849999999
 30
0.0
 11
201.0179139999999
 21
195.971085
 31
0.0
  0
ARC
  5
9625
330
94DF
100
AcDbEntity
  8
1
  6
Continuous
100
AcDbCircle
 10
108.0
 20
200.471069
 30
0.0
 40
14.0
100
AcDbArc
 50
168.578822
 51
0.00001
  0
CIRCLE
  5
9626
330
94DF
100
AcDbEntity
  8
1
  6
Continuous
100
AcDbCircle
 10
108.0
 20
200.471069
 30
0.0
 40
5.0
  0
ARC
  5
9627
330
94DF
100
AcDbEntity
  8
1
  6
Continuous
100
AcDbCircle
 10
116.0
 20
120.4710689999999
 30
0.0
 40
6.0
100
AcDbArc
 50
191.421191
 51
0.0
  0
CIRCLE
  5
9628
330
94DF
100
AcDbEntity
  8
1
  6
Continuous
100
AcDbCircle
 10
108.0
 20
200.471069
 30
0.0
 40
13.0
  0
CIRCLE
  5
9629
330
94DF
100
AcDbEntity
  8
1
  6
Continuous
100
AcDbCircle
 10
116.0
 20
120.4710689999999
 30
0.0
 40
4.0
  0
ARC
  5
962A
330
94DF
100
AcDbEntity
  8
1
  6
Continuous
100
AcDbCircle
 10
112.0
 20
120.4710689999999
 30
0.0
 40
10.0
100
AcDbArc
 50
143.130097
 51
180.000005
  0
ARC
  5
962B
330
94DF
100
AcDbEntity
  8
1
  6
Continuous
100
AcDbCircle
 10
120.0
 20
120.4710689999999
 30
0.0
 40
10.0
100
AcDbArc
 50
323.1301029999999
 51
36.869904
  0
ARC
  5
962C
330
94DF
100
AcDbEntity
  8
1
  6
Continuous
100
AcDbCircle
 10
112.0
 20
120.4710689999999
 30
0.0
 40
10.0
100
AcDbArc
 50
143.1301109999999
 51
216.869899
  0
CIRCLE
  5
962D
330
94DF
100
AcDbEntity
  8
1
  6
Continuous
100
AcDbCircle
 10
126.0
 20
120.4710689999999
 30
0.0
 40
1.6
  0
CIRCLE
  5
962E
330
94DF
100
AcDbEntity
  8
1
  6
Continuous
100
AcDbCircle
 10
106.0
 20
120.4710689999999
 30
0.0
 40
1.6
  0
CIRCLE
  5
962F
330
94DF
100
AcDbEntity
  8
1
  6
Continuous
100
AcDbCircle
 10
126.0
 20
120.4710689999999
 30
0.0
 40
3.25
  0
CIRCLE
  5
9630
330
94DF
100
AcDbEntity
  8
1
  6
Continuous
100
AcDbCircle
 10
106.0
 20
120.4710689999999
 30
0.0
 40
3.25
  0
ARC
  5
9631
330
94DF
100
AcDbEntity
  8
1
  6
Continuous
100
AcDbCircle
 10
477.1176449999998
 20
210.471069
 30
0.0
 40
2.0
100
AcDbArc
 50
75.52248799999998
 51
104.477511
  0
ARC
  5
9632
330
94DF
100
AcDbEntity
  8
1
  6
Continuous
100
AcDbCircle
 10
477.1176449999998
 20
190.4710689999998
 30
0.0
 40
2.0
100
AcDbArc
 50
75.52248799999998
 51
104.477511
  0
ARC
  5
9633
330
94DF
100
AcDbEntity
  8
1
  6
Continuous
100
AcDbCircle
 10
477.1176449999998
 20
210.471069
 30
0.0
 40
2.0
100
AcDbArc
 50
255.522489
 51
284.4775119999998
  0
ARC
  5
9634
330
94DF
100
AcDbEntity
  8
1
  6
Continuous
100
AcDbCircle
 10
477.1176449999998
 20
190.4710689999998
 30
0.0
 40
2.0
100
AcDbArc
 50
255.522489
 51
284.4775119999998
  0
ARC
  5
9635
330
94DF
100
AcDbEntity
  8
1
  6
Continuous
100
AcDbCircle
 10
194.6179349999999
 20
356.942139
 30
0.0
 40
10.0
100
AcDbArc
 50
143.130097
 51
216.869899
  0
ARC
  5
9636
330
94DF
100
AcDbEntity
  8
1
  6
Continuous
100
AcDbCircle
 10
206.1179349999999
 20
354.942139
 30
0.0
 40
2.0
100
AcDbArc
 50
255.522489
 51
284.4775119999998
  0
CIRCLE
  5
9637
330
94DF
100
AcDbEntity
  8
1
  6
Continuous
100
AcDbCircle
 10
189.6179349999999
 20
354.942139
 30
0.0
 40
1.6
  0
CIRCLE
  5
9638
330
94DF
100
AcDbEntity
  8
1
  6
Continuous
100
AcDbCircle
 10
196.6179349999999
 20
358.942139
 30
0.0
 40
1.6
  0
ARC
  5
9639
330
94DF
100
AcDbEntity
  8
1
  6
Continuous
100
AcDbCircle
 10
211.117935
 20
352.9421389999998
 30
0.0
 40
2.0
100
AcDbArc
 50
198.195428
 51
269.9999969999999
  0
ARC
  5
963A
330
94DF
100
AcDbEntity
  8
1
  6
Continuous
100
AcDbCircle
 10
213.117935
 20
350.9421389999998
 30
0.0
 40
2.0
100
AcDbArc
 50
359.999995
 51
90.00000300000001
  0
ARC
  5
963B
330
94DF
100
AcDbEntity
  8
1
  6
Continuous
100
AcDbCircle
 10
213.117935
 20
362.942139
 30
0.0
 40
2.0
100
AcDbArc
 50
269.9999969999999
 51
0.0
  0
ARC
  5
963C
330
94DF
100
AcDbEntity
  8
1
  6
Continuous
100
AcDbCircle
 10
206.617935
 20
350.9421389999998
 30
0.0
 40
2.0
100
AcDbArc
 50
295.670744
 51
0.0
  0
ARC
  5
963D
330
94DF
100
AcDbEntity
  8
1
  6
Continuous
100
AcDbCircle
 10
194.6179349999999
 20
53.0
 30
0.0
 40
10.0
100
AcDbArc
 50
143.130097
 51
216.869899
  0
CIRCLE
  5
963E
330
94DF
100
AcDbEntity
  8
1
  6
Continuous
100
AcDbCircle
 10
189.6179349999999
 20
55.0
 30
0.0
 40
1.6
  0
CIRCLE
  5
963F
330
94DF
100
AcDbEntity
  8
1
  6
Continuous
100
AcDbCircle
 10
196.6179349999999
 20
51.0
 30
0.0
 40
1.6
  0
ARC
  5
9640
330
94DF
100
AcDbEntity
  8
1
  6
Continuous
100
AcDbCircle
 10
213.117935
 20
59.0
 30
0.0
 40
2.0
100
AcDbArc
 50
269.9999969999999
 51
0.000005
  0
ARC
  5
9641
330
94DF
100
AcDbEntity
  8
1
  6
Continuous
100
AcDbCircle
 10
213.117935
 20
47.0
 30
0.0
 40
2.0
100
AcDbArc
 50
359.999995
 51
90.00000300000001
  0
ARC
  5
9642
330
94DF
100
AcDbEntity
  8
1
  6
Continuous
100
AcDbCircle
 10
206.617935
 20
59.0
 30
0.0
 40
2.0
100
AcDbArc
 50
359.999995
 51
75.00000599999999
  0
ARC
  5
9643
330
94DF
100
AcDbEntity
  8
1
  6
Continuous
100
AcDbCircle
 10
205.6179349999999
 20
59.0
 30
0.0
 40
2.0
100
AcDbArc
 50
115.669964
 51
180.000005
  0
CIRCLE
  5
9644
330
94DF
100
AcDbEntity
  8
1
  6
Continuous
100
AcDbCircle
 10
189.6179349999999
 20
55.0
 30
0.0
 40
3.25
  0
ARC
  5
9645
330
94DF
100
AcDbEntity
  8
1
  6
Continuous
100
AcDbCircle
 10
196.6179349999999
 20
51.0
 30
0.0
 40
3.25
100
AcDbArc
 50
22.61985999999999
 51
337.3801450000001
  0
ARC
  5
9646
330
94DF
100
AcDbEntity
  8
1
  6
Continuous
100
AcDbCircle
 10
211.117935
 20
57.0
 30
0.0
 40
2.0
100
AcDbArc
 50
90.00000300000001
 51
180.000005
  0
ARC
  5
9647
330
94DF
100
AcDbEntity
  8
1
  6
Continuous
100
AcDbCircle
 10
211.117935
 20
49.0
 30
0.0
 40
2.0
100
AcDbArc
 50
179.9999909999999
 51
270.000001
  0
ARC
  5
9648
330
94DF
100
AcDbEntity
  8
1
  6
Continuous
100
AcDbCircle
 10
309.493469
 20
200.4710849999999
 30
0.0
 40
14.0
100
AcDbArc
 50
348.578812
 51
180.000005
  0
CIRCLE
  5
9649
330
94DF
100
AcDbEntity
  8
1
  6
Continuous
100
AcDbCircle
 10
309.493469
 20
200.4710849999999
 30
0.0
 40
5.0
  0
CIRCLE
  5
964A
330
94DF
100
AcDbEntity
  8
1
  6
Continuous
100
AcDbCircle
 10
309.493469
 20
200.4710849999999
 30
0.0
 40
13.0
  0
ARC
  5
964B
330
94DF
100
AcDbEntity
  8
1
  6
Continuous
100
AcDbCircle
 10
297.4934689999999
 20
120.471085
 30
0.0
 40
10.0
100
AcDbArc
 50
143.130097
 51
180.000005
  0
ARC
  5
964C
330
94DF
100
AcDbEntity
  8
1
  6
Continuous
100
AcDbCircle
 10
305.493469
 20
120.471085
 30
0.0
 40
10.0
100
AcDbArc
 50
323.1301029999999
 51
36.869904
  0
ARC
  5
964D
330
94DF
100
AcDbEntity
  8
1
  6
Continuous
100
AcDbCircle
 10
297.4934689999999
 20
120.471085
 30
0.0
 40
10.0
100
AcDbArc
 50
143.1301109999999
 51
216.869899
  0
CIRCLE
  5
964E
330
94DF
100
AcDbEntity
  8
1
  6
Continuous
100
AcDbCircle
 10
311.493469
 20
120.471085
 30
0.0
 40
1.6
  0
CIRCLE
  5
964F
330
94DF
100
AcDbEntity
  8
1
  6
Continuous
100
AcDbCircle
 10
291.4934689999999
 20
120.471085
 30
0.0
 40
1.6
  0
ARC
  5
9650
330
94DF
100
AcDbEntity
  8
1
  6
Continuous
100
AcDbCircle
 10
206.1179349999999
 20
210.471069
 30
0.0
 40
2.0
100
AcDbArc
 50
75.52248799999998
 51
104.477511
  0
ARC
  5
9651
330
94DF
100
AcDbEntity
  8
1
  6
Continuous
100
AcDbCircle
 10
206.1179349999999
 20
190.4710689999998
 30
0.0
 40
2.0
100
AcDbArc
 50
75.52248799999998
 51
104.477511
  0
ARC
  5
9652
330
94DF
100
AcDbEntity
  8
1
  6
Continuous
100
AcDbCircle
 10
206.1179349999999
 20
210.471069
 30
0.0
 40
2.0
100
AcDbArc
 50
255.522489
 51
284.4775119999998
  0
ARC
  5
9653
330
94DF
100
AcDbEntity
  8
1
  6
Continuous
100
AcDbCircle
 10
206.1179349999999
 20
190.4710689999998
 30
0.0
 40
2.0
100
AcDbArc
 50
255.522489
 51
284.4775119999998
  0
CIRCLE
  5
9654
330
94DF
100
AcDbEntity
  8
5
  6
PHANTOM
100
AcDbCircle
 10
317.493469
 20
120.4711
 30
0.0
 40
2.399999999999999
  0
CIRCLE
  5
9655
330
94DF
100
AcDbEntity
  8
1
  6
Continuous
100
AcDbCircle
 10
309.493469
 20
200.4710849999999
 30
0.0
 40
2.399999999999999
  0
CIRCLE
  5
9656
330
94DF
100
AcDbEntity
  8
1
  6
Continuous
100
AcDbCircle
 10
301.493469
 20
120.471085
 30
0.0
 40
2.0
  0
ARC
  5
9657
330
94DF
100
AcDbEntity
  8
1
  6
Continuous
100
AcDbCircle
 10
482.117645
 20
287.471069
 30
0.0
 40
2.0
100
AcDbArc
 50
90.00000300000001
 51
180.000005
  0
ARC
  5
9658
330
94DF
100
AcDbEntity
  8
1
  6
Continuous
100
AcDbCircle
 10
201.1179349999999
 20
287.471069
 30
0.0
 40
2.0
100
AcDbArc
 50
0.0
 51
90.00000300000001
  0
ARC
  5
9659
330
94DF
100
AcDbEntity
  8
1
  6
Continuous
100
AcDbCircle
 10
205.6179349999999
 20
350.9421389999998
 30
0.0
 40
2.0
100
AcDbArc
 50
179.9999909999999
 51
255.000004
  0
ARC
  5
965A
330
94DF
100
AcDbEntity
  8
5
  6
PHANTOM
100
AcDbCircle
 10
317.493469
 20
120.4711
 30
0.0
 40
6.0
100
AcDbArc
 50
191.4211859999999
 51
0.000005
  0
ARC
  5
965B
330
94DF
100
AcDbEntity
  8
1
  6
Continuous
100
AcDbCircle
 10
205.6179349999999
 20
349.638916
 30
0.0
 40
1.0
100
AcDbArc
 50
209.9577369999999
 51
285.000001
  0
ARC
  5
965C
330
94DF
100
AcDbEntity
  8
1
  6
Continuous
100
AcDbCircle
 10
206.617935
 20
349.638885
 30
0.0
 40
1.0
100
AcDbArc
 50
255.0
 51
0.0
  0
ARC
  5
965D
330
94DF
100
AcDbEntity
  8
1
  6
Continuous
100
AcDbCircle
 10
205.6179349999999
 20
60.303215
 30
0.0
 40
1.0
100
AcDbArc
 50
74.999999
 51
180.000005
  0
ARC
  5
965E
330
94DF
100
AcDbEntity
  8
1
  6
Continuous
100
AcDbCircle
 10
206.617935
 20
60.30322299999999
 30
0.0
 40
1.0
100
AcDbArc
 50
29.95875
 51
105.0
  0
ARC
  5
965F
330
94DF
100
AcDbEntity
  8
1
  6
Continuous
100
AcDbCircle
 10
116.0
 20
120.4710689999999
 30
0.0
 40
6.25
100
AcDbArc
 50
175.1607749999998
 51
16.260204
  0
ARC
  5
9660
330
94DF
100
AcDbEntity
  8
1
  6
Continuous
100
AcDbCircle
 10
301.493469
 20
120.471085
 30
0.0
 40
6.25
100
AcDbArc
 50
73.739795
 51
106.260204
  0
ARC
  5
9661
330
94DF
100
AcDbEntity
  8
1
  6
Continuous
100
AcDbCircle
 10
301.493469
 20
120.471085
 30
0.0
 40
6.25
100
AcDbArc
 50
253.739796
 51
286.2602049999999
  0
TEXT
  5
9662
330
94DF
100
AcDbEntity
  8
6
  6
Continuous
100
AcDbText
 10
27.97945
 20
10.0487
 30
0.0
 40
1.399999999999999
  1
6
 41
1.069393
100
AcDbText
  0
TEXT
  5
9663
330
94DF
100
AcDbEntity
  8
1
  6
Continuous
100
AcDbText
 10
17.97945
 20
10.0487
 30
0.0
 40
1.399999999999999
  1
1
 41
1.069393
100
AcDbText
  0
TEXT
  5
9664
330
94DF
100
AcDbEntity
  8
1
  6
Continuous
100
AcDbText
 10
9.99995
 20
10.0
 30
0.0
 40
1.399999999999999
  1
LAYER
 41
1.009912999999997
100
AcDbText
  0
TEXT
  5
9665
330
94DF
100
AcDbEntity
  8
2
  6
Continuous
100
AcDbText
 10
19.97944999999998
 20
10.0487
 30
0.0
 40
1.399999999999999
  1
2
 41
1.069393
100
AcDbText
  0
TEXT
  5
9666
330
94DF
100
AcDbEntity
  8
3
  6
DASHED
100
AcDbText
 10
21.97945
 20
10.0487
 30
0.0
 40
1.399999999999999
  1
3
 41
1.069393
100
AcDbText
  0
TEXT
  5
9667
330
94DF
100
AcDbEntity
  8
4
  6
CENTER
100
AcDbText
 10
23.97944999999999
 20
10.0487
 30
0.0
 40
1.399999999999999
  1
4
 41
1.069393
100
AcDbText
  0
TEXT
  5
9668
330
94DF
100
AcDbEntity
  8
5
  6
PHANTOM
100
AcDbText
 10
25.97945
 20
10.0487
 30
0.0
 40
1.399999999999999
  1
5
 41
1.069393
100
AcDbText
  0
TEXT
  5
9669
330
94DF
100
AcDbEntity
  8
7
  6
Continuous
100
AcDbText
 10
10.00005
 20
26.0
 30
0.0
 40
3.0
  1
CODE No.5149
 41
1.003962999999999
100
AcDbText
  0
TEXT
  5
966A
330
94DF
100
AcDbEntity
  8
7
  6
Continuous
100
AcDbText
 10
10.00005
 20
18.0
 30
0.0
 40
3.0
  1
TYPE No.TM-89-L
 41
1.003152
100
AcDbText
  0
TEXT
  5
966B
330
94DF
100
AcDbEntity
  8
7
  6
Continuous
100
AcDbText
 10
29.97944999999999
 20
10.0487
 30
0.0
 40
1.399999999999999
  1
7
 41
1.069393
100
AcDbText
  0
LINE
  5
966C
330
94DF
100
AcDbEntity
  8
1
  6
Continuous
100
AcDbLine
 10
94.27724600000001
 20
203.2433469999999
 30
0.0
 11
109.772285
 21
279.9437869999998
 31
0.0
  0
LINE
  5
966D
330
94DF
100
AcDbEntity
  8
1
  6
Continuous
100
AcDbLine
 10
122.0
 20
205.4710689999998
 30
0.0
 11
122.0
 21
289.471069
 31
0.0
  0
LINE
  5
966E
330
94DF
100
AcDbEntity
  8
1
  6
Continuous
100
AcDbLine
 10
323.2162169999999
 20
203.243378
 30
0.0
 11
307.3746339999999
 21
281.6592099999999
 31
0.0
  0
LINE
  5
966F
330
94DF
100
AcDbEntity
  8
1
  6
Continuous
100
AcDbLine
 10
295.4934689999999
 20
200.4710849999999
 30
0.0
 11
295.4934689999999
 21
280.4710689999998
 31
0.0
  0
ARC
  5
9670
330
94DF
100
AcDbEntity
  8
1
  6
Continuous
100
AcDbCircle
 10
301.493469
 20
280.4710689999998
 30
0.0
 40
6.0
100
AcDbArc
 50
11.421186
 51
180.000005
  0
ARC
  5
9671
330
94DF
100
AcDbEntity
  8
1
  6
Continuous
100
AcDbCircle
 10
301.493469
 20
280.4710689999998
 30
0.0
 40
6.25
100
AcDbArc
 50
355.1609669999999
 51
196.2601989999998
  0
LINE
  5
9672
330
94DF
100
AcDbEntity
  8
4
  6
CENTER
100
AcDbLine
 10
309.493469
 20
280.4710689999998
 30
0.0
 11
293.493469
 21
280.4710689999998
 31
0.0
  0
LINE
  5
9673
330
94DF
100
AcDbEntity
  8
1
  6
Continuous
100
AcDbLine
 10
307.493469
 20
289.471069
 30
0.0
 11
295.4934689999999
 21
289.471069
 31
0.0
  0
LINE
  5
9674
330
94DF
100
AcDbEntity
  8
4
  6
CENTER
100
AcDbLine
 10
303.493469
 20
292.0675049999999
 30
0.0
 11
303.493469
 21
284.7464899999998
 31
0.0
  0
LINE
  5
9675
330
94DF
100
AcDbEntity
  8
4
  6
CENTER
100
AcDbLine
 10
299.493469
 20
292.0675049999999
 30
0.0
 11
299.493469
 21
284.7464899999998
 31
0.0
  0
LINE
  5
9676
330
94DF
100
AcDbEntity
  8
4
  6
CENTER
100
AcDbLine
 10
301.493469
 20
288.4710689999998
 30
0.0
 11
301.493469
 21
272.471069
 31
0.0
  0
LINE
  5
9677
330
94DF
100
AcDbEntity
  8
1
  6
Continuous
100
AcDbLine
 10
295.4934689999999
 20
289.471069
 30
0.0
 11
295.4934689999999
 21
282.2210689999998
 31
0.0
  0
CIRCLE
  5
9678
330
94DF
100
AcDbEntity
  8
1
  6
Continuous
100
AcDbCircle
 10
301.493469
 20
280.4710689999998
 30
0.0
 40
2.399999999999999
  0
LINE
  5
9679
330
94DF
100
AcDbEntity
  8
1
  6
Continuous
100
AcDbLine
 10
307.493469
 20
289.471069
 30
0.0
 11
307.493469
 21
282.2210689999998
 31
0.0
  0
LINE
  5
967A
330
94DF
100
AcDbEntity
  8
5
  6
PHANTOM
100
AcDbLine
 10
299.593974
 20
210.3705799999999
 30
0.0
 11
356.162506
 21
266.9391109999998
 31
0.0
  0
ARC
  5
967B
330
94DF
100
AcDbEntity
  8
5
  6
PHANTOM
100
AcDbCircle
 10
360.4051469999998
 20
262.6964709999999
 30
0.0
 40
6.0
100
AcDbArc
 50
326.421186
 51
135.000005
  0
CIRCLE
  5
967C
330
94DF
100
AcDbEntity
  8
5
  6
PHANTOM
100
AcDbCircle
 10
360.4051469999998
 20
262.6964709999999
 30
0.0
 40
2.399999999999999
  0
LINE
  5
967D
330
94DF
100
AcDbEntity
  8
4
  6
CENTER
100
AcDbLine
 10
366.0620009999998
 20
268.3533249999999
 30
0.0
 11
354.748292
 21
257.039616
 31
0.0
  0
LINE
  5
967E
330
94DF
100
AcDbEntity
  8
4
  6
CENTER
100
AcDbLine
 10
366.0620009999998
 20
257.039616
 30
0.0
 11
354.748292
 21
268.3533249999999
 31
0.0
  0
LINE
  5
967F
330
94DF
100
AcDbEntity
  8
5
  6
PHANTOM
100
AcDbLine
 10
321.1572249999999
 20
192.727944
 30
0.0
 11
365.4039
 21
259.378002
 31
0.0
  0
LINE
  5
9680
330
94DF
100
AcDbEntity
  8
5
  6
PHANTOM
100
AcDbLine
 10
312.265762
 20
186.748337
 30
0.0
 11
390.681595
 21
202.58992
 31
0.0
  0
LINE
  5
9681
330
94DF
100
AcDbEntity
  8
5
  6
PHANTOM
100
AcDbLine
 10
309.493469
 20
214.471085
 30
0.0
 11
389.4934539999999
 21
214.471085
 31
0.0
  0
LINE
  5
9682
330
94DF
100
AcDbEntity
  8
4
  6
CENTER
100
AcDbLine
 10
397.4934539999999
 20
208.471085
 30
0.0
 11
381.4934539999999
 21
208.471085
 31
0.0
  0
LINE
  5
9683
330
94DF
100
AcDbEntity
  8
4
  6
CENTER
100
AcDbLine
 10
389.4934539999999
 20
200.4710849999999
 30
0.0
 11
389.4934539999999
 21
216.471085
 31
0.0
  0
CIRCLE
  5
9684
330
94DF
100
AcDbEntity
  8
5
  6
PHANTOM
100
AcDbCircle
 10
389.4934539999999
 20
208.471085
 30
0.0
 40
2.399999999999999
  0
ARC
  5
9685
330
94DF
100
AcDbEntity
  8
5
  6
PHANTOM
100
AcDbCircle
 10
389.4934539999999
 20
208.471085
 30
0.0
 40
6.0
100
AcDbArc
 50
281.4211859999999
 51
90.00000500000002
  0
LINE
  5
9686
330
94DF
100
AcDbEntity
  8
5
  6
PHANTOM
100
AcDbLine
 10
319.392964
 20
210.3705799999999
 30
0.0
 11
375.961496
 21
153.8020479999999
 31
0.0
  0
LINE
  5
9687
330
94DF
100
AcDbEntity
  8
5
  6
PHANTOM
100
AcDbLine
 10
301.7503279999999
 20
188.807329
 30
0.0
 11
368.4003859999998
 21
144.560653
 31
0.0
  0
ARC
  5
9688
330
94DF
100
AcDbEntity
  8
5
  6
PHANTOM
100
AcDbCircle
 10
371.7188549999999
 20
149.5594069999999
 30
0.0
 40
6.0
100
AcDbArc
 50
236.4211859999999
 51
45.00000500000001
  0
CIRCLE
  5
9689
330
94DF
100
AcDbEntity
  8
5
  6
PHANTOM
100
AcDbCircle
 10
371.7188549999999
 20
149.5594069999999
 30
0.0
 40
2.399999999999999
  0
LINE
  5
968A
330
94DF
100
AcDbEntity
  8
4
  6
CENTER
100
AcDbLine
 10
366.0620009999998
 20
143.902553
 30
0.0
 11
377.3757089999999
 21
155.216261
 31
0.0
  0
LINE
  5
968B
330
94DF
100
AcDbEntity
  8
4
  6
CENTER
100
AcDbLine
 10
377.3757089999999
 20
143.902553
 30
0.0
 11
366.0620009999998
 21
155.216261
 31
0.0
  0
LINE
  5
968C
330
94DF
100
AcDbEntity
  8
4
  6
CENTER
100
AcDbLine
 10
51.431468
 20
268.3533249999999
 30
0.0
 11
62.745177
 21
257.039616
 31
0.0
  0
LINE
  5
968D
330
94DF
100
AcDbEntity
  8
4
  6
CENTER
100
AcDbLine
 10
51.431468
 20
257.039616
 30
0.0
 11
62.745177
 21
268.3533249999999
 31
0.0
  0
LINE
  5
968E
330
94DF
100
AcDbEntity
  8
5
  6
PHANTOM
100
AcDbLine
 10
117.899495
 20
210.3705799999999
 30
0.0
 11
54.966999
 21
273.3030749999999
 31
0.0
  0
LINE
  5
968F
330
94DF
100
AcDbEntity
  8
5
  6
PHANTOM
100
AcDbLine
 10
96.33624500000001
 20
192.727944
 30
0.0
 11
53.05753499999998
 21
257.9199249999999
 31
0.0
  0
LINE
  5
9690
330
94DF
100
AcDbEntity
  8
5
  6
PHANTOM
100
AcDbLine
 10
105.227707
 20
186.748337
 30
0.0
 11
28.52735800000001
 21
202.2433579999999
 31
0.0
  0
LINE
  5
9691
330
94DF
100
AcDbEntity
  8
5
  6
PHANTOM
100
AcDbLine
 10
108.0
 20
214.471085
 30
0.0
 11
19.0
 21
214.471085
 31
0.0
  0
LINE
  5
9692
330
94DF
100
AcDbEntity
  8
4
  6
CENTER
100
AcDbLine
 10
20.00001499999999
 20
208.471085
 30
0.0
 11
36.00001499999999
 21
208.471085
 31
0.0
  0
LINE
  5
9693
330
94DF
100
AcDbEntity
  8
4
  6
CENTER
100
AcDbLine
 10
28.000015
 20
200.4710849999999
 30
0.0
 11
28.000015
 21
216.471085
 31
0.0
  0
LINE
  5
9694
330
94DF
100
AcDbEntity
  8
5
  6
PHANTOM
100
AcDbLine
 10
98.100505
 20
210.3705799999999
 30
0.0
 11
35.167994
 21
147.4380679999998
 31
0.0
  0
LINE
  5
9695
330
94DF
100
AcDbEntity
  8
5
  6
PHANTOM
100
AcDbLine
 10
115.743141
 20
188.807329
 30
0.0
 11
50.551154
 21
145.5286159999998
 31
0.0
  0
LINE
  5
9696
330
94DF
100
AcDbEntity
  8
4
  6
CENTER
100
AcDbLine
 10
51.431468
 20
143.902553
 30
0.0
 11
40.11776
 21
155.216261
 31
0.0
  0
LINE
  5
9697
330
94DF
100
AcDbEntity
  8
4
  6
CENTER
100
AcDbLine
 10
40.11776
 20
143.902553
 30
0.0
 11
51.431468
 21
155.216261
 31
0.0
  0
LINE
  5
9698
330
94DF
100
AcDbEntity
  8
5
  6
PHANTOM
100
AcDbLine
 10
121.722748
 20
197.698792
 30
0.0
 11
106.2277149999999
 21
120.998385
 31
0.0
  0
LINE
  5
9699
330
94DF
100
AcDbEntity
  8
5
  6
PHANTOM
100
AcDbLine
 10
94.0
 20
200.4710849999999
 30
0.0
 11
94.0
 21
113.471069
 31
0.0
  0
LINE
  5
969A
330
94DF
100
AcDbEntity
  8
4
  6
CENTER
100
AcDbLine
 10
108.0
 20
120.4711
 30
0.0
 11
92.0
 21
120.4711
 31
0.0
  0
LINE
  5
969B
330
94DF
100
AcDbEntity
  8
4
  6
CENTER
100
AcDbLine
 10
100.0
 20
112.4711
 30
0.0
 11
100.0
 21
128.4711
 31
0.0
  0
LINE
  5
969C
330
94DF
100
AcDbEntity
  8
1
  6
Continuous
100
AcDbLine
 10
110.0
 20
289.471069
 30
0.0
 11
110.0
 21
276.471069
 31
0.0
  0
LINE
  5
969D
330
94DF
100
AcDbEntity
  8
4
  6
CENTER
100
AcDbLine
 10
116.0
 20
291.471069
 30
0.0
 11
116.0
 21
271.4710689999999
 31
0.0
  0
LINE
  5
969E
330
94DF
100
AcDbEntity
  8
4
  6
CENTER
100
AcDbLine
 10
114.0
 20
291.471069
 30
0.0
 11
114.0
 21
284.727722
 31
0.0
  0
LINE
  5
969F
330
94DF
100
AcDbEntity
  8
4
  6
CENTER
100
AcDbLine
 10
118.0
 20
291.471069
 30
0.0
 11
118.0
 21
284.727722
 31
0.0
  0
LINE
  5
96A0
330
94DF
100
AcDbEntity
  8
4
  6
CENTER
100
AcDbLine
 10
125.0
 20
280.4710689999998
 30
0.0
 11
107.0
 21
280.4710689999998
 31
0.0
  0
ARC
  5
96A1
330
94DF
100
AcDbEntity
  8
1
  6
Continuous
100
AcDbCircle
 10
116.0
 20
284.4710689999999
 30
0.0
 40
10.0
100
AcDbArc
 50
233.130097
 51
306.8698979999999
  0
ARC
  5
96A2
330
94DF
100
AcDbEntity
  8
1
  6
Continuous
100
AcDbCircle
 10
116.0
 20
280.4710689999998
 30
0.0
 40
6.25
100
AcDbArc
 50
163.739797
 51
196.2601989999998
  0
ARC
  5
96A3
330
94DF
100
AcDbEntity
  8
1
  6
Continuous
100
AcDbCircle
 10
116.0
 20
280.4710689999998
 30
0.0
 40
6.25
100
AcDbArc
 50
343.739796
 51
16.260204
  0
CIRCLE
  5
96A4
330
94DF
100
AcDbEntity
  8
1
  6
Continuous
100
AcDbCircle
 10
116.0
 20
280.4710689999998
 30
0.0
 40
4.0
  0
LINE
  5
96A5
330
94DF
100
AcDbEntity
  8
1
  6
Continuous
100
AcDbLine
 10
122.0
 20
289.471069
 30
0.0
 11
110.0
 21
289.471069
 31
0.0
  0
LINE
  5
96A6
330
94DF
100
AcDbEntity
  8
1
  6
Continuous
100
AcDbLine
 10
122.0
 20
287.471069
 30
0.0
 11
110.0
 21
287.471069
 31
0.0
  0
LINE
  5
96A7
330
94DF
100
AcDbEntity
  8
5
  6
PHANTOM
100
AcDbLine
 10
54.966999
 20
273.3030749999999
 30
0.0
 11
46.48171
 21
264.817786
 31
0.0
  0
LINE
  5
96A8
330
94DF
100
AcDbEntity
  8
4
  6
CENTER
100
AcDbLine
 10
50.72435099999999
 20
271.888854
 30
0.0
 11
55.492617
 21
267.120588
 31
0.0
  0
LINE
  5
96A9
330
94DF
100
AcDbEntity
  8
4
  6
CENTER
100
AcDbLine
 10
47.895924
 20
269.060427
 30
0.0
 11
52.66418999999999
 21
264.2921609999999
 31
0.0
  0
LINE
  5
96AA
330
94DF
100
AcDbEntity
  8
5
  6
PHANTOM
100
AcDbLine
 10
56.381213
 20
271.888862
 30
0.0
 11
47.895924
 21
263.4035729999999
 31
0.0
  0
CIRCLE
  5
96AB
330
94DF
100
AcDbEntity
  8
5
  6
PHANTOM
100
AcDbCircle
 10
57.088312
 20
262.696466
 30
0.0
 40
6.0
  0
CIRCLE
  5
96AC
330
94DF
100
AcDbEntity
  8
5
  6
PHANTOM
100
AcDbCircle
 10
57.088312
 20
262.696466
 30
0.0
 40
4.0
  0
ARC
  5
96AD
330
94DF
100
AcDbEntity
  8
5
  6
PHANTOM
100
AcDbCircle
 10
54.25988499999998
 20
265.524893
 30
0.0
 40
10.0
100
AcDbArc
 50
278.1300969999999
 51
351.8698979999999
  0
LINE
  5
96AE
330
94DF
100
AcDbEntity
  8
5
  6
PHANTOM
100
AcDbLine
 10
46.48171
 20
264.817786
 30
0.0
 11
55.674098
 21
255.625398
 31
0.0
  0
ARC
  5
96AF
330
94DF
100
AcDbEntity
  8
5
  6
PHANTOM
100
AcDbCircle
 10
57.088312
 20
262.696466
 30
0.0
 40
6.25
100
AcDbArc
 50
28.739796
 51
61.260204
  0
ARC
  5
96B0
330
94DF
100
AcDbEntity
  8
5
  6
PHANTOM
100
AcDbCircle
 10
57.088312
 20
262.696466
 30
0.0
 40
6.25
100
AcDbArc
 50
208.739797
 51
241.260199
  0
LINE
  5
96B1
330
94DF
100
AcDbEntity
  8
5
  6
PHANTOM
100
AcDbLine
 10
19.0
 20
214.471085
 30
0.0
 11
19.0
 21
202.471069
 31
0.0
  0
LINE
  5
96B2
330
94DF
100
AcDbEntity
  8
4
  6
CENTER
100
AcDbLine
 10
17.0
 20
210.471069
 30
0.0
 11
23.74334699999999
 21
210.471069
 31
0.0
  0
LINE
  5
96B3
330
94DF
100
AcDbEntity
  8
4
  6
CENTER
100
AcDbLine
 10
17.0
 20
206.471069
 30
0.0
 11
23.74334699999999
 21
206.471069
 31
0.0
  0
LINE
  5
96B4
330
94DF
100
AcDbEntity
  8
5
  6
PHANTOM
100
AcDbLine
 10
21.0
 20
214.471069
 30
0.0
 11
21.0
 21
202.471069
 31
0.0
  0
CIRCLE
  5
96B5
330
94DF
100
AcDbEntity
  8
5
  6
PHANTOM
100
AcDbCircle
 10
28.0
 20
208.471069
 30
0.0
 40
6.0
  0
CIRCLE
  5
96B6
330
94DF
100
AcDbEntity
  8
5
  6
PHANTOM
100
AcDbCircle
 10
28.0
 20
208.471069
 30
0.0
 40
4.0
  0
ARC
  5
96B7
330
94DF
100
AcDbEntity
  8
5
  6
PHANTOM
100
AcDbCircle
 10
24.0
 20
208.471069
 30
0.0
 40
10.0
100
AcDbArc
 50
323.1300969999999
 51
36.869898
  0
LINE
  5
96B8
330
94DF
100
AcDbEntity
  8
5
  6
PHANTOM
100
AcDbLine
 10
19.0
 20
202.471069
 30
0.0
 11
32.0
 21
202.471069
 31
0.0
  0
ARC
  5
96B9
330
94DF
100
AcDbEntity
  8
5
  6
PHANTOM
100
AcDbCircle
 10
28.0
 20
208.471069
 30
0.0
 40
6.25
100
AcDbArc
 50
73.739796
 51
106.260204
  0
ARC
  5
96BA
330
94DF
100
AcDbEntity
  8
5
  6
PHANTOM
100
AcDbCircle
 10
28.0
 20
208.471069
 30
0.0
 40
6.25
100
AcDbArc
 50
253.739797
 51
286.2601989999999
  0
LINE
  5
96BB
330
94DF
100
AcDbEntity
  8
5
  6
PHANTOM
100
AcDbLine
 10
35.167994
 20
147.4380679999998
 30
0.0
 11
43.653283
 21
138.952779
 31
0.0
  0
LINE
  5
96BC
330
94DF
100
AcDbEntity
  8
4
  6
CENTER
100
AcDbLine
 10
36.58221499999999
 20
143.1954199999998
 30
0.0
 11
41.35048199999999
 21
147.963687
 31
0.0
  0
LINE
  5
96BD
330
94DF
100
AcDbEntity
  8
4
  6
CENTER
100
AcDbLine
 10
39.41064199999999
 20
140.3669929999997
 30
0.0
 11
44.17890899999998
 21
145.1352589999999
 31
0.0
  0
LINE
  5
96BE
330
94DF
100
AcDbEntity
  8
5
  6
PHANTOM
100
AcDbLine
 10
36.58221499999999
 20
148.852274
 30
0.0
 11
45.067496
 21
140.3669929999997
 31
0.0
  0
CIRCLE
  5
96BF
330
94DF
100
AcDbEntity
  8
5
  6
PHANTOM
100
AcDbCircle
 10
45.77460300000001
 20
149.559381
 30
0.0
 40
6.0
  0
CIRCLE
  5
96C0
330
94DF
100
AcDbEntity
  8
5
  6
PHANTOM
100
AcDbCircle
 10
45.77460300000001
 20
149.559381
 30
0.0
 40
4.0
  0
ARC
  5
96C1
330
94DF
100
AcDbEntity
  8
5
  6
PHANTOM
100
AcDbCircle
 10
42.946176
 20
146.730954
 30
0.0
 40
10.0
100
AcDbArc
 50
8.130096999999999
 51
81.86989799999997
  0
LINE
  5
96C2
330
94DF
100
AcDbEntity
  8
5
  6
PHANTOM
100
AcDbLine
 10
43.653283
 20
138.952779
 30
0.0
 11
52.845671
 21
148.1451679999999
 31
0.0
  0
ARC
  5
96C3
330
94DF
100
AcDbEntity
  8
5
  6
PHANTOM
100
AcDbCircle
 10
45.77460300000001
 20
149.559381
 30
0.0
 40
6.25
100
AcDbArc
 50
118.7397959999999
 51
151.2602039999999
  0
ARC
  5
96C4
330
94DF
100
AcDbEntity
  8
5
  6
PHANTOM
100
AcDbCircle
 10
45.77460300000001
 20
149.559381
 30
0.0
 40
6.25
100
AcDbArc
 50
298.7397969999999
 51
331.260199
  0
LINE
  5
96C5
330
94DF
100
AcDbEntity
  8
5
  6
PHANTOM
100
AcDbLine
 10
94.0
 20
111.471069
 30
0.0
 11
106.0
 21
111.471069
 31
0.0
  0
LINE
  5
96C6
330
94DF
100
AcDbEntity
  8
4
  6
CENTER
100
AcDbLine
 10
98.0
 20
109.471069
 30
0.0
 11
98.0
 21
116.2144169999999
 31
0.0
  0
LINE
  5
96C7
330
94DF
100
AcDbEntity
  8
4
  6
CENTER
100
AcDbLine
 10
102.0
 20
109.471069
 30
0.0
 11
102.0
 21
116.2144169999999
 31
0.0
  0
LINE
  5
96C8
330
94DF
100
AcDbEntity
  8
5
  6
PHANTOM
100
AcDbLine
 10
94.0
 20
113.471069
 30
0.0
 11
106.0
 21
113.471069
 31
0.0
  0
CIRCLE
  5
96C9
330
94DF
100
AcDbEntity
  8
5
  6
PHANTOM
100
AcDbCircle
 10
100.0
 20
120.4710689999999
 30
0.0
 40
6.0
  0
CIRCLE
  5
96CA
330
94DF
100
AcDbEntity
  8
5
  6
PHANTOM
100
AcDbCircle
 10
100.0
 20
120.4710689999999
 30
0.0
 40
4.0
  0
ARC
  5
96CB
330
94DF
100
AcDbEntity
  8
5
  6
PHANTOM
100
AcDbCircle
 10
100.0
 20
116.4710689999999
 30
0.0
 40
10.0
100
AcDbArc
 50
53.130097
 51
126.869898
  0
LINE
  5
96CC
330
94DF
100
AcDbEntity
  8
5
  6
PHANTOM
100
AcDbLine
 10
106.0
 20
111.471069
 30
0.0
 11
106.0
 21
124.471069
 31
0.0
  0
ARC
  5
96CD
330
94DF
100
AcDbEntity
  8
5
  6
PHANTOM
100
AcDbCircle
 10
100.0
 20
120.4710689999999
 30
0.0
 40
6.25
100
AcDbArc
 50
163.7397959999999
 51
196.2602039999999
  0
ARC
  5
96CE
330
94DF
100
AcDbEntity
  8
5
  6
PHANTOM
100
AcDbCircle
 10
100.0
 20
120.4710689999999
 30
0.0
 40
6.25
100
AcDbArc
 50
343.739797
 51
16.260199
  0
LINE
  5
96CF
330
94DF
100
AcDbEntity
  8
5
  6
PHANTOM
100
AcDbLine
 10
371.011748
 20
264.817791
 30
0.0
 11
365.8852239999998
 21
259.691267
 31
0.0
  0
LINE
  5
96D0
330
94DF
100
AcDbEntity
  8
5
  6
PHANTOM
100
AcDbLine
 10
371.011748
 20
264.817791
 30
0.0
 11
362.5264669999999
 21
273.3030719999999
 31
0.0
  0
LINE
  5
96D1
330
94DF
100
AcDbEntity
  8
4
  6
CENTER
100
AcDbLine
 10
370.019278
 20
269.482175
 30
0.0
 11
364.8425399999999
 21
264.3054359999998
 31
0.0
  0
LINE
  5
96D2
330
94DF
100
AcDbEntity
  8
4
  6
CENTER
100
AcDbLine
 10
367.1908509999998
 20
272.310602
 30
0.0
 11
362.0141119999999
 21
267.1338629999999
 31
0.0
  0
LINE
  5
96D3
330
94DF
100
AcDbEntity
  8
5
  6
PHANTOM
100
AcDbLine
 10
362.5264669999999
 20
273.3030719999999
 30
0.0
 11
357.399943
 21
268.176548
 31
0.0
  0
ARC
  5
96D4
330
94DF
100
AcDbEntity
  8
5
  6
PHANTOM
100
AcDbCircle
 10
360.4051469999998
 20
262.6964709999999
 30
0.0
 40
6.25
100
AcDbArc
 50
310.1609669999998
 51
151.260199
  0
LINE
  5
96D5
330
94DF
100
AcDbEntity
  8
5
  6
PHANTOM
100
AcDbLine
 10
398.4934539999999
 20
202.4710849999999
 30
0.0
 11
391.2434539999999
 21
202.4710849999999
 31
0.0
  0
LINE
  5
96D6
330
94DF
100
AcDbEntity
  8
5
  6
PHANTOM
100
AcDbLine
 10
398.4934539999999
 20
202.4710849999999
 30
0.0
 11
398.4934539999999
 21
214.471085
 31
0.0
  0
LINE
  5
96D7
330
94DF
100
AcDbEntity
  8
4
  6
CENTER
100
AcDbLine
 10
401.0898899999999
 20
206.4710849999999
 30
0.0
 11
393.7688749999999
 21
206.4710849999999
 31
0.0
  0
LINE
  5
96D8
330
94DF
100
AcDbEntity
  8
4
  6
CENTER
100
AcDbLine
 10
401.0898899999999
 20
210.471085
 30
0.0
 11
393.7688749999999
 21
210.471085
 31
0.0
  0
LINE
  5
96D9
330
94DF
100
AcDbEntity
  8
5
  6
PHANTOM
100
AcDbLine
 10
398.4934539999999
 20
214.471085
 30
0.0
 11
391.2434539999999
 21
214.471085
 31
0.0
  0
ARC
  5
96DA
330
94DF
100
AcDbEntity
  8
5
  6
PHANTOM
100
AcDbCircle
 10
389.4934539999999
 20
208.471085
 30
0.0
 40
6.25
100
AcDbArc
 50
265.1609669999999
 51
106.260199
  0
LINE
  5
96DB
330
94DF
100
AcDbEntity
  8
5
  6
PHANTOM
100
AcDbLine
 10
373.8401759999999
 20
138.952805
 30
0.0
 11
368.7136509999998
 21
144.0793299999999
 31
0.0
  0
LINE
  5
96DC
330
94DF
100
AcDbEntity
  8
5
  6
PHANTOM
100
AcDbLine
 10
373.8401759999999
 20
138.952805
 30
0.0
 11
382.3254569999999
 21
147.438087
 31
0.0
  0
LINE
  5
96DD
330
94DF
100
AcDbEntity
  8
4
  6
CENTER
100
AcDbLine
 10
378.50456
 20
139.945275
 30
0.0
 11
373.3278209999999
 21
145.1220139999998
 31
0.0
  0
LINE
  5
96DE
330
94DF
100
AcDbEntity
  8
4
  6
CENTER
100
AcDbLine
 10
381.332987
 20
142.7737019999999
 30
0.0
 11
376.156248
 21
147.9504409999998
 31
0.0
  0
LINE
  5
96DF
330
94DF
100
AcDbEntity
  8
5
  6
PHANTOM
100
AcDbLine
 10
382.3254569999999
 20
147.438087
 30
0.0
 11
377.198933
 21
152.564611
 31
0.0
  0
ARC
  5
96E0
330
94DF
100
AcDbEntity
  8
5
  6
PHANTOM
100
AcDbCircle
 10
371.7188549999999
 20
149.5594069999999
 30
0.0
 40
6.25
100
AcDbArc
 50
220.160967
 51
61.26019900000001
  0
LINE
  5
96E1
330
94DF
100
AcDbEntity
  8
5
  6
PHANTOM
100
AcDbLine
 10
311.493469
 20
111.4711
 30
0.0
 11
311.493469
 21
118.7211
 31
0.0
  0
LINE
  5
96E2
330
94DF
100
AcDbEntity
  8
5
  6
PHANTOM
100
AcDbLine
 10
311.493469
 20
111.4711
 30
0.0
 11
323.493469
 21
111.4711
 31
0.0
  0
LINE
  5
96E3
330
94DF
100
AcDbEntity
  8
4
  6
CENTER
100
AcDbLine
 10
315.493469
 20
108.8746639999999
 30
0.0
 11
315.493469
 21
116.195679
 31
0.0
  0
LINE
  5
96E4
330
94DF
100
AcDbEntity
  8
4
  6
CENTER
100
AcDbLine
 10
319.493469
 20
108.8746639999999
 30
0.0
 11
319.493469
 21
116.195679
 31
0.0
  0
LINE
  5
96E5
330
94DF
100
AcDbEntity
  8
5
  6
PHANTOM
100
AcDbLine
 10
323.493469
 20
111.4711
 30
0.0
 11
323.493469
 21
118.7211
 31
0.0
  0
ARC
  5
96E6
330
94DF
100
AcDbEntity
  8
5
  6
PHANTOM
100
AcDbCircle
 10
317.493469
 20
120.4711
 30
0.0
 40
6.25
100
AcDbArc
 50
175.160967
 51
16.260199
  0
ENDSEC
  0
SECTION
  2
OBJECTS
  0
DICTIONARY
  5
94CD
330
0
100
AcDbDictionary
281
     1
  3
ACAD_CIP_PREVIOUS_PRODUCT_INFO
350
974C
  3
ACAD_COLOR
350
972E
  3
ACAD_DETAILVIEWSTYLE
350
9747
  3
ACAD_GROUP
350
94CE
  3
ACAD_LAYOUT
350
94DA
  3
ACAD_MATERIAL
350
96FC
  3
ACAD_MLEADERSTYLE
350
9743
  3
ACAD_MLINESTYLE
350
94D7
  3
ACAD_PLOTSETTINGS
350
94D9
  3
ACAD_PLOTSTYLENAME
350
96FA
  3
ACAD_SCALELIST
350
9731
  3
ACAD_SECTIONVIEWSTYLE
350
9745
  3
ACAD_TABLESTYLE
350
972F
  3
ACAD_VISUALSTYLE
350
9715
  3
ACDB_RECOMPOSE_DATA
350
976A
  3
AcDbVariableDictionary
350
975D
  3
DWGPROPS
350
976B
  0
DICTIONARY
  5
974D
330
94D1
100
AcDbDictionary
280
     1
281
     1
  3
ADSK_XREC_LAYER_RECONCILED
360
974E
  0
DICTIONARY
  5
974F
330
94E7
100
AcDbDictionary
280
     1
281
     1
  3
ADSK_XREC_LAYER_RECONCILED
360
9750
  0
DICTIONARY
  5
9751
330
94E8
100
AcDbDictionary
280
     1
281
     1
  3
ADSK_XREC_LAYER_RECONCILED
360
9752
  0
DICTIONARY
  5
9753
330
94E9
100
AcDbDictionary
280
     1
281
     1
  3
ADSK_XREC_LAYER_RECONCILED
360
9754
  0
DICTIONARY
  5
9755
330
94EA
100
AcDbDictionary
280
     1
281
     1
  3
ADSK_XREC_LAYER_RECONCILED
360
9756
  0
DICTIONARY
  5
9757
330
94EB
100
AcDbDictionary
280
     1
281
     1
  3
ADSK_XREC_LAYER_RECONCILED
360
9758
  0
DICTIONARY
  5
9759
330
94EC
100
AcDbDictionary
280
     1
281
     1
  3
ADSK_XREC_LAYER_RECONCILED
360
975A
  0
DICTIONARY
  5
975B
330
94ED
100
AcDbDictionary
280
     1
281
     1
  3
ADSK_XREC_LAYER_RECONCILED
360
975C
  0
DICTIONARY
  5
96F5
330
94DF
100
AcDbDictionary
281
     1
  3
ACAD_LAYOUTSELFREF
350
96F6
  0
DICTIONARY
  5
96F3
330
94DB
100
AcDbDictionary
281
     1
  3
ACAD_LAYOUTSELFREF
350
96F4
  0
XRECORD
  5
974C
102
{ACAD_REACTORS
330
94CD
102
}
330
94CD
100
AcDbXrecord
280
     1
300
ACDLT
300
2014
300
ACDLT_F_S
  0
DICTIONARY
  5
972E
102
{ACAD_REACTORS
330
94CD
102
}
330
94CD
100
AcDbDictionary
281
     1
  0
DICTIONARY
  5
9747
102
{ACAD_REACTORS
330
94CD
102
}
330
94CD
100
AcDbDictionary
281
     1
  3
Imperial24
350
9748
  0
DICTIONARY
  5
94CE
102
{ACAD_REACTORS
330
94CD
102
}
330
94CD
100
AcDbDictionary
281
     1
  0
DICTIONARY
  5
94DA
102
{ACAD_REACTORS
330
94CD
102
}
330
94CD
100
AcDbDictionary
281
     1
  3
Model
350
9749
  3
レイアウト1
350
974A
  0
DICTIONARY
  5
96FC
102
{ACAD_REACTORS
330
94CD
102
}
330
94CD
100
AcDbDictionary
281
     1
  3
ByBlock
350
9705
  3
ByLayer
350
96FD
  3
Global
350
970D
  0
DICTIONARY
  5
9743
102
{ACAD_REACTORS
330
94CD
102
}
330
94CD
100
AcDbDictionary
281
     1
  3
Standard
350
9744
  0
DICTIONARY
  5
94D7
102
{ACAD_REACTORS
330
94CD
102
}
330
94CD
100
AcDbDictionary
281
     1
  3
STANDARD
350
94D8
  0
DICTIONARY
  5
94D9
102
{ACAD_REACTORS
330
94CD
102
}
330
94CD
100
AcDbDictionary
281
     1
  0
ACDBDICTIONARYWDFLT
  5
96FA
102
{ACAD_REACTORS
330
94CD
102
}
330
94CD
100
AcDbDictionary
281
     1
  3
Normal
350
96FB
100
AcDbDictionaryWithDefault
340
96FB
  0
DICTIONARY
  5
9731
102
{ACAD_REACTORS
330
94CD
102
}
330
94CD
100
AcDbDictionary
281
     1
  3
A0
350
9732
  3
A1
350
9733
  3
A2
350
9734
  3
A3
350
9735
  3
A4
350
9736
  3
A5
350
9737
  3
A6
350
9738
  3
A7
350
9739
  3
A8
350
973A
  3
A9
350
973B
  3
B0
350
973C
  3
B1
350
973D
  3
B2
350
973E
  3
B3
350
973F
  3
B4
350
9740
  3
B5
350
9741
  3
B6
350
9742
  0
DICTIONARY
  5
9745
102
{ACAD_REACTORS
330
94CD
102
}
330
94CD
100
AcDbDictionary
281
     1
  3
Imperial24
350
9746
  0
DICTIONARY
  5
972F
102
{ACAD_REACTORS
330
94CD
102
}
330
94CD
100
AcDbDictionary
281
     1
  3
Standard
350
9730
  0
DICTIONARY
  5
9715
102
{ACAD_REACTORS
330
94CD
102
}
330
94CD
100
AcDbDictionary
281
     1
  3
2dWireframe
350
971B
  3
Basic
350
971A
  3
Brighten
350
9721
  3
ColorChange
350
9725
  3
Conceptual
350
971E
  3
Dim
350
9720
  3
EdgeColorOff
350
972D
  3
Facepattern
350
9724
  3
Flat
350
9716
  3
FlatWithEdges
350
9717
  3
Gouraud
350
9718
  3
GouraudWithEdges
350
9719
  3
Hidden
350
971D
  3
JitterOff
350
972B
  3
Linepattern
350
9723
  3
OverhangOff
350
972C
  3
Realistic
350
971F
  3
Shaded
350
972A
  3
Shaded with edges
350
9729
  3
Shades of Gray
350
9726
  3
Sketchy
350
9727
  3
Thicken
350
9722
  3
Wireframe
350
971C
  3
X-Ray
350
9728
  0
XRECORD
  5
976A
102
{ACAD_REACTORS
330
94CD
102
}
330
94CD
100
AcDbXrecord
280
     1
 90
        1
330
9730
  0
DICTIONARY
  5
975D
102
{ACAD_REACTORS
330
94CD
102
}
330
94CD
100
AcDbDictionary
281
     1
  3
CANNOSCALE
350
9762
  3
CMLEADERSTYLE
350
975F
  3
CTABLESTYLE
350
975E
  3
CVIEWDETAILSTYLE
350
9760
  3
CVIEWSECTIONSTYLE
350
9761
  3
DIMASSOC
350
9765
  3
INDEXCTL
350
9764
  3
SORTENTS
350
9763
  3
XCLIPFRAME
350
9766
  0
XRECORD
  5
976B
102
{ACAD_REACTORS
330
94CD
102
}
330
94CD
100
AcDbXrecord
280
     1
  1
DWGPROPS COOKIE
  2

  3

  4

  6

  7

  8
Yoshitsune
  9

300
=
301
=
302
=
303
=
304
=
305
=
306
=
307
=
308
=
309
=
 40
0.0000143055555556
 41
2451074.628889236
 42
2457192.62289485
  1

 90
        0
  0
XRECORD
  5
974E
102
{ACAD_REACTORS
330
974D
102
}
330
974D
100
AcDbXrecord
280
     1
290
     1
  0
XRECORD
  5
9750
102
{ACAD_REACTORS
330
974F
102
}
330
974F
100
AcDbXrecord
280
     1
290
     1
  0
XRECORD
  5
9752
102
{ACAD_REACTORS
330
9751
102
}
330
9751
100
AcDbXrecord
280
     1
290
     1
  0
XRECORD
  5
9754
102
{ACAD_REACTORS
330
9753
102
}
330
9753
100
AcDbXrecord
280
     1
290
     1
  0
XRECORD
  5
9756
102
{ACAD_REACTORS
330
9755
102
}
330
9755
100
AcDbXrecord
280
     1
290
     1
  0
XRECORD
  5
9758
102
{ACAD_REACTORS
330
9757
102
}
330
9757
100
AcDbXrecord
280
     1
290
     1
  0
XRECORD
  5
975A
102
{ACAD_REACTORS
330
9759
102
}
330
9759
100
AcDbXrecord
280
     1
290
     1
  0
XRECORD
  5
975C
102
{ACAD_REACTORS
330
975B
102
}
330
975B
100
AcDbXrecord
280
     1
290
     1
  0
XRECORD
  5
96F6
102
{ACAD_REACTORS
330
96F5
102
}
330
96F5
100
AcDbXrecord
280
     1
340
94DF
  0
XRECORD
  5
96F4
102
{ACAD_REACTORS
330
96F3
102
}
330
96F3
100
AcDbXrecord
280
     1
340
94DB
  0
ACDBDETAILVIEWSTYLE
  5
9748
102
{ACAD_XDICTIONARY
360
97A3
102
}
102
{ACAD_REACTORS
330
9747
102
}
330
9747
100
AcDbModelDocViewStyle
 70
     0
  3
Imperial24
290
     0
100
AcDbDetailViewStyle
 70
     0
 71
     0
 90
        3
 71
     1
340
94D2
 40
0.24
340
0
 40
0.24
300

 40
0.36
280
     3
 71
     2
340
94D6
 90
       25
 71
     3
340
94D2
 40
0.24
 90
        1
 40
0.75
 90
        1
300
%<\AcVar ViewType \f "%tc1">% %<\AcVar ViewDetailId>%\PSCALE %<\AcVar ViewScale \f "%sn">%
 71
     4
340
94D6
 90
       25
340
94D6
 90
       25
280
     0
  0
LAYOUT
  5
9749
102
{ACAD_XDICTIONARY
360
97A5
102
}
102
{ACAD_REACTORS
330
94DA
102
}
330
94DA
100
AcDbPlotSettings
  1

  2
Canon LBP9100C
  4

  6

 40
0.0
 41
0.0
 42
0.0
 43
0.0
 44
0.0
 45
0.0
 46
0.0
 47
0.0
 48
0.0
 49
0.0
140
0.0
141
0.0
142
1.0
143
1.0
 70
  1712
 72
     0
 73
     0
 74
     0
  7

 75
     0
147
1.0
148
0.0
149
0.0
100
AcDbLayout
  1
Model
 70
     1
 71
     0
 10
0.0
 20
0.0
 11
12.0
 21
9.0
 12
0.0
 22
0.0
 32
0.0
 14
0.0
 24
0.0
 34
0.0
 15
0.0
 25
0.0
 35
0.0
146
0.0
 13
0.0
 23
0.0
 33
0.0
 16
1.0
 26
0.0
 36
0.0
 17
0.0
 27
1.0
 37
0.0
 76
     0
330
94DF
331
96F2
  0
LAYOUT
  5
974A
102
{ACAD_XDICTIONARY
360
97A7
102
}
102
{ACAD_REACTORS
330
94DA
102
}
330
94DA
100
AcDbPlotSettings
  1

  2
Canon LBP9100C
  4

  6

 40
0.0
 41
0.0
 42
0.0
 43
0.0
 44
0.0
 45
0.0
 46
0.0
 47
0.0
 48
0.0
 49
0.0
140
0.0
141
0.0
142
1.0
143
1.0
 70
   688
 72
     0
 73
     0
 74
     5
  7

 75
    16
147
1.0
148
0.0
149
0.0
100
AcDbLayout
  1
レイアウト1
 70
     0
 71
     1
 10
0.0
 20
0.0
 11
420.0
 21
297.0
 12
0.0
 22
0.0
 32
0.0
 14
1.000000000000000E+20
 24
1.000000000000000E+20
 34
1.000000000000000E+20
 15
-1.000000000000000E+20
 25
-1.000000000000000E+20
 35
-1.000000000000000E+20
146
0.0
 13
0.0
 23
0.0
 33
0.0
 16
1.0
 26
0.0
 36
0.0
 17
0.0
 27
1.0
 37
0.0
 76
     0
330
94DB
  0
MATERIAL
  5
9705
102
{ACAD_XDICTIONARY
360
9706
102
}
102
{ACAD_REACTORS
330
96FC
102
}
330
96FC
100
AcDbMaterial
  1
ByBlock
 72
     0
 43
0.0208333333333333
 43
0.0
 43
0.0
 43
0.0
 43
0.0
 43
0.0208333333333333
 43
0.0
 43
0.0
 43
0.0
 43
0.0
 43
1.0
 43
0.0
 43
0.0
 43
0.0
 43
0.0
 43
1.0
 77
     0
 47
0.0208333333333333
 47
0.0
 47
0.0
 47
0.0
 47
0.0
 47
0.0208333333333333
 47
0.0
 47
0.0
 47
0.0
 47
0.0
 47
1.0
 47
0.0
 47
0.0
 47
0.0
 47
0.0
 47
1.0
171
     0
 49
0.0208333333333333
 49
0.0
 49
0.0
 49
0.0
 49
0.0
 49
0.0208333333333333
 49
0.0
 49
0.0
 49
0.0
 49
0.0
 49
1.0
 49
0.0
 49
0.0
 49
0.0
 49
0.0
 49
1.0
175
     0
142
0.0208333333333333
142
0.0
142
0.0
142
0.0
142
0.0
142
0.0208333333333333
142
0.0
142
0.0
142
0.0
142
0.0
142
1.0
142
0.0
142
0.0
142
0.0
142
0.0
142
1.0
179
     0
144
0.0208333333333333
144
0.0
144
0.0
144
0.0
144
0.0
144
0.0208333333333333
144
0.0
144
0.0
144
0.0
144
0.0
144
1.0
144
0.0
144
0.0
144
0.0
144
0.0
144
1.0
147
0.0208333333333333
147
0.0
147
0.0
147
0.0
147
0.0
147
0.0208333333333333
147
0.0
147
0.0
147
0.0
147
0.0
147
1.0
147
0.0
147
0.0
147
0.0
147
0.0
147
1.0
  0
MATERIAL
  5
96FD
102
{ACAD_XDICTIONARY
360
96FE
102
}
102
{ACAD_REACTORS
330
96FC
102
}
330
96FC
100
AcDbMaterial
  1
ByLayer
 72
     0
 43
0.0208333333333333
 43
0.0
 43
0.0
 43
0.0
 43
0.0
 43
0.0208333333333333
 43
0.0
 43
0.0
 43
0.0
 43
0.0
 43
1.0
 43
0.0
 43
0.0
 43
0.0
 43
0.0
 43
1.0
 77
     0
 47
0.0208333333333333
 47
0.0
 47
0.0
 47
0.0
 47
0.0
 47
0.0208333333333333
 47
0.0
 47
0.0
 47
0.0
 47
0.0
 47
1.0
 47
0.0
 47
0.0
 47
0.0
 47
0.0
 47
1.0
171
     0
 49
0.0208333333333333
 49
0.0
 49
0.0
 49
0.0
 49
0.0
 49
0.0208333333333333
 49
0.0
 49
0.0
 49
0.0
 49
0.0
 49
1.0
 49
0.0
 49
0.0
 49
0.0
 49
0.0
 49
1.0
175
     0
142
0.0208333333333333
142
0.0
142
0.0
142
0.0
142
0.0
142
0.0208333333333333
142
0.0
142
0.0
142
0.0
142
0.0
142
1.0
142
0.0
142
0.0
142
0.0
142
0.0
142
1.0
179
     0
144
0.0208333333333333
144
0.0
144
0.0
144
0.0
144
0.0
144
0.0208333333333333
144
0.0
144
0.0
144
0.0
144
0.0
144
1.0
144
0.0
144
0.0
144
0.0
144
0.0
144
1.0
147
0.0208333333333333
147
0.0
147
0.0
147
0.0
147
0.0
147
0.0208333333333333
147
0.0
147
0.0
147
0.0
147
0.0
147
1.0
147
0.0
147
0.0
147
0.0
147
0.0
147
1.0
  0
MATERIAL
  5
970D
102
{ACAD_XDICTIONARY
360
970E
102
}
102
{ACAD_REACTORS
330
96FC
102
}
330
96FC
100
AcDbMaterial
  1
Global
 72
     0
 43
0.0208333333333333
 43
0.0
 43
0.0
 43
0.0
 43
0.0
 43
0.0208333333333333
 43
0.0
 43
0.0
 43
0.0
 43
0.0
 43
1.0
 43
0.0
 43
0.0
 43
0.0
 43
0.0
 43
1.0
 77
     0
 47
0.0208333333333333
 47
0.0
 47
0.0
 47
0.0
 47
0.0
 47
0.0208333333333333
 47
0.0
 47
0.0
 47
0.0
 47
0.0
 47
1.0
 47
0.0
 47
0.0
 47
0.0
 47
0.0
 47
1.0
171
     0
 49
0.0208333333333333
 49
0.0
 49
0.0
 49
0.0
 49
0.0
 49
0.0208333333333333
 49
0.0
 49
0.0
 49
0.0
 49
0.0
 49
1.0
 49
0.0
 49
0.0
 49
0.0
 49
0.0
 49
1.0
175
     0
142
0.0208333333333333
142
0.0
142
0.0
142
0.0
142
0.0
142
0.0208333333333333
142
0.0
142
0.0
142
0.0
142
0.0
142
1.0
142
0.0
142
0.0
142
0.0
142
0.0
142
1.0
179
     0
144
0.0208333333333333
144
0.0
144
0.0
144
0.0
144
0.0
144
0.0208333333333333
144
0.0
144
0.0
144
0.0
144
0.0
144
1.0
144
0.0
144
0.0
144
0.0
144
0.0
144
1.0
147
0.0208333333333333
147
0.0
147
0.0
147
0.0
147
0.0
147
0.0208333333333333
147
0.0
147
0.0
147
0.0
147
0.0
147
1.0
147
0.0
147
0.0
147
0.0
147
0.0
147
1.0
  0
MLEADERSTYLE
  5
9744
102
{ACAD_REACTORS
330
9743
102
}
330
9743
100
AcDbMLeaderStyle
170
     2
171
     1
172
     0
 90
        2
 40
0.0
 41
0.0
173
     1
 91
-1056964608
340
94D4
 92
       -2
290
     1
 42
0.09
291
     1
 43
0.36
  3
Standard
 44
0.18
300

342
94D2
174
     1
178
     6
175
     1
176
     0
 93
-1056964608
 45
0.18
292
     0
297
     0
 46
0.18
 94
-1056964608
 47
1.0
 49
1.0
140
1.0
293
     1
141
0.0
294
     1
177
     0
142
1.0
295
     0
296
     0
143
0.125
1001
ACAD_MLEADERVER
1070
     2
  0
MLINESTYLE
  5
94D8
102
{ACAD_REACTORS
330
94D7
102
}
330
94D7
100
AcDbMlineStyle
  2
STANDARD
 70
     0
  3

 62
   256
 51
90.0
 52
90.0
 71
     2
 49
0.5
 62
   256
  6
BYLAYER
 49
-0.5
 62
   256
  6
BYLAYER
  0
ACDBPLACEHOLDER
  5
96FB
102
{ACAD_REACTORS
330
96FA
102
}
330
96FA
  0
SCALE
  5
9732
102
{ACAD_REACTORS
330
9731
102
}
330
9731
100
AcDbScale
 70
     0
300
1:1
140
1.0
141
1.0
290
     1
  0
SCALE
  5
9733
102
{ACAD_REACTORS
330
9731
102
}
330
9731
100
AcDbScale
 70
     0
300
1/128" = 1'-0"
140
0.0078125
141
12.0
290
     0
  0
SCALE
  5
9734
102
{ACAD_REACTORS
330
9731
102
}
330
9731
100
AcDbScale
 70
     0
300
1/64" = 1'-0"
140
0.015625
141
12.0
290
     0
  0
SCALE
  5
9735
102
{ACAD_REACTORS
330
9731
102
}
330
9731
100
AcDbScale
 70
     0
300
1/32" = 1'-0"
140
0.03125
141
12.0
290
     0
  0
SCALE
  5
9736
102
{ACAD_REACTORS
330
9731
102
}
330
9731
100
AcDbScale
 70
     0
300
1/16" = 1'-0"
140
0.0625
141
12.0
290
     0
  0
SCALE
  5
9737
102
{ACAD_REACTORS
330
9731
102
}
330
9731
100
AcDbScale
 70
     0
300
3/32" = 1'-0"
140
0.09375
141
12.0
290
     0
  0
SCALE
  5
9738
102
{ACAD_REACTORS
330
9731
102
}
330
9731
100
AcDbScale
 70
     0
300
1/8" = 1'-0"
140
0.125
141
12.0
290
     0
  0
SCALE
  5
9739
102
{ACAD_REACTORS
330
9731
102
}
330
9731
100
AcDbScale
 70
     0
300
3/16" = 1'-0"
140
0.1875
141
12.0
290
     0
  0
SCALE
  5
973A
102
{ACAD_REACTORS
330
9731
102
}
330
9731
100
AcDbScale
 70
     0
300
1/4" = 1'-0"
140
0.25
141
12.0
290
     0
  0
SCALE
  5
973B
102
{ACAD_REACTORS
330
9731
102
}
330
9731
100
AcDbScale
 70
     0
300
3/8" = 1'-0"
140
0.375
141
12.0
290
     0
  0
SCALE
  5
973C
102
{ACAD_REACTORS
330
9731
102
}
330
9731
100
AcDbScale
 70
     0
300
1/2" = 1'-0"
140
0.5
141
12.0
290
     0
  0
SCALE
  5
973D
102
{ACAD_REACTORS
330
9731
102
}
330
9731
100
AcDbScale
 70
     0
300
3/4" = 1'-0"
140
0.75
141
12.0
290
     0
  0
SCALE
  5
973E
102
{ACAD_REACTORS
330
9731
102
}
330
9731
100
AcDbScale
 70
     0
300
1" = 1'-0"
140
1.0
141
12.0
290
     0
  0
SCALE
  5
973F
102
{ACAD_REACTORS
330
9731
102
}
330
9731
100
AcDbScale
 70
     0
300
1-1/2" = 1'-0"
140
1.5
141
12.0
290
     0
  0
SCALE
  5
9740
102
{ACAD_REACTORS
330
9731
102
}
330
9731
100
AcDbScale
 70
     0
300
3" = 1'-0"
140
3.0
141
12.0
290
     0
  0
SCALE
  5
9741
102
{ACAD_REACTORS
330
9731
102
}
330
9731
100
AcDbScale
 70
     0
300
6" = 1'-0"
140
6.0
141
12.0
290
     0
  0
SCALE
  5
9742
102
{ACAD_REACTORS
330
9731
102
}
330
9731
100
AcDbScale
 70
     0
300
1'-0" = 1'-0"
140
12.0
141
12.0
290
     0
  0
ACDBSECTIONVIEWSTYLE
  5
9746
102
{ACAD_XDICTIONARY
360
97A1
102
}
102
{ACAD_REACTORS
330
9745
102
}
330
9745
100
AcDbModelDocViewStyle
 70
     0
  3
Imperial24
290
     0
100
AcDbSectionViewStyle
 70
     0
 71
     0
 90
       78
 71
     1
340
94D2
 40
0.24
340
0
340
0
 40
0.24
300
I, O, Q, S, X, Z
 40
0.48
 90
        3
 40
0.18
 90
        1
 71
     2
340
94D6
 90
       25
340
94D6
 90
       50
 40
0.24
 40
0.0
 40
0.24
 71
     3
340
94D2
 40
0.24
 90
        1
 40
0.75
 90
        1
300
%<\AcVar ViewType \f "%tc1">% %<\AcVar ViewSectionStartId>%-%<\AcVar ViewSectionEndId>%\PSCALE %<\AcVar ViewScale \f "%sn">%
 71
     4
300
ANSI31
 40
1.0
 90
        0
290
     0
290
     0
 90
        6
 40
0.0
 40
1.570796326794896
 40
0.2617993877991494
 40
1.308996938995747
 40
-0.2617993877991494
 40
1.832595714594046
  0
TABLESTYLE
  5
9730
102
{ACAD_XDICTIONARY
360
9768
102
}
102
{ACAD_REACTORS
330
972F
102
}
330
972F
100
AcDbTableStyle
  3
Standard
 70
     0
 71
     0
 40
0.06
 41
0.06
280
     0
281
     0
  7
STANDARD
140
0.18
170
     2
 62
     0
 63
     7
283
     0
274
    -2
284
     1
 64
     0
275
    -2
285
     1
 65
     0
276
    -2
286
     1
 66
     0
277
    -2
287
     1
 67
     0
278
    -2
288
     1
 68
     0
279
    -2
289
     1
 69
     0
  7
STANDARD
140
0.25
170
     5
 62
     0
 63
     7
283
     0
274
    -2
284
     1
 64
     0
275
    -2
285
     1
 65
     0
276
    -2
286
     1
 66
     0
277
    -2
287
     1
 67
     0
278
    -2
288
     1
 68
     0
279
    -2
289
     1
 69
     0
  7
STANDARD
140
0.18
170
     5
 62
     0
 63
     7
283
     0
274
    -2
284
     1
 64
     0
275
    -2
285
     1
 65
     0
276
    -2
286
     1
 66
     0
277
    -2
287
     1
 67
     0
278
    -2
288
     1
 68
     0
279
    -2
289
     1
 69
     0
  0
VISUALSTYLE
  5
971B
102
{ACAD_XDICTIONARY
360
9779
102
}
102
{ACAD_REACTORS
330
9715
102
}
330
9715
100
AcDbVisualStyle
  2
2dWireframe
 70
     4
 71
     0
 72
     2
 73
     0
 90
        0
 40
-0.6
 41
-30.0
 62
     5
 63
     7
 74
     1
 91
        4
 64
     7
 65
   257
 75
     1
175
     1
 42
1.0
 92
        0
 66
   257
 43
1.0
 76
     1
 77
     6
 78
     2
 67
     7
 79
     5
170
     0
171
     0
290
     0
174
     0
 93
        1
 44
0.0
173
     0
291
     0
 45
0.0
1001
ACAD
1000
AcDbSavedByObjectVersion
1070
     0
  0
VISUALSTYLE
  5
971A
102
{ACAD_XDICTIONARY
360
9777
102
}
102
{ACAD_REACTORS
330
9715
102
}
330
9715
100
AcDbVisualStyle
  2
Basic
 70
     7
 71
     1
 72
     0
 73
     1
 90
        0
 40
-0.6
 41
-30.0
 62
     5
 63
     7
 74
     0
 91
        4
 64
     7
 65
   257
 75
     1
175
     1
 42
1.0
 92
        8
 66
     7
 43
1.0
 76
     1
 77
     6
 78
     2
 67
     7
 79
     5
170
     0
171
     0
290
     0
174
     0
 93
        1
 44
0.0
173
     0
291
     1
 45
0.0
1001
ACAD
1000
AcDbSavedByObjectVersion
1070
     0
  0
VISUALSTYLE
  5
9721
102
{ACAD_XDICTIONARY
360
9785
102
}
102
{ACAD_REACTORS
330
9715
102
}
330
9715
100
AcDbVisualStyle
  2
Brighten
 70
    12
 71
     2
 72
     2
 73
     0
 90
        0
 40
-0.6
 41
-30.0
 62
     5
 63
     7
 74
     1
 91
        4
 64
     7
 65
   257
 75
     1
175
     1
 42
1.0
 92
        8
 66
     7
 43
1.0
 76
     1
 77
     6
 78
     2
 67
     7
 79
     5
170
     0
171
     0
290
     0
174
     0
 93
        1
 44
50.0
173
     0
291
     1
 45
0.0
1001
ACAD
1000
AcDbSavedByObjectVersion
1070
     0
  0
VISUALSTYLE
  5
9725
102
{ACAD_XDICTIONARY
360
978D
102
}
102
{ACAD_REACTORS
330
9715
102
}
330
9715
100
AcDbVisualStyle
  2
ColorChange
 70
    16
 71
     2
 72
     2
 73
     3
 90
        0
 40
-0.6
 41
-30.0
 62
     5
 63
     8
 74
     1
 91
        4
 64
     7
 65
   257
 75
     1
175
     1
 42
1.0
 92
        8
 66
     8
 43
1.0
 76
     1
 77
     6
 78
     2
 67
     7
 79
     5
170
     0
171
     0
290
     0
174
     0
 93
        1
 44
0.0
173
     0
291
     1
 45
0.0
1001
ACAD
1000
AcDbSavedByObjectVersion
1070
     0
  0
VISUALSTYLE
  5
971E
102
{ACAD_XDICTIONARY
360
977F
102
}
102
{ACAD_REACTORS
330
9715
102
}
330
9715
100
AcDbVisualStyle
  2
Conceptual
 70
     9
 71
     3
 72
     2
 73
     0
 90
        0
 40
-0.6
 41
-30.0
 62
     5
 63
     7
 74
     2
 91
        2
 64
     7
 65
   257
 75
     1
175
     1
 42
179.0
 92
        8
 66
     7
 43
1.0
 76
     1
 77
     6
 78
     2
 67
     7
 79
     3
170
     0
171
     0
290
     0
174
     0
 93
        1
 44
0.0
173
     0
291
     0
 45
0.0
1001
ACAD
1000
AcDbSavedByObjectVersion
1070
     0
  0
VISUALSTYLE
  5
9720
102
{ACAD_XDICTIONARY
360
9783
102
}
102
{ACAD_REACTORS
330
9715
102
}
330
9715
100
AcDbVisualStyle
  2
Dim
 70
    11
 71
     2
 72
     2
 73
     0
 90
        0
 40
-0.6
 41
-30.0
 62
     5
 63
     7
 74
     1
 91
        4
 64
     7
 65
   257
 75
     1
175
     1
 42
1.0
 92
        8
 66
     7
 43
1.0
 76
     1
 77
     6
 78
     2
 67
     7
 79
     5
170
     0
171
     0
290
     0
174
     0
 93
        1
 44
-50.0
173
     0
291
     1
 45
0.0
1001
ACAD
1000
AcDbSavedByObjectVersion
1070
     0
  0
VISUALSTYLE
  5
972D
102
{ACAD_XDICTIONARY
360
979D
102
}
102
{ACAD_REACTORS
330
9715
102
}
330
9715
100
AcDbVisualStyle
  2
EdgeColorOff
 70
    22
 71
     2
 72
     2
 73
     0
 90
        0
 40
-0.6
 41
-30.0
 62
     5
 63
     7
 74
     1
 91
        4
 64
     7
 65
   257
 75
     1
175
     1
 42
1.0
 92
        8
 66
     7
 43
1.0
 76
     1
 77
     6
 78
     2
 67
     7
 79
     5
170
     0
171
     0
290
     0
174
     0
 93
        1
 44
0.0
173
     0
291
     1
 45
0.0
1001
ACAD
1000
AcDbSavedByObjectVersion
1070
     0
  0
VISUALSTYLE
  5
9724
102
{ACAD_XDICTIONARY
360
978B
102
}
102
{ACAD_REACTORS
330
9715
102
}
330
9715
100
AcDbVisualStyle
  2
Facepattern
 70
    15
 71
     2
 72
     2
 73
     0
 90
        0
 40
-0.6
 41
-30.0
 62
     5
 63
     7
 74
     1
 91
        4
 64
     7
 65
   257
 75
     1
175
     1
 42
1.0
 92
        8
 66
     7
 43
1.0
 76
     1
 77
     6
 78
     2
 67
     7
 79
     5
170
     0
171
     0
290
     0
174
     0
 93
        1
 44
0.0
173
     0
291
     1
 45
0.0
1001
ACAD
1000
AcDbSavedByObjectVersion
1070
     0
  0
VISUALSTYLE
  5
9716
102
{ACAD_XDICTIONARY
360
976F
102
}
102
{ACAD_REACTORS
330
9715
102
}
330
9715
100
AcDbVisualStyle
  2
Flat
 70
     0
 71
     2
 72
     1
 73
     1
 90
        2
 40
-0.6
 41
30.0
 62
     5
 63
     7
 74
     0
 91
        0
 64
     7
 65
   257
 75
     1
175
     1
 42
1.0
 92
        8
 66
     7
 43
1.0
 76
     1
 77
     6
 78
     2
 67
     7
 79
     5
170
     0
171
     0
290
     0
174
     0
 93
       13
 44
0.0
173
     0
291
     1
 45
0.0
1001
ACAD
1000
AcDbSavedByObjectVersion
1070
     0
  0
VISUALSTYLE
  5
9717
102
{ACAD_XDICTIONARY
360
9771
102
}
102
{ACAD_REACTORS
330
9715
102
}
330
9715
100
AcDbVisualStyle
  2
FlatWithEdges
 70
     1
 71
     2
 72
     1
 73
     1
 90
        2
 40
-0.6
 41
30.0
 62
     5
 63
     7
 74
     1
 91
        0
 64
     7
 65
   257
 75
     1
175
     1
 42
1.0
 92
        0
 66
   257
 43
1.0
 76
     1
 77
     6
 78
     2
 67
     7
 79
     5
170
     0
171
     0
290
     0
174
     0
 93
       13
 44
0.0
173
     0
291
     1
 45
0.0
1001
ACAD
1000
AcDbSavedByObjectVersion
1070
     0
  0
VISUALSTYLE
  5
9718
102
{ACAD_XDICTIONARY
360
9773
102
}
102
{ACAD_REACTORS
330
9715
102
}
330
9715
100
AcDbVisualStyle
  2
Gouraud
 70
     2
 71
     2
 72
     2
 73
     1
 90
        2
 40
-0.6
 41
30.0
 62
     5
 63
     7
 74
     0
 91
        0
 64
     7
 65
   257
 75
     1
175
     1
 42
1.0
 92
        0
 66
     7
 43
1.0
 76
     1
 77
     6
 78
     2
 67
     7
 79
     5
170
     0
171
     0
290
     0
174
     0
 93
       13
 44
0.0
173
     0
291
     1
 45
0.0
1001
ACAD
1000
AcDbSavedByObjectVersion
1070
     0
  0
VISUALSTYLE
  5
9719
102
{ACAD_XDICTIONARY
360
9775
102
}
102
{ACAD_REACTORS
330
9715
102
}
330
9715
100
AcDbVisualStyle
  2
GouraudWithEdges
 70
     3
 71
     2
 72
     2
 73
     1
 90
        2
 40
-0.6
 41
30.0
 62
     5
 63
     7
 74
     1
 91
        0
 64
     7
 65
   257
 75
     1
175
     1
 42
1.0
 92
        0
 66
   257
 43
1.0
 76
     1
 77
     6
 78
     2
 67
     7
 79
     5
170
     0
171
     0
290
     0
174
     0
 93
       13
 44
0.0
173
     0
291
     1
 45
0.0
1001
ACAD
1000
AcDbSavedByObjectVersion
1070
     0
  0
VISUALSTYLE
  5
971D
102
{ACAD_XDICTIONARY
360
977D
102
}
102
{ACAD_REACTORS
330
9715
102
}
330
9715
100
AcDbVisualStyle
  2
Hidden
 70
     6
 71
     1
 72
     2
 73
     2
 90
        0
 40
-0.6
 41
-30.0
 62
     5
 63
     7
 74
     2
 91
        2
 64
     7
 65
   257
 75
     2
175
     1
 42
40.0
 92
        0
 66
   257
 43
1.0
 76
     1
 77
     6
 78
     2
 67
     7
 79
     3
170
     0
171
     0
290
     0
174
     0
 93
        1
 44
0.0
173
     0
291
     0
 45
0.0
1001
ACAD
1000
AcDbSavedByObjectVersion
1070
     0
  0
VISUALSTYLE
  5
972B
102
{ACAD_XDICTIONARY
360
9799
102
}
102
{ACAD_REACTORS
330
9715
102
}
330
9715
100
AcDbVisualStyle
  2
JitterOff
 70
    20
 71
     2
 72
     2
 73
     0
 90
        0
 40
-0.6
 41
-30.0
 62
     5
 63
     7
 74
     1
 91
        4
 64
     7
 65
   257
 75
     1
175
     1
 42
1.0
 92
       10
 66
     7
 43
1.0
 76
     1
 77
     6
 78
     2
 67
     7
 79
     5
170
     0
171
     0
290
     0
174
     0
 93
        1
 44
0.0
173
     0
291
     1
 45
0.0
1001
ACAD
1000
AcDbSavedByObjectVersion
1070
     0
  0
VISUALSTYLE
  5
9723
102
{ACAD_XDICTIONARY
360
9789
102
}
102
{ACAD_REACTORS
330
9715
102
}
330
9715
100
AcDbVisualStyle
  2
Linepattern
 70
    14
 71
     2
 72
     2
 73
     0
 90
        0
 40
-0.6
 41
-30.0
 62
     5
 63
     7
 74
     1
 91
        4
 64
     7
 65
   257
 75
     7
175
     7
 42
1.0
 92
        8
 66
     7
 43
1.0
 76
     1
 77
     6
 78
     2
 67
     7
 79
     5
170
     0
171
     0
290
     0
174
     0
 93
        1
 44
0.0
173
     0
291
     1
 45
0.0
1001
ACAD
1000
AcDbSavedByObjectVersion
1070
     0
  0
VISUALSTYLE
  5
972C
102
{ACAD_XDICTIONARY
360
979B
102
}
102
{ACAD_REACTORS
330
9715
102
}
330
9715
100
AcDbVisualStyle
  2
OverhangOff
 70
    21
 71
     2
 72
     2
 73
     0
 90
        0
 40
-0.6
 41
-30.0
 62
     5
 63
     7
 74
     1
 91
        4
 64
     7
 65
   257
 75
     1
175
     1
 42
1.0
 92
        9
 66
     7
 43
1.0
 76
     1
 77
     6
 78
     2
 67
     7
 79
     5
170
     0
171
     0
290
     0
174
     0
 93
        1
 44
0.0
173
     0
291
     1
 45
0.0
1001
ACAD
1000
AcDbSavedByObjectVersion
1070
     0
  0
VISUALSTYLE
  5
971F
102
{ACAD_XDICTIONARY
360
9781
102
}
102
{ACAD_REACTORS
330
9715
102
}
330
9715
100
AcDbVisualStyle
  2
Realistic
 70
     8
 71
     2
 72
     3
 73
     0
 90
        2
 40
-0.6
 41
30.0
 62
     5
 63
     7
 74
     0
 91
        0
 64
     7
 65
   257
 75
     1
175
     1
 42
1.0
 92
        8
 66
   257
 43
1.0
 76
     1
 77
     6
 78
     2
 67
     7
 79
     3
170
     0
171
     0
290
     0
174
     0
 93
       13
 44
0.0
173
     0
291
     0
 45
0.0
1001
ACAD
1000
AcDbSavedByObjectVersion
1070
     0
  0
VISUALSTYLE
  5
972A
102
{ACAD_XDICTIONARY
360
9797
102
}
102
{ACAD_REACTORS
330
9715
102
}
330
9715
100
AcDbVisualStyle
  2
Shaded
 70
    27
 71
     2
 72
     2
 73
     1
 90
        2
 40
-0.6
 41
30.0
 62
     5
 63
     7
 74
     0
 91
        4
 64
     7
 65
   257
 75
     1
175
     1
 42
1.0
 92
        8
 66
   257
 43
1.0
 76
     1
 77
     6
 78
     2
 67
     8
 79
     3
170
     0
171
     0
290
     0
174
     0
 93
        5
 44
0.0
173
     0
291
     0
 45
0.0
1001
ACAD
1000
AcDbSavedByObjectVersion
1070
     0
  0
VISUALSTYLE
  5
9729
102
{ACAD_XDICTIONARY
360
9795
102
}
102
{ACAD_REACTORS
330
9715
102
}
330
9715
100
AcDbVisualStyle
  2
Shaded with edges
 70
    26
 71
     2
 72
     2
 73
     1
 90
        2
 40
-0.6
 41
30.0
 62
     5
 63
     7
 74
     1
 91
       10
 64
     7
 65
   257
 75
     2
175
     1
 42
1.0
 92
        8
 66
   257
 43
1.0
 76
     1
 77
     6
 78
     2
 67
     7
 79
     3
170
     0
171
     0
290
     0
174
     0
 93
        5
 44
0.0
173
     0
291
     0
 45
0.0
1001
ACAD
1000
AcDbSavedByObjectVersion
1070
     0
  0
VISUALSTYLE
  5
9726
102
{ACAD_XDICTIONARY
360
978F
102
}
102
{ACAD_REACTORS
330
9715
102
}
330
9715
100
AcDbVisualStyle
  2
Shades of Gray
 70
    23
 71
     2
 72
     2
 73
     3
 90
        0
 40
-0.6
 41
-30.0
 62
     5
 63
     7
 74
     2
 91
        2
 64
     7
 65
     7
 75
     1
175
     1
 42
40.0
 92
        8
 66
     7
 43
1.0
 76
     1
 77
     6
 78
     2
 67
     7
 79
     3
170
     0
171
     0
290
     0
174
     0
 93
        1
 44
0.0
173
     0
291
     0
 45
0.0
1001
ACAD
1000
AcDbSavedByObjectVersion
1070
     0
  0
VISUALSTYLE
  5
9727
102
{ACAD_XDICTIONARY
360
9791
102
}
102
{ACAD_REACTORS
330
9715
102
}
330
9715
100
AcDbVisualStyle
  2
Sketchy
 70
    24
 71
     1
 72
     2
 73
     2
 90
        0
 40
-0.6
 41
-30.0
 62
     5
 63
     7
 74
     2
 91
        2
 64
     7
 65
     7
 75
     1
175
     1
 42
40.0
 92
       11
 66
     7
 43
1.0
 76
     1
 77
     6
 78
     2
 67
     7
 79
     6
170
     0
171
     0
290
     0
174
     0
 93
        1
 44
0.0
173
     0
291
     0
 45
0.0
1001
ACAD
1000
AcDbSavedByObjectVersion
1070
     0
  0
VISUALSTYLE
  5
9722
102
{ACAD_XDICTIONARY
360
9787
102
}
102
{ACAD_REACTORS
330
9715
102
}
330
9715
100
AcDbVisualStyle
  2
Thicken
 70
    13
 71
     2
 72
     2
 73
     0
 90
        0
 40
-0.6
 41
-30.0
 62
     5
 63
     7
 74
     1
 91
        4
 64
     7
 65
   257
 75
     1
175
     1
 42
1.0
 92
       12
 66
     7
 43
1.0
 76
     1
 77
     6
 78
     2
 67
     7
 79
     5
170
     0
171
     0
290
     0
174
     0
 93
        1
 44
0.0
173
     0
291
     1
 45
0.0
1001
ACAD
1000
AcDbSavedByObjectVersion
1070
     0
  0
VISUALSTYLE
  5
971C
102
{ACAD_XDICTIONARY
360
977B
102
}
102
{ACAD_REACTORS
330
9715
102
}
330
9715
100
AcDbVisualStyle
  2
Wireframe
 70
     5
 71
     0
 72
     2
 73
     0
 90
        0
 40
-0.6
 41
-30.0
 62
     5
 63
     7
 74
     1
 91
        4
 64
     7
 65
   257
 75
     1
175
     1
 42
1.0
 92
        0
 66
   257
 43
1.0
 76
     1
 77
     6
 78
     2
 67
     7
 79
     3
170
     0
171
     0
290
     0
174
     0
 93
        1
 44
0.0
173
     0
291
     0
 45
0.0
1001
ACAD
1000
AcDbSavedByObjectVersion
1070
     0
  0
VISUALSTYLE
  5
9728
102
{ACAD_XDICTIONARY
360
9793
102
}
102
{ACAD_REACTORS
330
9715
102
}
330
9715
100
AcDbVisualStyle
  2
X-Ray
 70
    25
 71
     2
 72
     2
 73
     1
 90
        1
 40
0.5
 41
-30.0
 62
     5
 63
     7
 74
     1
 91
        0
 64
     7
 65
   257
 75
     1
175
     1
 42
1.0
 92
        8
 66
     7
 43
1.0
 76
     1
 77
     6
 78
     2
 67
     7
 79
     3
170
     0
171
     0
290
     0
174
     0
 93
       13
 44
0.0
173
     0
291
     0
 45
0.0
1001
ACAD
1000
AcDbSavedByObjectVersion
1070
     0
  0
DICTIONARYVAR
  5
9762
102
{ACAD_REACTORS
330
975D
102
}
330
975D
100
DictionaryVariables
280
     0
  1
1:1
  0
DICTIONARYVAR
  5
975F
102
{ACAD_REACTORS
330
975D
102
}
330
975D
100
DictionaryVariables
280
     0
  1
STANDARD
  0
DICTIONARYVAR
  5
975E
102
{ACAD_REACTORS
330
975D
102
}
330
975D
100
DictionaryVariables
280
     0
  1
STANDARD
  0
DICTIONARYVAR
  5
9760
102
{ACAD_REACTORS
330
975D
102
}
330
975D
100
DictionaryVariables
280
     0
  1
Imperial24
  0
DICTIONARYVAR
  5
9761
102
{ACAD_REACTORS
330
975D
102
}
330
975D
100
DictionaryVariables
280
     0
  1
Imperial24
  0
DICTIONARYVAR
  5
9765
102
{ACAD_REACTORS
330
975D
102
}
330
975D
100
DictionaryVariables
280
     0
  1
1
  0
DICTIONARYVAR
  5
9764
102
{ACAD_REACTORS
330
975D
102
}
330
975D
100
DictionaryVariables
280
     0
  1
0
  0
DICTIONARYVAR
  5
9763
102
{ACAD_REACTORS
330
975D
102
}
330
975D
100
DictionaryVariables
280
     0
  1
127
  0
DICTIONARYVAR
  5
9766
102
{ACAD_REACTORS
330
975D
102
}
330
975D
100
DictionaryVariables
280
     0
  1
2
  0
DICTIONARY
  5
97A3
330
9748
100
AcDbDictionary
280
     1
281
     1
  3
ACAD_XREC_ROUNDTRIP
360
97A4
  0
DICTIONARY
  5
97A5
330
9749
100
AcDbDictionary
280
     1
281
     1
  3
ACAD_XREC_ROUNDTRIP
360
97A6
  0
DICTIONARY
  5
97A7
330
974A
100
AcDbDictionary
280
     1
281
     1
  3
ACAD_XREC_ROUNDTRIP
360
97A8
  0
DICTIONARY
  5
9706
330
9705
100
AcDbDictionary
280
     1
281
     1
  3
ACAD_XREC_ROUNDTRIP
360
976D
  3
BUMPTILE
360
9708
  3
DIFFUSETILE
360
9707
  3
OPACITYTILE
360
970B
  3
REFLECTIONTILE
360
970A
  3
REFRACTIONTILE
360
970C
  3
SPECULARTILE
360
9709
  0
DICTIONARY
  5
96FE
330
96FD
100
AcDbDictionary
280
     1
281
     1
  3
ACAD_XREC_ROUNDTRIP
360
976C
  3
BUMPTILE
360
9700
  3
DIFFUSETILE
360
96FF
  3
OPACITYTILE
360
9703
  3
REFLECTIONTILE
360
9702
  3
REFRACTIONTILE
360
9704
  3
SPECULARTILE
360
9701
  0
DICTIONARY
  5
970E
330
970D
100
AcDbDictionary
280
     1
281
     1
  3
ACAD_XREC_ROUNDTRIP
360
976E
  3
BUMPTILE
360
9710
  3
DIFFUSETILE
360
970F
  3
OPACITYTILE
360
9713
  3
REFLECTIONTILE
360
9712
  3
REFRACTIONTILE
360
9714
  3
SPECULARTILE
360
9711
  0
DICTIONARY
  5
97A1
330
9746
100
AcDbDictionary
280
     1
281
     1
  3
ACAD_XREC_ROUNDTRIP
360
97A2
  0
DICTIONARY
  5
9768
330
9730
100
AcDbDictionary
280
     1
281
     1
  3
ACAD_ROUNDTRIP_2008_TABLESTYLE_CELLSTYLEMAP
360
9769
  3
ACAD_XREC_ROUNDTRIP
360
979F
  0
DICTIONARY
  5
9779
330
971B
100
AcDbDictionary
280
     1
281
     1
  3
ACAD_XREC_ROUNDTRIP
360
977A
  0
DICTIONARY
  5
9777
330
971A
100
AcDbDictionary
280
     1
281
     1
  3
ACAD_XREC_ROUNDTRIP
360
9778
  0
DICTIONARY
  5
9785
330
9721
100
AcDbDictionary
280
     1
281
     1
  3
ACAD_XREC_ROUNDTRIP
360
9786
  0
DICTIONARY
  5
978D
330
9725
100
AcDbDictionary
280
     1
281
     1
  3
ACAD_XREC_ROUNDTRIP
360
978E
  0
DICTIONARY
  5
977F
330
971E
100
AcDbDictionary
280
     1
281
     1
  3
ACAD_XREC_ROUNDTRIP
360
9780
  0
DICTIONARY
  5
9783
330
9720
100
AcDbDictionary
280
     1
281
     1
  3
ACAD_XREC_ROUNDTRIP
360
9784
  0
DICTIONARY
  5
979D
330
972D
100
AcDbDictionary
280
     1
281
     1
  3
ACAD_XREC_ROUNDTRIP
360
979E
  0
DICTIONARY
  5
978B
330
9724
100
AcDbDictionary
280
     1
281
     1
  3
ACAD_XREC_ROUNDTRIP
360
978C
  0
DICTIONARY
  5
976F
330
9716
100
AcDbDictionary
280
     1
281
     1
  3
ACAD_XREC_ROUNDTRIP
360
9770
  0
DICTIONARY
  5
9771
330
9717
100
AcDbDictionary
280
     1
281
     1
  3
ACAD_XREC_ROUNDTRIP
360
9772
  0
DICTIONARY
  5
9773
330
9718
100
AcDbDictionary
280
     1
281
     1
  3
ACAD_XREC_ROUNDTRIP
360
9774
  0
DICTIONARY
  5
9775
330
9719
100
AcDbDictionary
280
     1
281
     1
  3
ACAD_XREC_ROUNDTRIP
360
9776
  0
DICTIONARY
  5
977D
330
971D
100
AcDbDictionary
280
     1
281
     1
  3
ACAD_XREC_ROUNDTRIP
360
977E
  0
DICTIONARY
  5
9799
330
972B
100
AcDbDictionary
280
     1
281
     1
  3
ACAD_XREC_ROUNDTRIP
360
979A
  0
DICTIONARY
  5
9789
330
9723
100
AcDbDictionary
280
     1
281
     1
  3
ACAD_XREC_ROUNDTRIP
360
978A
  0
DICTIONARY
  5
979B
330
972C
100
AcDbDictionary
280
     1
281
     1
  3
ACAD_XREC_ROUNDTRIP
360
979C
  0
DICTIONARY
  5
9781
330
971F
100
AcDbDictionary
280
     1
281
     1
  3
ACAD_XREC_ROUNDTRIP
360
9782
  0
DICTIONARY
  5
9797
330
972A
100
AcDbDictionary
280
     1
281
     1
  3
ACAD_XREC_ROUNDTRIP
360
9798
  0
DICTIONARY
  5
9795
330
9729
100
AcDbDictionary
280
     1
281
     1
  3
ACAD_XREC_ROUNDTRIP
360
9796
  0
DICTIONARY
  5
978F
330
9726
100
AcDbDictionary
280
     1
281
     1
  3
ACAD_XREC_ROUNDTRIP
360
9790
  0
DICTIONARY
  5
9791
330
9727
100
AcDbDictionary
280
     1
281
     1
  3
ACAD_XREC_ROUNDTRIP
360
9792
  0
DICTIONARY
  5
9787
330
9722
100
AcDbDictionary
280
     1
281
     1
  3
ACAD_XREC_ROUNDTRIP
360
9788
  0
DICTIONARY
  5
977B
330
971C
100
AcDbDictionary
280
     1
281
     1
  3
ACAD_XREC_ROUNDTRIP
360
977C
  0
DICTIONARY
  5
9793
330
9728
100
AcDbDictionary
280
     1
281
     1
  3
ACAD_XREC_ROUNDTRIP
360
9794
  0
XRECORD
  5
97A4
102
{ACAD_REACTORS
330
97A3
102
}
330
97A3
100
AcDbXrecord
280
     1
102
DISPLAYNAME
  1
Imperial24
102
FLAGS
 90
        0
  0
XRECORD
  5
97A6
102
{ACAD_REACTORS
330
97A5
102
}
330
97A5
100
AcDbXrecord
280
     1
102
SHADEPLOT
 70
     0
102
SHADEPLOTRESLEVEL
 70
     2
102
SHADEPLOTCUSTOMDPI
 70
   300
  0
XRECORD
  5
97A8
102
{ACAD_REACTORS
330
97A7
102
}
330
97A7
100
AcDbXrecord
280
     1
102
SHADEPLOT
 70
     0
102
SHADEPLOTRESLEVEL
 70
     2
102
SHADEPLOTCUSTOMDPI
 70
   300
  0
XRECORD
  5
976D
102
{ACAD_REACTORS
330
9706
102
}
330
9706
100
AcDbXrecord
280
     1
102
MATERIAL
148
0.0
149
0.0
149
0.0
 93
        0
 94
      127
282
     0
 72
     0
 77
     0
171
     0
175
     0
179
     0
273
     0
  0
XRECORD
  5
9708
102
{ACAD_REACTORS
330
9706
102
}
330
9706
100
AcDbXrecord
280
     1
270
     1
271
     1
  0
XRECORD
  5
9707
102
{ACAD_REACTORS
330
9706
102
}
330
9706
100
AcDbXrecord
280
     1
270
     1
271
     1
  0
XRECORD
  5
970B
102
{ACAD_REACTORS
330
9706
102
}
330
9706
100
AcDbXrecord
280
     1
270
     1
271
     1
  0
XRECORD
  5
970A
102
{ACAD_REACTORS
330
9706
102
}
330
9706
100
AcDbXrecord
280
     1
270
     1
271
     1
  0
XRECORD
  5
970C
102
{ACAD_REACTORS
330
9706
102
}
330
9706
100
AcDbXrecord
280
     1
270
     1
271
     1
  0
XRECORD
  5
9709
102
{ACAD_REACTORS
330
9706
102
}
330
9706
100
AcDbXrecord
280
     1
270
     1
271
     1
  0
XRECORD
  5
976C
102
{ACAD_REACTORS
330
96FE
102
}
330
96FE
100
AcDbXrecord
280
     1
102
MATERIAL
148
0.0
149
0.0
149
0.0
 93
        0
 94
      127
282
     0
 72
     0
 77
     0
171
     0
175
     0
179
     0
273
     0
  0
XRECORD
  5
9700
102
{ACAD_REACTORS
330
96FE
102
}
330
96FE
100
AcDbXrecord
280
     1
270
     1
271
     1
  0
XRECORD
  5
96FF
102
{ACAD_REACTORS
330
96FE
102
}
330
96FE
100
AcDbXrecord
280
     1
270
     1
271
     1
  0
XRECORD
  5
9703
102
{ACAD_REACTORS
330
96FE
102
}
330
96FE
100
AcDbXrecord
280
     1
270
     1
271
     1
  0
XRECORD
  5
9702
102
{ACAD_REACTORS
330
96FE
102
}
330
96FE
100
AcDbXrecord
280
     1
270
     1
271
     1
  0
XRECORD
  5
9704
102
{ACAD_REACTORS
330
96FE
102
}
330
96FE
100
AcDbXrecord
280
     1
270
     1
271
     1
  0
XRECORD
  5
9701
102
{ACAD_REACTORS
330
96FE
102
}
330
96FE
100
AcDbXrecord
280
     1
270
     1
271
     1
  0
XRECORD
  5
976E
102
{ACAD_REACTORS
330
970E
102
}
330
970E
100
AcDbXrecord
280
     1
102
MATERIAL
148
0.0
149
0.0
149
0.0
 93
        0
 94
      127
282
     0
 72
     0
 77
     0
171
     0
175
     0
179
     0
273
     0
  0
XRECORD
  5
9710
102
{ACAD_REACTORS
330
970E
102
}
330
970E
100
AcDbXrecord
280
     1
270
     1
271
     1
  0
XRECORD
  5
970F
102
{ACAD_REACTORS
330
970E
102
}
330
970E
100
AcDbXrecord
280
     1
270
     1
271
     1
  0
XRECORD
  5
9713
102
{ACAD_REACTORS
330
970E
102
}
330
970E
100
AcDbXrecord
280
     1
270
     1
271
     1
  0
XRECORD
  5
9712
102
{ACAD_REACTORS
330
970E
102
}
330
970E
100
AcDbXrecord
280
     1
270
     1
271
     1
  0
XRECORD
  5
9714
102
{ACAD_REACTORS
330
970E
102
}
330
970E
100
AcDbXrecord
280
     1
270
     1
271
     1
  0
XRECORD
  5
9711
102
{ACAD_REACTORS
330
970E
102
}
330
970E
100
AcDbXrecord
280
     1
270
     1
271
     1
  0
XRECORD
  5
97A2
102
{ACAD_REACTORS
330
97A1
102
}
330
97A1
100
AcDbXrecord
280
     1
102
DISPLAYNAME
  1
Imperial24
102
FLAGS
 90
        0
  0
CELLSTYLEMAP
  5
9769
102
{ACAD_REACTORS
330
9768
102
}
330
9768
100
AcDbCellStyleMap
 90
        3
300
CELLSTYLE
  1
TABLEFORMAT_BEGIN
 90
        5
170
     1
 91
        0
 92
    32768
 62
   257
 93
        1
300
CONTENTFORMAT
  1
CONTENTFORMAT_BEGIN
 90
        0
 91
        0
 92
      512
 93
        0
300

 40
0.0
140
1.0
 94
        5
 62
     0
340
94D2
144
0.25
309
CONTENTFORMAT_END
171
     0
 94
        0
309
TABLEFORMAT_END
  1
CELLSTYLE_BEGIN
 90
        1
 91
        1
300
_TITLE
309
CELLSTYLE_END
300
CELLSTYLE
  1
TABLEFORMAT_BEGIN
 90
        5
170
     1
 91
        0
 92
        0
 62
   257
 93
        1
300
CONTENTFORMAT
  1
CONTENTFORMAT_BEGIN
 90
        0
 91
        0
 92
      512
 93
        0
300

 40
0.0
140
1.0
 94
        5
 62
     0
340
94D2
144
0.18
309
CONTENTFORMAT_END
171
     0
 94
        0
309
TABLEFORMAT_END
  1
CELLSTYLE_BEGIN
 90
        2
 91
        1
300
_HEADER
309
CELLSTYLE_END
300
CELLSTYLE
  1
TABLEFORMAT_BEGIN
 90
        5
170
     1
 91
        0
 92
        0
 62
   257
 93
        1
300
CONTENTFORMAT
  1
CONTENTFORMAT_BEGIN
 90
        0
 91
        0
 92
      512
 93
        0
300

 40
0.0
140
1.0
 94
        2
 62
     0
340
94D2
144
0.18
309
CONTENTFORMAT_END
171
     0
 94
        0
309
TABLEFORMAT_END
  1
CELLSTYLE_BEGIN
 90
        3
 91
        2
300
_DATA
309
CELLSTYLE_END
  0
XRECORD
  5
979F
102
{ACAD_REACTORS
330
9768
102
}
330
9768
100
AcDbXrecord
280
     1
102
ACAD_ROUNDTRIP_PRE2007_TABLESTYLE
 90
      512
 91
        0
  1

 92
      512
 93
        0
  2

 94
      512
 95
        0
  3

  0
XRECORD
  5
977A
102
{ACAD_REACTORS
330
9779
102
}
330
9779
100
AcDbXrecord
280
     1
102
RTVSPost2010Prop28
280
     1
102
RTVSPost2010PropOp28
 70
     1
102
RTVSPost2010Prop29
280
     1
102
RTVSPost2010PropOp29
 70
     1
102
RTVSPost2010Prop30
280
     0
102
RTVSPost2010PropOp30
 70
     1
102
RTVSPost2010Prop31
280
     0
102
RTVSPost2010PropOp31
 70
     1
102
RTVSPost2010Prop32
280
     0
102
RTVSPost2010PropOp32
 70
     1
102
RTVSPost2010Prop33
280
     0
102
RTVSPost2010PropOp33
 70
     1
102
RTVSPost2010Prop34
280
     0
102
RTVSPost2010PropOp34
 70
     1
102
RTVSPost2010Prop35
280
     0
102
RTVSPost2010PropOp35
 70
     1
102
RTVSPost2010Prop36
280
     0
102
RTVSPost2010PropOp36
 70
     1
102
RTVSPost2010Prop37
 90
       50
102
RTVSPost2010PropOp37
 70
     1
102
RTVSPost2010Prop38
140
0.0
102
RTVSPost2010PropOp38
 70
     1
102
RTVSPost2010Prop39
140
1.0
102
RTVSPost2010PropOp39
 70
     1
102
RTVSPost2010Prop40
 90
        0
102
RTVSPost2010PropOp40
 70
     1
102
RTVSPost2010Prop41ColorIndex
 90
       18
102
RTVSPost2010Prop41ColorRGB
 90
        0
102
RTVSPost2010PropOp41
 70
     1
102
RTVSPost2010Prop42
 90
       50
102
RTVSPost2010PropOp42
 70
     1
102
RTVSPost2010Prop43
 90
        3
102
RTVSPost2010PropOp43
 70
     1
102
RTVSPost2010Prop44ColorIndex
 90
        5
102
RTVSPost2010Prop44ColorRGB
 90
      255
102
RTVSPost2010PropOp44
 70
     1
102
RTVSPost2010Prop45
280
     0
102
RTVSPost2010PropOp45
 70
     1
102
RTVSPost2010Prop46
 90
       50
102
RTVSPost2010PropOp46
 70
     1
102
RTVSPost2010Prop47
 90
       50
102
RTVSPost2010PropOp47
 70
     1
102
RTVSPost2010Prop48
 90
       50
102
RTVSPost2010PropOp48
 70
     1
102
RTVSPost2010Prop49
280
     0
102
RTVSPost2010PropOp49
 70
     1
102
RTVSPost2010Prop50
 90
       50
102
RTVSPost2010PropOp50
 70
     1
102
RTVSPost2010Prop51ColorIndex
 90
      256
102
RTVSPost2010Prop51ColorRGB
 90
-16777216
102
RTVSPost2010PropOp51
 70
     0
102
RTVSPost2010Prop52
140
1.0
102
RTVSPost2010PropOp52
 70
     0
102
RTVSPost2010Prop53
 90
        2
102
RTVSPost2010PropOp53
 70
     1
102
RTVSPost2010Prop54
  1
strokes_ogs.tif
102
RTVSPost2010PropOp54
 70
     1
102
RTVSPost2010Prop55
280
     0
102
RTVSPost2010PropOp55
 70
     1
102
RTVSPost2010Prop56
140
1.0
102
RTVSPost2010PropOp56
 70
     1
102
RTVSPost2010Prop57
140
1.0
102
RTVSPost2010PropOp57
 70
     1
102
RTVSPropertyOp0
 70
     1
102
RTVSPropertyOp1
 70
     1
102
RTVSPropertyOp2
 70
     1
102
RTVSPropertyOp3
 70
     1
102
RTVSPropertyOp4
 70
     1
102
RTVSPropertyOp5
 70
     1
102
RTVSPropertyOp6
 70
     1
102
RTVSPropertyOp7
 70
     1
102
RTVSPropertyOp8
 70
     1
102
RTVSPropertyOp9
 70
     1
102
RTVSPropertyOp10
 70
     1
102
RTVSPropertyOp11
 70
     1
102
RTVSPropertyOp12
 70
     1
102
RTVSPropertyOp13
 70
     1
102
RTVSPropertyOp14
 70
     1
102
RTVSPropertyOp15
 70
     1
102
RTVSPropertyOp16
 70
     1
102
RTVSPropertyOp17
 70
     1
102
RTVSPropertyOp18
 70
     1
102
RTVSPropertyOp19
 70
     1
102
RTVSPropertyOp20
 70
     1
102
RTVSPropertyOp21
 70
     1
102
RTVSPropertyOp22
 70
     1
102
RTVSPropertyOp23
 70
     1
102
RTVSPropertyOp24
 70
     1
102
RTVSPropertyOp25
 70
     1
102
RTVSPropertyOp26
 70
     1
102
RTVSPropertyOp27
 70
     1
102
RTVSPropertyOp28
 70
     1
102
RTVSPropertyOp29
 70
     1
102
RTVSPropertyOp30
 70
     1
102
RTVSPropertyOp31
 70
     1
102
RTVSPropertyOp32
 70
     1
102
RTVSPropertyOp33
 70
     1
102
RTVSPropertyOp34
 70
     1
102
RTVSPropertyOp35
 70
     1
102
RTVSPropertyOp36
 70
     1
102
RTVSPropertyOp37
 70
     1
102
RTVSPropertyOp38
 70
     1
102
RTVSPropertyOp39
 70
     1
102
RTVSPropertyOp40
 70
     1
102
RTVSPropertyOp41
 70
     1
102
RTVSPropertyOp42
 70
     1
102
RTVSPropertyOp43
 70
     1
102
RTVSPropertyOp44
 70
     1
102
RTVSPropertyOp45
 70
     1
102
RTVSPropertyOp46
 70
     1
102
RTVSPropertyOp47
 70
     1
102
RTVSPropertyOp48
 70
     1
102
RTVSPropertyOp49
 70
     1
102
RTVSPropertyOp50
 70
     1
102
RTVSPropertyOp51
 70
     0
102
RTVSPropertyOp52
 70
     0
102
RTVSPropertyOp53
 70
     1
102
RTVSPropertyOp54
 70
     1
102
RTVSPropertyOp55
 70
     1
102
RTVSPropertyOp56
 70
     1
102
RTVSPropertyOp57
 70
     1
102
RTVSPropertyOp58
 70
     1
102
RTVSPropertyOp59
 70
     1
102
RTVSPropertyOp60
 70
     1
102
RTVSPropertyOp61
 70
     1
102
RTVSPropertyOp62
 70
     1
  0
XRECORD
  5
9778
102
{ACAD_REACTORS
330
9777
102
}
330
9777
100
AcDbXrecord
280
     1
102
RTVSPost2010Prop28
280
     0
102
RTVSPost2010PropOp28
 70
     1
102
RTVSPost2010Prop29
280
     1
102
RTVSPost2010PropOp29
 70
     1
102
RTVSPost2010Prop30
280
     1
102
RTVSPost2010PropOp30
 70
     1
102
RTVSPost2010Prop31
280
     0
102
RTVSPost2010PropOp31
 70
     1
102
RTVSPost2010Prop32
280
     0
102
RTVSPost2010PropOp32
 70
     1
102
RTVSPost2010Prop33
280
     0
102
RTVSPost2010PropOp33
 70
     1
102
RTVSPost2010Prop34
280
     0
102
RTVSPost2010PropOp34
 70
     1
102
RTVSPost2010Prop35
280
     0
102
RTVSPost2010PropOp35
 70
     1
102
RTVSPost2010Prop36
280
     0
102
RTVSPost2010PropOp36
 70
     1
102
RTVSPost2010Prop37
 90
       50
102
RTVSPost2010PropOp37
 70
     1
102
RTVSPost2010Prop38
140
0.0
102
RTVSPost2010PropOp38
 70
     1
102
RTVSPost2010Prop39
140
1.0
102
RTVSPost2010PropOp39
 70
     1
102
RTVSPost2010Prop40
 90
        0
102
RTVSPost2010PropOp40
 70
     1
102
RTVSPost2010Prop41ColorIndex
 90
       18
102
RTVSPost2010Prop41ColorRGB
 90
        0
102
RTVSPost2010PropOp41
 70
     1
102
RTVSPost2010Prop42
 90
       50
102
RTVSPost2010PropOp42
 70
     1
102
RTVSPost2010Prop43
 90
        3
102
RTVSPost2010PropOp43
 70
     1
102
RTVSPost2010Prop44ColorIndex
 90
        5
102
RTVSPost2010Prop44ColorRGB
 90
      255
102
RTVSPost2010PropOp44
 70
     1
102
RTVSPost2010Prop45
280
     0
102
RTVSPost2010PropOp45
 70
     1
102
RTVSPost2010Prop46
 90
       50
102
RTVSPost2010PropOp46
 70
     1
102
RTVSPost2010Prop47
 90
       50
102
RTVSPost2010PropOp47
 70
     1
102
RTVSPost2010Prop48
 90
       50
102
RTVSPost2010PropOp48
 70
     1
102
RTVSPost2010Prop49
280
     0
102
RTVSPost2010PropOp49
 70
     1
102
RTVSPost2010Prop50
 90
       50
102
RTVSPost2010PropOp50
 70
     1
102
RTVSPost2010Prop51ColorIndex
 90
      256
102
RTVSPost2010Prop51ColorRGB
 90
-16777216
102
RTVSPost2010PropOp51
 70
     0
102
RTVSPost2010Prop52
140
1.0
102
RTVSPost2010PropOp52
 70
     0
102
RTVSPost2010Prop53
 90
        2
102
RTVSPost2010PropOp53
 70
     1
102
RTVSPost2010Prop54
  1
strokes_ogs.tif
102
RTVSPost2010PropOp54
 70
     1
102
RTVSPost2010Prop55
280
     0
102
RTVSPost2010PropOp55
 70
     1
102
RTVSPost2010Prop56
140
1.0
102
RTVSPost2010PropOp56
 70
     1
102
RTVSPost2010Prop57
140
1.0
102
RTVSPost2010PropOp57
 70
     1
102
RTVSPropertyOp0
 70
     1
102
RTVSPropertyOp1
 70
     1
102
RTVSPropertyOp2
 70
     1
102
RTVSPropertyOp3
 70
     1
102
RTVSPropertyOp4
 70
     1
102
RTVSPropertyOp5
 70
     1
102
RTVSPropertyOp6
 70
     1
102
RTVSPropertyOp7
 70
     1
102
RTVSPropertyOp8
 70
     1
102
RTVSPropertyOp9
 70
     1
102
RTVSPropertyOp10
 70
     1
102
RTVSPropertyOp11
 70
     1
102
RTVSPropertyOp12
 70
     1
102
RTVSPropertyOp13
 70
     1
102
RTVSPropertyOp14
 70
     1
102
RTVSPropertyOp15
 70
     1
102
RTVSPropertyOp16
 70
     1
102
RTVSPropertyOp17
 70
     1
102
RTVSPropertyOp18
 70
     1
102
RTVSPropertyOp19
 70
     1
102
RTVSPropertyOp20
 70
     1
102
RTVSPropertyOp21
 70
     1
102
RTVSPropertyOp22
 70
     1
102
RTVSPropertyOp23
 70
     1
102
RTVSPropertyOp24
 70
     1
102
RTVSPropertyOp25
 70
     1
102
RTVSPropertyOp26
 70
     1
102
RTVSPropertyOp27
 70
     1
102
RTVSPropertyOp28
 70
     1
102
RTVSPropertyOp29
 70
     1
102
RTVSPropertyOp30
 70
     1
102
RTVSPropertyOp31
 70
     1
102
RTVSPropertyOp32
 70
     1
102
RTVSPropertyOp33
 70
     1
102
RTVSPropertyOp34
 70
     1
102
RTVSPropertyOp35
 70
     1
102
RTVSPropertyOp36
 70
     1
102
RTVSPropertyOp37
 70
     1
102
RTVSPropertyOp38
 70
     1
102
RTVSPropertyOp39
 70
     1
102
RTVSPropertyOp40
 70
     1
102
RTVSPropertyOp41
 70
     1
102
RTVSPropertyOp42
 70
     1
102
RTVSPropertyOp43
 70
     1
102
RTVSPropertyOp44
 70
     1
102
RTVSPropertyOp45
 70
     1
102
RTVSPropertyOp46
 70
     1
102
RTVSPropertyOp47
 70
     1
102
RTVSPropertyOp48
 70
     1
102
RTVSPropertyOp49
 70
     1
102
RTVSPropertyOp50
 70
     1
102
RTVSPropertyOp51
 70
     0
102
RTVSPropertyOp52
 70
     0
102
RTVSPropertyOp53
 70
     1
102
RTVSPropertyOp54
 70
     1
102
RTVSPropertyOp55
 70
     1
102
RTVSPropertyOp56
 70
     1
102
RTVSPropertyOp57
 70
     1
102
RTVSPropertyOp58
 70
     1
102
RTVSPropertyOp59
 70
     1
102
RTVSPropertyOp60
 70
     1
102
RTVSPropertyOp61
 70
     1
102
RTVSPropertyOp62
 70
     1
  0
XRECORD
  5
9786
102
{ACAD_REACTORS
330
9785
102
}
330
9785
100
AcDbXrecord
280
     1
102
RTVSPost2010Prop28
280
     0
102
RTVSPost2010PropOp28
 70
     1
102
RTVSPost2010Prop29
280
     1
102
RTVSPost2010PropOp29
 70
     1
102
RTVSPost2010Prop30
280
     1
102
RTVSPost2010PropOp30
 70
     1
102
RTVSPost2010Prop31
280
     0
102
RTVSPost2010PropOp31
 70
     1
102
RTVSPost2010Prop32
280
     0
102
RTVSPost2010PropOp32
 70
     1
102
RTVSPost2010Prop33
280
     0
102
RTVSPost2010PropOp33
 70
     1
102
RTVSPost2010Prop34
280
     0
102
RTVSPost2010PropOp34
 70
     1
102
RTVSPost2010Prop35
280
     0
102
RTVSPost2010PropOp35
 70
     1
102
RTVSPost2010Prop36
280
     0
102
RTVSPost2010PropOp36
 70
     1
102
RTVSPost2010Prop37
 90
       50
102
RTVSPost2010PropOp37
 70
     1
102
RTVSPost2010Prop38
140
0.0
102
RTVSPost2010PropOp38
 70
     1
102
RTVSPost2010Prop39
140
1.0
102
RTVSPost2010PropOp39
 70
     1
102
RTVSPost2010Prop40
 90
        0
102
RTVSPost2010PropOp40
 70
     1
102
RTVSPost2010Prop41ColorIndex
 90
       18
102
RTVSPost2010Prop41ColorRGB
 90
        0
102
RTVSPost2010PropOp41
 70
     1
102
RTVSPost2010Prop42
 90
       50
102
RTVSPost2010PropOp42
 70
     1
102
RTVSPost2010Prop43
 90
        3
102
RTVSPost2010PropOp43
 70
     1
102
RTVSPost2010Prop44ColorIndex
 90
        5
102
RTVSPost2010Prop44ColorRGB
 90
      255
102
RTVSPost2010PropOp44
 70
     1
102
RTVSPost2010Prop45
280
     0
102
RTVSPost2010PropOp45
 70
     1
102
RTVSPost2010Prop46
 90
       50
102
RTVSPost2010PropOp46
 70
     1
102
RTVSPost2010Prop47
 90
       50
102
RTVSPost2010PropOp47
 70
     1
102
RTVSPost2010Prop48
 90
       50
102
RTVSPost2010PropOp48
 70
     1
102
RTVSPost2010Prop49
280
     0
102
RTVSPost2010PropOp49
 70
     1
102
RTVSPost2010Prop50
 90
       50
102
RTVSPost2010PropOp50
 70
     1
102
RTVSPost2010Prop51ColorIndex
 90
      256
102
RTVSPost2010Prop51ColorRGB
 90
-16777216
102
RTVSPost2010PropOp51
 70
     0
102
RTVSPost2010Prop52
140
1.0
102
RTVSPost2010PropOp52
 70
     0
102
RTVSPost2010Prop53
 90
        2
102
RTVSPost2010PropOp53
 70
     1
102
RTVSPost2010Prop54
  1
strokes_ogs.tif
102
RTVSPost2010PropOp54
 70
     1
102
RTVSPost2010Prop55
280
     0
102
RTVSPost2010PropOp55
 70
     1
102
RTVSPost2010Prop56
140
1.0
102
RTVSPost2010PropOp56
 70
     1
102
RTVSPost2010Prop57
140
1.0
102
RTVSPost2010PropOp57
 70
     1
102
RTVSPropertyOp0
 70
     1
102
RTVSPropertyOp1
 70
     1
102
RTVSPropertyOp2
 70
     1
102
RTVSPropertyOp3
 70
     1
102
RTVSPropertyOp4
 70
     1
102
RTVSPropertyOp5
 70
     1
102
RTVSPropertyOp6
 70
     1
102
RTVSPropertyOp7
 70
     1
102
RTVSPropertyOp8
 70
     1
102
RTVSPropertyOp9
 70
     1
102
RTVSPropertyOp10
 70
     1
102
RTVSPropertyOp11
 70
     1
102
RTVSPropertyOp12
 70
     1
102
RTVSPropertyOp13
 70
     1
102
RTVSPropertyOp14
 70
     1
102
RTVSPropertyOp15
 70
     1
102
RTVSPropertyOp16
 70
     1
102
RTVSPropertyOp17
 70
     1
102
RTVSPropertyOp18
 70
     1
102
RTVSPropertyOp19
 70
     1
102
RTVSPropertyOp20
 70
     1
102
RTVSPropertyOp21
 70
     1
102
RTVSPropertyOp22
 70
     1
102
RTVSPropertyOp23
 70
     1
102
RTVSPropertyOp24
 70
     1
102
RTVSPropertyOp25
 70
     1
102
RTVSPropertyOp26
 70
     1
102
RTVSPropertyOp27
 70
     1
102
RTVSPropertyOp28
 70
     1
102
RTVSPropertyOp29
 70
     1
102
RTVSPropertyOp30
 70
     1
102
RTVSPropertyOp31
 70
     1
102
RTVSPropertyOp32
 70
     1
102
RTVSPropertyOp33
 70
     1
102
RTVSPropertyOp34
 70
     1
102
RTVSPropertyOp35
 70
     1
102
RTVSPropertyOp36
 70
     1
102
RTVSPropertyOp37
 70
     1
102
RTVSPropertyOp38
 70
     1
102
RTVSPropertyOp39
 70
     1
102
RTVSPropertyOp40
 70
     1
102
RTVSPropertyOp41
 70
     1
102
RTVSPropertyOp42
 70
     1
102
RTVSPropertyOp43
 70
     1
102
RTVSPropertyOp44
 70
     1
102
RTVSPropertyOp45
 70
     1
102
RTVSPropertyOp46
 70
     1
102
RTVSPropertyOp47
 70
     1
102
RTVSPropertyOp48
 70
     1
102
RTVSPropertyOp49
 70
     1
102
RTVSPropertyOp50
 70
     1
102
RTVSPropertyOp51
 70
     0
102
RTVSPropertyOp52
 70
     0
102
RTVSPropertyOp53
 70
     1
102
RTVSPropertyOp54
 70
     1
102
RTVSPropertyOp55
 70
     1
102
RTVSPropertyOp56
 70
     1
102
RTVSPropertyOp57
 70
     1
102
RTVSPropertyOp58
 70
     1
102
RTVSPropertyOp59
 70
     1
102
RTVSPropertyOp60
 70
     1
102
RTVSPropertyOp61
 70
     1
102
RTVSPropertyOp62
 70
     1
  0
XRECORD
  5
978E
102
{ACAD_REACTORS
330
978D
102
}
330
978D
100
AcDbXrecord
280
     1
102
RTVSPost2010Prop28
280
     0
102
RTVSPost2010PropOp28
 70
     1
102
RTVSPost2010Prop29
280
     1
102
RTVSPost2010PropOp29
 70
     1
102
RTVSPost2010Prop30
280
     1
102
RTVSPost2010PropOp30
 70
     1
102
RTVSPost2010Prop31
280
     0
102
RTVSPost2010PropOp31
 70
     1
102
RTVSPost2010Prop32
280
     0
102
RTVSPost2010PropOp32
 70
     1
102
RTVSPost2010Prop33
280
     0
102
RTVSPost2010PropOp33
 70
     1
102
RTVSPost2010Prop34
280
     0
102
RTVSPost2010PropOp34
 70
     1
102
RTVSPost2010Prop35
280
     0
102
RTVSPost2010PropOp35
 70
     1
102
RTVSPost2010Prop36
280
     0
102
RTVSPost2010PropOp36
 70
     1
102
RTVSPost2010Prop37
 90
       50
102
RTVSPost2010PropOp37
 70
     1
102
RTVSPost2010Prop38
140
0.0
102
RTVSPost2010PropOp38
 70
     1
102
RTVSPost2010Prop39
140
1.0
102
RTVSPost2010PropOp39
 70
     1
102
RTVSPost2010Prop40
 90
        0
102
RTVSPost2010PropOp40
 70
     1
102
RTVSPost2010Prop41ColorIndex
 90
       18
102
RTVSPost2010Prop41ColorRGB
 90
        0
102
RTVSPost2010PropOp41
 70
     1
102
RTVSPost2010Prop42
 90
       50
102
RTVSPost2010PropOp42
 70
     1
102
RTVSPost2010Prop43
 90
        3
102
RTVSPost2010PropOp43
 70
     1
102
RTVSPost2010Prop44ColorIndex
 90
        5
102
RTVSPost2010Prop44ColorRGB
 90
      255
102
RTVSPost2010PropOp44
 70
     1
102
RTVSPost2010Prop45
280
     0
102
RTVSPost2010PropOp45
 70
     1
102
RTVSPost2010Prop46
 90
       50
102
RTVSPost2010PropOp46
 70
     1
102
RTVSPost2010Prop47
 90
       50
102
RTVSPost2010PropOp47
 70
     1
102
RTVSPost2010Prop48
 90
       50
102
RTVSPost2010PropOp48
 70
     1
102
RTVSPost2010Prop49
280
     0
102
RTVSPost2010PropOp49
 70
     1
102
RTVSPost2010Prop50
 90
       50
102
RTVSPost2010PropOp50
 70
     1
102
RTVSPost2010Prop51ColorIndex
 90
      256
102
RTVSPost2010Prop51ColorRGB
 90
-16777216
102
RTVSPost2010PropOp51
 70
     0
102
RTVSPost2010Prop52
140
1.0
102
RTVSPost2010PropOp52
 70
     0
102
RTVSPost2010Prop53
 90
        2
102
RTVSPost2010PropOp53
 70
     1
102
RTVSPost2010Prop54
  1
strokes_ogs.tif
102
RTVSPost2010PropOp54
 70
     1
102
RTVSPost2010Prop55
280
     0
102
RTVSPost2010PropOp55
 70
     1
102
RTVSPost2010Prop56
140
1.0
102
RTVSPost2010PropOp56
 70
     1
102
RTVSPost2010Prop57
140
1.0
102
RTVSPost2010PropOp57
 70
     1
102
RTVSPropertyOp0
 70
     1
102
RTVSPropertyOp1
 70
     1
102
RTVSPropertyOp2
 70
     1
102
RTVSPropertyOp3
 70
     1
102
RTVSPropertyOp4
 70
     1
102
RTVSPropertyOp5
 70
     1
102
RTVSPropertyOp6
 70
     1
102
RTVSPropertyOp7
 70
     1
102
RTVSPropertyOp8
 70
     1
102
RTVSPropertyOp9
 70
     1
102
RTVSPropertyOp10
 70
     1
102
RTVSPropertyOp11
 70
     1
102
RTVSPropertyOp12
 70
     1
102
RTVSPropertyOp13
 70
     1
102
RTVSPropertyOp14
 70
     1
102
RTVSPropertyOp15
 70
     1
102
RTVSPropertyOp16
 70
     1
102
RTVSPropertyOp17
 70
     1
102
RTVSPropertyOp18
 70
     1
102
RTVSPropertyOp19
 70
     1
102
RTVSPropertyOp20
 70
     1
102
RTVSPropertyOp21
 70
     1
102
RTVSPropertyOp22
 70
     1
102
RTVSPropertyOp23
 70
     1
102
RTVSPropertyOp24
 70
     1
102
RTVSPropertyOp25
 70
     1
102
RTVSPropertyOp26
 70
     1
102
RTVSPropertyOp27
 70
     1
102
RTVSPropertyOp28
 70
     1
102
RTVSPropertyOp29
 70
     1
102
RTVSPropertyOp30
 70
     1
102
RTVSPropertyOp31
 70
     1
102
RTVSPropertyOp32
 70
     1
102
RTVSPropertyOp33
 70
     1
102
RTVSPropertyOp34
 70
     1
102
RTVSPropertyOp35
 70
     1
102
RTVSPropertyOp36
 70
     1
102
RTVSPropertyOp37
 70
     1
102
RTVSPropertyOp38
 70
     1
102
RTVSPropertyOp39
 70
     1
102
RTVSPropertyOp40
 70
     1
102
RTVSPropertyOp41
 70
     1
102
RTVSPropertyOp42
 70
     1
102
RTVSPropertyOp43
 70
     1
102
RTVSPropertyOp44
 70
     1
102
RTVSPropertyOp45
 70
     1
102
RTVSPropertyOp46
 70
     1
102
RTVSPropertyOp47
 70
     1
102
RTVSPropertyOp48
 70
     1
102
RTVSPropertyOp49
 70
     1
102
RTVSPropertyOp50
 70
     1
102
RTVSPropertyOp51
 70
     0
102
RTVSPropertyOp52
 70
     0
102
RTVSPropertyOp53
 70
     1
102
RTVSPropertyOp54
 70
     1
102
RTVSPropertyOp55
 70
     1
102
RTVSPropertyOp56
 70
     1
102
RTVSPropertyOp57
 70
     1
102
RTVSPropertyOp58
 70
     1
102
RTVSPropertyOp59
 70
     1
102
RTVSPropertyOp60
 70
     1
102
RTVSPropertyOp61
 70
     1
102
RTVSPropertyOp62
 70
     1
  0
XRECORD
  5
9780
102
{ACAD_REACTORS
330
977F
102
}
330
977F
100
AcDbXrecord
280
     1
102
RTVSPost2010Prop28
280
     0
102
RTVSPost2010PropOp28
 70
     1
102
RTVSPost2010Prop29
280
     1
102
RTVSPost2010PropOp29
 70
     1
102
RTVSPost2010Prop30
280
     1
102
RTVSPost2010PropOp30
 70
     1
102
RTVSPost2010Prop31
280
     0
102
RTVSPost2010PropOp31
 70
     1
102
RTVSPost2010Prop32
280
     0
102
RTVSPost2010PropOp32
 70
     1
102
RTVSPost2010Prop33
280
     0
102
RTVSPost2010PropOp33
 70
     1
102
RTVSPost2010Prop34
280
     0
102
RTVSPost2010PropOp34
 70
     1
102
RTVSPost2010Prop35
280
     0
102
RTVSPost2010PropOp35
 70
     1
102
RTVSPost2010Prop36
280
     0
102
RTVSPost2010PropOp36
 70
     1
102
RTVSPost2010Prop37
 90
       50
102
RTVSPost2010PropOp37
 70
     1
102
RTVSPost2010Prop38
140
0.0
102
RTVSPost2010PropOp38
 70
     1
102
RTVSPost2010Prop39
140
1.0
102
RTVSPost2010PropOp39
 70
     1
102
RTVSPost2010Prop40
 90
        0
102
RTVSPost2010PropOp40
 70
     1
102
RTVSPost2010Prop41ColorIndex
 90
       18
102
RTVSPost2010Prop41ColorRGB
 90
        0
102
RTVSPost2010PropOp41
 70
     1
102
RTVSPost2010Prop42
 90
       50
102
RTVSPost2010PropOp42
 70
     1
102
RTVSPost2010Prop43
 90
        3
102
RTVSPost2010PropOp43
 70
     1
102
RTVSPost2010Prop44ColorIndex
 90
        5
102
RTVSPost2010Prop44ColorRGB
 90
      255
102
RTVSPost2010PropOp44
 70
     1
102
RTVSPost2010Prop45
280
     0
102
RTVSPost2010PropOp45
 70
     1
102
RTVSPost2010Prop46
 90
       50
102
RTVSPost2010PropOp46
 70
     1
102
RTVSPost2010Prop47
 90
       50
102
RTVSPost2010PropOp47
 70
     1
102
RTVSPost2010Prop48
 90
       50
102
RTVSPost2010PropOp48
 70
     1
102
RTVSPost2010Prop49
280
     0
102
RTVSPost2010PropOp49
 70
     1
102
RTVSPost2010Prop50
 90
       50
102
RTVSPost2010PropOp50
 70
     1
102
RTVSPost2010Prop51ColorIndex
 90
      256
102
RTVSPost2010Prop51ColorRGB
 90
-16777216
102
RTVSPost2010PropOp51
 70
     0
102
RTVSPost2010Prop52
140
1.0
102
RTVSPost2010PropOp52
 70
     0
102
RTVSPost2010Prop53
 90
        2
102
RTVSPost2010PropOp53
 70
     1
102
RTVSPost2010Prop54
  1
strokes_ogs.tif
102
RTVSPost2010PropOp54
 70
     1
102
RTVSPost2010Prop55
280
     0
102
RTVSPost2010PropOp55
 70
     1
102
RTVSPost2010Prop56
140
1.0
102
RTVSPost2010PropOp56
 70
     1
102
RTVSPost2010Prop57
140
1.0
102
RTVSPost2010PropOp57
 70
     1
102
RTVSPropertyOp0
 70
     1
102
RTVSPropertyOp1
 70
     1
102
RTVSPropertyOp2
 70
     1
102
RTVSPropertyOp3
 70
     1
102
RTVSPropertyOp4
 70
     1
102
RTVSPropertyOp5
 70
     1
102
RTVSPropertyOp6
 70
     1
102
RTVSPropertyOp7
 70
     1
102
RTVSPropertyOp8
 70
     1
102
RTVSPropertyOp9
 70
     1
102
RTVSPropertyOp10
 70
     1
102
RTVSPropertyOp11
 70
     1
102
RTVSPropertyOp12
 70
     1
102
RTVSPropertyOp13
 70
     1
102
RTVSPropertyOp14
 70
     1
102
RTVSPropertyOp15
 70
     1
102
RTVSPropertyOp16
 70
     1
102
RTVSPropertyOp17
 70
     1
102
RTVSPropertyOp18
 70
     1
102
RTVSPropertyOp19
 70
     1
102
RTVSPropertyOp20
 70
     1
102
RTVSPropertyOp21
 70
     1
102
RTVSPropertyOp22
 70
     1
102
RTVSPropertyOp23
 70
     1
102
RTVSPropertyOp24
 70
     1
102
RTVSPropertyOp25
 70
     1
102
RTVSPropertyOp26
 70
     1
102
RTVSPropertyOp27
 70
     1
102
RTVSPropertyOp28
 70
     1
102
RTVSPropertyOp29
 70
     1
102
RTVSPropertyOp30
 70
     1
102
RTVSPropertyOp31
 70
     1
102
RTVSPropertyOp32
 70
     1
102
RTVSPropertyOp33
 70
     1
102
RTVSPropertyOp34
 70
     1
102
RTVSPropertyOp35
 70
     1
102
RTVSPropertyOp36
 70
     1
102
RTVSPropertyOp37
 70
     1
102
RTVSPropertyOp38
 70
     1
102
RTVSPropertyOp39
 70
     1
102
RTVSPropertyOp40
 70
     1
102
RTVSPropertyOp41
 70
     1
102
RTVSPropertyOp42
 70
     1
102
RTVSPropertyOp43
 70
     1
102
RTVSPropertyOp44
 70
     1
102
RTVSPropertyOp45
 70
     1
102
RTVSPropertyOp46
 70
     1
102
RTVSPropertyOp47
 70
     1
102
RTVSPropertyOp48
 70
     1
102
RTVSPropertyOp49
 70
     1
102
RTVSPropertyOp50
 70
     1
102
RTVSPropertyOp51
 70
     0
102
RTVSPropertyOp52
 70
     0
102
RTVSPropertyOp53
 70
     1
102
RTVSPropertyOp54
 70
     1
102
RTVSPropertyOp55
 70
     1
102
RTVSPropertyOp56
 70
     1
102
RTVSPropertyOp57
 70
     1
102
RTVSPropertyOp58
 70
     1
102
RTVSPropertyOp59
 70
     1
102
RTVSPropertyOp60
 70
     1
102
RTVSPropertyOp61
 70
     1
102
RTVSPropertyOp62
 70
     1
  0
XRECORD
  5
9784
102
{ACAD_REACTORS
330
9783
102
}
330
9783
100
AcDbXrecord
280
     1
102
RTVSPost2010Prop28
280
     0
102
RTVSPost2010PropOp28
 70
     1
102
RTVSPost2010Prop29
280
     1
102
RTVSPost2010PropOp29
 70
     1
102
RTVSPost2010Prop30
280
     1
102
RTVSPost2010PropOp30
 70
     1
102
RTVSPost2010Prop31
280
     0
102
RTVSPost2010PropOp31
 70
     1
102
RTVSPost2010Prop32
280
     0
102
RTVSPost2010PropOp32
 70
     1
102
RTVSPost2010Prop33
280
     0
102
RTVSPost2010PropOp33
 70
     1
102
RTVSPost2010Prop34
280
     0
102
RTVSPost2010PropOp34
 70
     1
102
RTVSPost2010Prop35
280
     0
102
RTVSPost2010PropOp35
 70
     1
102
RTVSPost2010Prop36
280
     0
102
RTVSPost2010PropOp36
 70
     1
102
RTVSPost2010Prop37
 90
       50
102
RTVSPost2010PropOp37
 70
     1
102
RTVSPost2010Prop38
140
0.0
102
RTVSPost2010PropOp38
 70
     1
102
RTVSPost2010Prop39
140
1.0
102
RTVSPost2010PropOp39
 70
     1
102
RTVSPost2010Prop40
 90
        0
102
RTVSPost2010PropOp40
 70
     1
102
RTVSPost2010Prop41ColorIndex
 90
       18
102
RTVSPost2010Prop41ColorRGB
 90
        0
102
RTVSPost2010PropOp41
 70
     1
102
RTVSPost2010Prop42
 90
       50
102
RTVSPost2010PropOp42
 70
     1
102
RTVSPost2010Prop43
 90
        3
102
RTVSPost2010PropOp43
 70
     1
102
RTVSPost2010Prop44ColorIndex
 90
        5
102
RTVSPost2010Prop44ColorRGB
 90
      255
102
RTVSPost2010PropOp44
 70
     1
102
RTVSPost2010Prop45
280
     0
102
RTVSPost2010PropOp45
 70
     1
102
RTVSPost2010Prop46
 90
       50
102
RTVSPost2010PropOp46
 70
     1
102
RTVSPost2010Prop47
 90
       50
102
RTVSPost2010PropOp47
 70
     1
102
RTVSPost2010Prop48
 90
       50
102
RTVSPost2010PropOp48
 70
     1
102
RTVSPost2010Prop49
280
     0
102
RTVSPost2010PropOp49
 70
     1
102
RTVSPost2010Prop50
 90
       50
102
RTVSPost2010PropOp50
 70
     1
102
RTVSPost2010Prop51ColorIndex
 90
      256
102
RTVSPost2010Prop51ColorRGB
 90
-16777216
102
RTVSPost2010PropOp51
 70
     0
102
RTVSPost2010Prop52
140
1.0
102
RTVSPost2010PropOp52
 70
     0
102
RTVSPost2010Prop53
 90
        2
102
RTVSPost2010PropOp53
 70
     1
102
RTVSPost2010Prop54
  1
strokes_ogs.tif
102
RTVSPost2010PropOp54
 70
     1
102
RTVSPost2010Prop55
280
     0
102
RTVSPost2010PropOp55
 70
     1
102
RTVSPost2010Prop56
140
1.0
102
RTVSPost2010PropOp56
 70
     1
102
RTVSPost2010Prop57
140
1.0
102
RTVSPost2010PropOp57
 70
     1
102
RTVSPropertyOp0
 70
     1
102
RTVSPropertyOp1
 70
     1
102
RTVSPropertyOp2
 70
     1
102
RTVSPropertyOp3
 70
     1
102
RTVSPropertyOp4
 70
     1
102
RTVSPropertyOp5
 70
     1
102
RTVSPropertyOp6
 70
     1
102
RTVSPropertyOp7
 70
     1
102
RTVSPropertyOp8
 70
     1
102
RTVSPropertyOp9
 70
     1
102
RTVSPropertyOp10
 70
     1
102
RTVSPropertyOp11
 70
     1
102
RTVSPropertyOp12
 70
     1
102
RTVSPropertyOp13
 70
     1
102
RTVSPropertyOp14
 70
     1
102
RTVSPropertyOp15
 70
     1
102
RTVSPropertyOp16
 70
     1
102
RTVSPropertyOp17
 70
     1
102
RTVSPropertyOp18
 70
     1
102
RTVSPropertyOp19
 70
     1
102
RTVSPropertyOp20
 70
     1
102
RTVSPropertyOp21
 70
     1
102
RTVSPropertyOp22
 70
     1
102
RTVSPropertyOp23
 70
     1
102
RTVSPropertyOp24
 70
     1
102
RTVSPropertyOp25
 70
     1
102
RTVSPropertyOp26
 70
     1
102
RTVSPropertyOp27
 70
     1
102
RTVSPropertyOp28
 70
     1
102
RTVSPropertyOp29
 70
     1
102
RTVSPropertyOp30
 70
     1
102
RTVSPropertyOp31
 70
     1
102
RTVSPropertyOp32
 70
     1
102
RTVSPropertyOp33
 70
     1
102
RTVSPropertyOp34
 70
     1
102
RTVSPropertyOp35
 70
     1
102
RTVSPropertyOp36
 70
     1
102
RTVSPropertyOp37
 70
     1
102
RTVSPropertyOp38
 70
     1
102
RTVSPropertyOp39
 70
     1
102
RTVSPropertyOp40
 70
     1
102
RTVSPropertyOp41
 70
     1
102
RTVSPropertyOp42
 70
     1
102
RTVSPropertyOp43
 70
     1
102
RTVSPropertyOp44
 70
     1
102
RTVSPropertyOp45
 70
     1
102
RTVSPropertyOp46
 70
     1
102
RTVSPropertyOp47
 70
     1
102
RTVSPropertyOp48
 70
     1
102
RTVSPropertyOp49
 70
     1
102
RTVSPropertyOp50
 70
     1
102
RTVSPropertyOp51
 70
     0
102
RTVSPropertyOp52
 70
     0
102
RTVSPropertyOp53
 70
     1
102
RTVSPropertyOp54
 70
     1
102
RTVSPropertyOp55
 70
     1
102
RTVSPropertyOp56
 70
     1
102
RTVSPropertyOp57
 70
     1
102
RTVSPropertyOp58
 70
     1
102
RTVSPropertyOp59
 70
     1
102
RTVSPropertyOp60
 70
     1
102
RTVSPropertyOp61
 70
     1
102
RTVSPropertyOp62
 70
     1
  0
XRECORD
  5
979E
102
{ACAD_REACTORS
330
979D
102
}
330
979D
100
AcDbXrecord
280
     1
102
RTVSPost2010Prop28
280
     0
102
RTVSPost2010PropOp28
 70
     1
102
RTVSPost2010Prop29
280
     1
102
RTVSPost2010PropOp29
 70
     1
102
RTVSPost2010Prop30
280
     1
102
RTVSPost2010PropOp30
 70
     1
102
RTVSPost2010Prop31
280
     0
102
RTVSPost2010PropOp31
 70
     1
102
RTVSPost2010Prop32
280
     0
102
RTVSPost2010PropOp32
 70
     1
102
RTVSPost2010Prop33
280
     0
102
RTVSPost2010PropOp33
 70
     1
102
RTVSPost2010Prop34
280
     0
102
RTVSPost2010PropOp34
 70
     1
102
RTVSPost2010Prop35
280
     0
102
RTVSPost2010PropOp35
 70
     1
102
RTVSPost2010Prop36
280
     0
102
RTVSPost2010PropOp36
 70
     1
102
RTVSPost2010Prop37
 90
       50
102
RTVSPost2010PropOp37
 70
     0
102
RTVSPost2010Prop38
140
0.0
102
RTVSPost2010PropOp38
 70
     0
102
RTVSPost2010Prop39
140
1.0
102
RTVSPost2010PropOp39
 70
     0
102
RTVSPost2010Prop40
 90
        0
102
RTVSPost2010PropOp40
 70
     0
102
RTVSPost2010Prop41ColorIndex
 90
       18
102
RTVSPost2010Prop41ColorRGB
 90
        0
102
RTVSPost2010PropOp41
 70
     0
102
RTVSPost2010Prop42
 90
       50
102
RTVSPost2010PropOp42
 70
     0
102
RTVSPost2010Prop43
 90
        3
102
RTVSPost2010PropOp43
 70
     0
102
RTVSPost2010Prop44ColorIndex
 90
        5
102
RTVSPost2010Prop44ColorRGB
 90
      255
102
RTVSPost2010PropOp44
 70
     0
102
RTVSPost2010Prop45
280
     0
102
RTVSPost2010PropOp45
 70
     1
102
RTVSPost2010Prop46
 90
       50
102
RTVSPost2010PropOp46
 70
     0
102
RTVSPost2010Prop47
 90
       50
102
RTVSPost2010PropOp47
 70
     0
102
RTVSPost2010Prop48
 90
       50
102
RTVSPost2010PropOp48
 70
     0
102
RTVSPost2010Prop49
280
     0
102
RTVSPost2010PropOp49
 70
     1
102
RTVSPost2010Prop50
 90
       50
102
RTVSPost2010PropOp50
 70
     0
102
RTVSPost2010Prop51ColorIndex
 90
      256
102
RTVSPost2010Prop51ColorRGB
 90
-16777216
102
RTVSPost2010PropOp51
 70
     0
102
RTVSPost2010Prop52
140
1.0
102
RTVSPost2010PropOp52
 70
     0
102
RTVSPost2010Prop53
 90
        2
102
RTVSPost2010PropOp53
 70
     0
102
RTVSPost2010Prop54
  1
strokes_ogs.tif
102
RTVSPost2010PropOp54
 70
     0
102
RTVSPost2010Prop55
280
     0
102
RTVSPost2010PropOp55
 70
     1
102
RTVSPost2010Prop56
140
1.0
102
RTVSPost2010PropOp56
 70
     0
102
RTVSPost2010Prop57
140
1.0
102
RTVSPost2010PropOp57
 70
     0
102
RTVSPropertyOp0
 70
     0
102
RTVSPropertyOp1
 70
     0
102
RTVSPropertyOp2
 70
     0
102
RTVSPropertyOp3
 70
     0
102
RTVSPropertyOp4
 70
     0
102
RTVSPropertyOp5
 70
     0
102
RTVSPropertyOp6
 70
     0
102
RTVSPropertyOp7
 70
     0
102
RTVSPropertyOp8
 70
     0
102
RTVSPropertyOp9
 70
     0
102
RTVSPropertyOp10
 70
     0
102
RTVSPropertyOp11
 70
     0
102
RTVSPropertyOp12
 70
     0
102
RTVSPropertyOp13
 70
     0
102
RTVSPropertyOp14
 70
     2
102
RTVSPropertyOp15
 70
     0
102
RTVSPropertyOp16
 70
     0
102
RTVSPropertyOp17
 70
     0
102
RTVSPropertyOp18
 70
     0
102
RTVSPropertyOp19
 70
     0
102
RTVSPropertyOp20
 70
     0
102
RTVSPropertyOp21
 70
     0
102
RTVSPropertyOp22
 70
     0
102
RTVSPropertyOp23
 70
     0
102
RTVSPropertyOp24
 70
     0
102
RTVSPropertyOp25
 70
     0
102
RTVSPropertyOp26
 70
     0
102
RTVSPropertyOp27
 70
     0
102
RTVSPropertyOp28
 70
     1
102
RTVSPropertyOp29
 70
     1
102
RTVSPropertyOp30
 70
     1
102
RTVSPropertyOp31
 70
     1
102
RTVSPropertyOp32
 70
     1
102
RTVSPropertyOp33
 70
     1
102
RTVSPropertyOp34
 70
     1
102
RTVSPropertyOp35
 70
     1
102
RTVSPropertyOp36
 70
     1
102
RTVSPropertyOp37
 70
     0
102
RTVSPropertyOp38
 70
     0
102
RTVSPropertyOp39
 70
     0
102
RTVSPropertyOp40
 70
     0
102
RTVSPropertyOp41
 70
     0
102
RTVSPropertyOp42
 70
     0
102
RTVSPropertyOp43
 70
     0
102
RTVSPropertyOp44
 70
     0
102
RTVSPropertyOp45
 70
     1
102
RTVSPropertyOp46
 70
     0
102
RTVSPropertyOp47
 70
     0
102
RTVSPropertyOp48
 70
     0
102
RTVSPropertyOp49
 70
     1
102
RTVSPropertyOp50
 70
     0
102
RTVSPropertyOp51
 70
     0
102
RTVSPropertyOp52
 70
     0
102
RTVSPropertyOp53
 70
     0
102
RTVSPropertyOp54
 70
     0
102
RTVSPropertyOp55
 70
     1
102
RTVSPropertyOp56
 70
     0
102
RTVSPropertyOp57
 70
     0
102
RTVSPropertyOp58
 70
     0
102
RTVSPropertyOp59
 70
     0
102
RTVSPropertyOp60
 70
     0
102
RTVSPropertyOp61
 70
     0
102
RTVSPropertyOp62
 70
     0
  0
XRECORD
  5
978C
102
{ACAD_REACTORS
330
978B
102
}
330
978B
100
AcDbXrecord
280
     1
102
RTVSPost2010Prop28
280
     0
102
RTVSPost2010PropOp28
 70
     1
102
RTVSPost2010Prop29
280
     1
102
RTVSPost2010PropOp29
 70
     1
102
RTVSPost2010Prop30
280
     1
102
RTVSPost2010PropOp30
 70
     1
102
RTVSPost2010Prop31
280
     0
102
RTVSPost2010PropOp31
 70
     1
102
RTVSPost2010Prop32
280
     0
102
RTVSPost2010PropOp32
 70
     1
102
RTVSPost2010Prop33
280
     0
102
RTVSPost2010PropOp33
 70
     1
102
RTVSPost2010Prop34
280
     0
102
RTVSPost2010PropOp34
 70
     1
102
RTVSPost2010Prop35
280
     0
102
RTVSPost2010PropOp35
 70
     1
102
RTVSPost2010Prop36
280
     0
102
RTVSPost2010PropOp36
 70
     1
102
RTVSPost2010Prop37
 90
       50
102
RTVSPost2010PropOp37
 70
     1
102
RTVSPost2010Prop38
140
0.0
102
RTVSPost2010PropOp38
 70
     1
102
RTVSPost2010Prop39
140
1.0
102
RTVSPost2010PropOp39
 70
     1
102
RTVSPost2010Prop40
 90
        0
102
RTVSPost2010PropOp40
 70
     1
102
RTVSPost2010Prop41ColorIndex
 90
       18
102
RTVSPost2010Prop41ColorRGB
 90
        0
102
RTVSPost2010PropOp41
 70
     1
102
RTVSPost2010Prop42
 90
       50
102
RTVSPost2010PropOp42
 70
     1
102
RTVSPost2010Prop43
 90
        3
102
RTVSPost2010PropOp43
 70
     1
102
RTVSPost2010Prop44ColorIndex
 90
        5
102
RTVSPost2010Prop44ColorRGB
 90
      255
102
RTVSPost2010PropOp44
 70
     1
102
RTVSPost2010Prop45
280
     0
102
RTVSPost2010PropOp45
 70
     1
102
RTVSPost2010Prop46
 90
       50
102
RTVSPost2010PropOp46
 70
     1
102
RTVSPost2010Prop47
 90
       50
102
RTVSPost2010PropOp47
 70
     1
102
RTVSPost2010Prop48
 90
       50
102
RTVSPost2010PropOp48
 70
     1
102
RTVSPost2010Prop49
280
     0
102
RTVSPost2010PropOp49
 70
     1
102
RTVSPost2010Prop50
 90
       50
102
RTVSPost2010PropOp50
 70
     1
102
RTVSPost2010Prop51ColorIndex
 90
      256
102
RTVSPost2010Prop51ColorRGB
 90
-16777216
102
RTVSPost2010PropOp51
 70
     0
102
RTVSPost2010Prop52
140
1.0
102
RTVSPost2010PropOp52
 70
     0
102
RTVSPost2010Prop53
 90
        2
102
RTVSPost2010PropOp53
 70
     1
102
RTVSPost2010Prop54
  1
strokes_ogs.tif
102
RTVSPost2010PropOp54
 70
     1
102
RTVSPost2010Prop55
280
     0
102
RTVSPost2010PropOp55
 70
     1
102
RTVSPost2010Prop56
140
1.0
102
RTVSPost2010PropOp56
 70
     1
102
RTVSPost2010Prop57
140
1.0
102
RTVSPost2010PropOp57
 70
     1
102
RTVSPropertyOp0
 70
     1
102
RTVSPropertyOp1
 70
     1
102
RTVSPropertyOp2
 70
     1
102
RTVSPropertyOp3
 70
     1
102
RTVSPropertyOp4
 70
     1
102
RTVSPropertyOp5
 70
     1
102
RTVSPropertyOp6
 70
     1
102
RTVSPropertyOp7
 70
     1
102
RTVSPropertyOp8
 70
     1
102
RTVSPropertyOp9
 70
     1
102
RTVSPropertyOp10
 70
     1
102
RTVSPropertyOp11
 70
     1
102
RTVSPropertyOp12
 70
     1
102
RTVSPropertyOp13
 70
     1
102
RTVSPropertyOp14
 70
     1
102
RTVSPropertyOp15
 70
     1
102
RTVSPropertyOp16
 70
     1
102
RTVSPropertyOp17
 70
     1
102
RTVSPropertyOp18
 70
     1
102
RTVSPropertyOp19
 70
     1
102
RTVSPropertyOp20
 70
     1
102
RTVSPropertyOp21
 70
     1
102
RTVSPropertyOp22
 70
     1
102
RTVSPropertyOp23
 70
     1
102
RTVSPropertyOp24
 70
     1
102
RTVSPropertyOp25
 70
     1
102
RTVSPropertyOp26
 70
     1
102
RTVSPropertyOp27
 70
     1
102
RTVSPropertyOp28
 70
     1
102
RTVSPropertyOp29
 70
     1
102
RTVSPropertyOp30
 70
     1
102
RTVSPropertyOp31
 70
     1
102
RTVSPropertyOp32
 70
     1
102
RTVSPropertyOp33
 70
     1
102
RTVSPropertyOp34
 70
     1
102
RTVSPropertyOp35
 70
     1
102
RTVSPropertyOp36
 70
     1
102
RTVSPropertyOp37
 70
     1
102
RTVSPropertyOp38
 70
     1
102
RTVSPropertyOp39
 70
     1
102
RTVSPropertyOp40
 70
     1
102
RTVSPropertyOp41
 70
     1
102
RTVSPropertyOp42
 70
     1
102
RTVSPropertyOp43
 70
     1
102
RTVSPropertyOp44
 70
     1
102
RTVSPropertyOp45
 70
     1
102
RTVSPropertyOp46
 70
     1
102
RTVSPropertyOp47
 70
     1
102
RTVSPropertyOp48
 70
     1
102
RTVSPropertyOp49
 70
     1
102
RTVSPropertyOp50
 70
     1
102
RTVSPropertyOp51
 70
     0
102
RTVSPropertyOp52
 70
     0
102
RTVSPropertyOp53
 70
     1
102
RTVSPropertyOp54
 70
     1
102
RTVSPropertyOp55
 70
     1
102
RTVSPropertyOp56
 70
     1
102
RTVSPropertyOp57
 70
     1
102
RTVSPropertyOp58
 70
     1
102
RTVSPropertyOp59
 70
     1
102
RTVSPropertyOp60
 70
     1
102
RTVSPropertyOp61
 70
     1
102
RTVSPropertyOp62
 70
     1
  0
XRECORD
  5
9770
102
{ACAD_REACTORS
330
976F
102
}
330
976F
100
AcDbXrecord
280
     1
102
RTVSPost2010Prop28
280
     0
102
RTVSPost2010PropOp28
 70
     1
102
RTVSPost2010Prop29
280
     1
102
RTVSPost2010PropOp29
 70
     1
102
RTVSPost2010Prop30
280
     1
102
RTVSPost2010PropOp30
 70
     1
102
RTVSPost2010Prop31
280
     0
102
RTVSPost2010PropOp31
 70
     1
102
RTVSPost2010Prop32
280
     0
102
RTVSPost2010PropOp32
 70
     1
102
RTVSPost2010Prop33
280
     0
102
RTVSPost2010PropOp33
 70
     1
102
RTVSPost2010Prop34
280
     0
102
RTVSPost2010PropOp34
 70
     1
102
RTVSPost2010Prop35
280
     0
102
RTVSPost2010PropOp35
 70
     1
102
RTVSPost2010Prop36
280
     0
102
RTVSPost2010PropOp36
 70
     1
102
RTVSPost2010Prop37
 90
       50
102
RTVSPost2010PropOp37
 70
     1
102
RTVSPost2010Prop38
140
0.0
102
RTVSPost2010PropOp38
 70
     1
102
RTVSPost2010Prop39
140
1.0
102
RTVSPost2010PropOp39
 70
     1
102
RTVSPost2010Prop40
 90
        0
102
RTVSPost2010PropOp40
 70
     1
102
RTVSPost2010Prop41ColorIndex
 90
       18
102
RTVSPost2010Prop41ColorRGB
 90
        0
102
RTVSPost2010PropOp41
 70
     1
102
RTVSPost2010Prop42
 90
       50
102
RTVSPost2010PropOp42
 70
     1
102
RTVSPost2010Prop43
 90
        3
102
RTVSPost2010PropOp43
 70
     1
102
RTVSPost2010Prop44ColorIndex
 90
        5
102
RTVSPost2010Prop44ColorRGB
 90
      255
102
RTVSPost2010PropOp44
 70
     1
102
RTVSPost2010Prop45
280
     0
102
RTVSPost2010PropOp45
 70
     1
102
RTVSPost2010Prop46
 90
       50
102
RTVSPost2010PropOp46
 70
     1
102
RTVSPost2010Prop47
 90
       50
102
RTVSPost2010PropOp47
 70
     1
102
RTVSPost2010Prop48
 90
       50
102
RTVSPost2010PropOp48
 70
     1
102
RTVSPost2010Prop49
280
     0
102
RTVSPost2010PropOp49
 70
     1
102
RTVSPost2010Prop50
 90
       50
102
RTVSPost2010PropOp50
 70
     1
102
RTVSPost2010Prop51ColorIndex
 90
      256
102
RTVSPost2010Prop51ColorRGB
 90
-16777216
102
RTVSPost2010PropOp51
 70
     0
102
RTVSPost2010Prop52
140
1.0
102
RTVSPost2010PropOp52
 70
     0
102
RTVSPost2010Prop53
 90
        2
102
RTVSPost2010PropOp53
 70
     1
102
RTVSPost2010Prop54
  1
strokes_ogs.tif
102
RTVSPost2010PropOp54
 70
     1
102
RTVSPost2010Prop55
280
     0
102
RTVSPost2010PropOp55
 70
     1
102
RTVSPost2010Prop56
140
1.0
102
RTVSPost2010PropOp56
 70
     1
102
RTVSPost2010Prop57
140
1.0
102
RTVSPost2010PropOp57
 70
     1
102
RTVSPropertyOp0
 70
     1
102
RTVSPropertyOp1
 70
     1
102
RTVSPropertyOp2
 70
     1
102
RTVSPropertyOp3
 70
     1
102
RTVSPropertyOp4
 70
     1
102
RTVSPropertyOp5
 70
     1
102
RTVSPropertyOp6
 70
     1
102
RTVSPropertyOp7
 70
     1
102
RTVSPropertyOp8
 70
     1
102
RTVSPropertyOp9
 70
     1
102
RTVSPropertyOp10
 70
     1
102
RTVSPropertyOp11
 70
     1
102
RTVSPropertyOp12
 70
     1
102
RTVSPropertyOp13
 70
     1
102
RTVSPropertyOp14
 70
     1
102
RTVSPropertyOp15
 70
     1
102
RTVSPropertyOp16
 70
     1
102
RTVSPropertyOp17
 70
     1
102
RTVSPropertyOp18
 70
     1
102
RTVSPropertyOp19
 70
     1
102
RTVSPropertyOp20
 70
     1
102
RTVSPropertyOp21
 70
     1
102
RTVSPropertyOp22
 70
     1
102
RTVSPropertyOp23
 70
     1
102
RTVSPropertyOp24
 70
     1
102
RTVSPropertyOp25
 70
     1
102
RTVSPropertyOp26
 70
     1
102
RTVSPropertyOp27
 70
     1
102
RTVSPropertyOp28
 70
     1
102
RTVSPropertyOp29
 70
     1
102
RTVSPropertyOp30
 70
     1
102
RTVSPropertyOp31
 70
     1
102
RTVSPropertyOp32
 70
     1
102
RTVSPropertyOp33
 70
     1
102
RTVSPropertyOp34
 70
     1
102
RTVSPropertyOp35
 70
     1
102
RTVSPropertyOp36
 70
     1
102
RTVSPropertyOp37
 70
     1
102
RTVSPropertyOp38
 70
     1
102
RTVSPropertyOp39
 70
     1
102
RTVSPropertyOp40
 70
     1
102
RTVSPropertyOp41
 70
     1
102
RTVSPropertyOp42
 70
     1
102
RTVSPropertyOp43
 70
     1
102
RTVSPropertyOp44
 70
     1
102
RTVSPropertyOp45
 70
     1
102
RTVSPropertyOp46
 70
     1
102
RTVSPropertyOp47
 70
     1
102
RTVSPropertyOp48
 70
     1
102
RTVSPropertyOp49
 70
     1
102
RTVSPropertyOp50
 70
     1
102
RTVSPropertyOp51
 70
     0
102
RTVSPropertyOp52
 70
     0
102
RTVSPropertyOp53
 70
     1
102
RTVSPropertyOp54
 70
     1
102
RTVSPropertyOp55
 70
     1
102
RTVSPropertyOp56
 70
     1
102
RTVSPropertyOp57
 70
     1
102
RTVSPropertyOp58
 70
     1
102
RTVSPropertyOp59
 70
     1
102
RTVSPropertyOp60
 70
     1
102
RTVSPropertyOp61
 70
     1
102
RTVSPropertyOp62
 70
     1
  0
XRECORD
  5
9772
102
{ACAD_REACTORS
330
9771
102
}
330
9771
100
AcDbXrecord
280
     1
102
RTVSPost2010Prop28
280
     0
102
RTVSPost2010PropOp28
 70
     1
102
RTVSPost2010Prop29
280
     1
102
RTVSPost2010PropOp29
 70
     1
102
RTVSPost2010Prop30
280
     1
102
RTVSPost2010PropOp30
 70
     1
102
RTVSPost2010Prop31
280
     0
102
RTVSPost2010PropOp31
 70
     1
102
RTVSPost2010Prop32
280
     0
102
RTVSPost2010PropOp32
 70
     1
102
RTVSPost2010Prop33
280
     0
102
RTVSPost2010PropOp33
 70
     1
102
RTVSPost2010Prop34
280
     0
102
RTVSPost2010PropOp34
 70
     1
102
RTVSPost2010Prop35
280
     0
102
RTVSPost2010PropOp35
 70
     1
102
RTVSPost2010Prop36
280
     0
102
RTVSPost2010PropOp36
 70
     1
102
RTVSPost2010Prop37
 90
       50
102
RTVSPost2010PropOp37
 70
     1
102
RTVSPost2010Prop38
140
0.0
102
RTVSPost2010PropOp38
 70
     1
102
RTVSPost2010Prop39
140
1.0
102
RTVSPost2010PropOp39
 70
     1
102
RTVSPost2010Prop40
 90
        0
102
RTVSPost2010PropOp40
 70
     1
102
RTVSPost2010Prop41ColorIndex
 90
       18
102
RTVSPost2010Prop41ColorRGB
 90
        0
102
RTVSPost2010PropOp41
 70
     1
102
RTVSPost2010Prop42
 90
       50
102
RTVSPost2010PropOp42
 70
     1
102
RTVSPost2010Prop43
 90
        3
102
RTVSPost2010PropOp43
 70
     1
102
RTVSPost2010Prop44ColorIndex
 90
        5
102
RTVSPost2010Prop44ColorRGB
 90
      255
102
RTVSPost2010PropOp44
 70
     1
102
RTVSPost2010Prop45
280
     0
102
RTVSPost2010PropOp45
 70
     1
102
RTVSPost2010Prop46
 90
       50
102
RTVSPost2010PropOp46
 70
     1
102
RTVSPost2010Prop47
 90
       50
102
RTVSPost2010PropOp47
 70
     1
102
RTVSPost2010Prop48
 90
       50
102
RTVSPost2010PropOp48
 70
     1
102
RTVSPost2010Prop49
280
     0
102
RTVSPost2010PropOp49
 70
     1
102
RTVSPost2010Prop50
 90
       50
102
RTVSPost2010PropOp50
 70
     1
102
RTVSPost2010Prop51ColorIndex
 90
      256
102
RTVSPost2010Prop51ColorRGB
 90
-16777216
102
RTVSPost2010PropOp51
 70
     0
102
RTVSPost2010Prop52
140
1.0
102
RTVSPost2010PropOp52
 70
     0
102
RTVSPost2010Prop53
 90
        2
102
RTVSPost2010PropOp53
 70
     1
102
RTVSPost2010Prop54
  1
strokes_ogs.tif
102
RTVSPost2010PropOp54
 70
     1
102
RTVSPost2010Prop55
280
     0
102
RTVSPost2010PropOp55
 70
     1
102
RTVSPost2010Prop56
140
1.0
102
RTVSPost2010PropOp56
 70
     1
102
RTVSPost2010Prop57
140
1.0
102
RTVSPost2010PropOp57
 70
     1
102
RTVSPropertyOp0
 70
     1
102
RTVSPropertyOp1
 70
     1
102
RTVSPropertyOp2
 70
     1
102
RTVSPropertyOp3
 70
     1
102
RTVSPropertyOp4
 70
     1
102
RTVSPropertyOp5
 70
     1
102
RTVSPropertyOp6
 70
     1
102
RTVSPropertyOp7
 70
     1
102
RTVSPropertyOp8
 70
     1
102
RTVSPropertyOp9
 70
     1
102
RTVSPropertyOp10
 70
     1
102
RTVSPropertyOp11
 70
     1
102
RTVSPropertyOp12
 70
     1
102
RTVSPropertyOp13
 70
     1
102
RTVSPropertyOp14
 70
     1
102
RTVSPropertyOp15
 70
     1
102
RTVSPropertyOp16
 70
     1
102
RTVSPropertyOp17
 70
     1
102
RTVSPropertyOp18
 70
     1
102
RTVSPropertyOp19
 70
     1
102
RTVSPropertyOp20
 70
     1
102
RTVSPropertyOp21
 70
     1
102
RTVSPropertyOp22
 70
     1
102
RTVSPropertyOp23
 70
     1
102
RTVSPropertyOp24
 70
     1
102
RTVSPropertyOp25
 70
     1
102
RTVSPropertyOp26
 70
     1
102
RTVSPropertyOp27
 70
     1
102
RTVSPropertyOp28
 70
     1
102
RTVSPropertyOp29
 70
     1
102
RTVSPropertyOp30
 70
     1
102
RTVSPropertyOp31
 70
     1
102
RTVSPropertyOp32
 70
     1
102
RTVSPropertyOp33
 70
     1
102
RTVSPropertyOp34
 70
     1
102
RTVSPropertyOp35
 70
     1
102
RTVSPropertyOp36
 70
     1
102
RTVSPropertyOp37
 70
     1
102
RTVSPropertyOp38
 70
     1
102
RTVSPropertyOp39
 70
     1
102
RTVSPropertyOp40
 70
     1
102
RTVSPropertyOp41
 70
     1
102
RTVSPropertyOp42
 70
     1
102
RTVSPropertyOp43
 70
     1
102
RTVSPropertyOp44
 70
     1
102
RTVSPropertyOp45
 70
     1
102
RTVSPropertyOp46
 70
     1
102
RTVSPropertyOp47
 70
     1
102
RTVSPropertyOp48
 70
     1
102
RTVSPropertyOp49
 70
     1
102
RTVSPropertyOp50
 70
     1
102
RTVSPropertyOp51
 70
     0
102
RTVSPropertyOp52
 70
     0
102
RTVSPropertyOp53
 70
     1
102
RTVSPropertyOp54
 70
     1
102
RTVSPropertyOp55
 70
     1
102
RTVSPropertyOp56
 70
     1
102
RTVSPropertyOp57
 70
     1
102
RTVSPropertyOp58
 70
     1
102
RTVSPropertyOp59
 70
     1
102
RTVSPropertyOp60
 70
     1
102
RTVSPropertyOp61
 70
     1
102
RTVSPropertyOp62
 70
     1
  0
XRECORD
  5
9774
102
{ACAD_REACTORS
330
9773
102
}
330
9773
100
AcDbXrecord
280
     1
102
RTVSPost2010Prop28
280
     0
102
RTVSPost2010PropOp28
 70
     1
102
RTVSPost2010Prop29
280
     1
102
RTVSPost2010PropOp29
 70
     1
102
RTVSPost2010Prop30
280
     1
102
RTVSPost2010PropOp30
 70
     1
102
RTVSPost2010Prop31
280
     0
102
RTVSPost2010PropOp31
 70
     1
102
RTVSPost2010Prop32
280
     0
102
RTVSPost2010PropOp32
 70
     1
102
RTVSPost2010Prop33
280
     0
102
RTVSPost2010PropOp33
 70
     1
102
RTVSPost2010Prop34
280
     0
102
RTVSPost2010PropOp34
 70
     1
102
RTVSPost2010Prop35
280
     0
102
RTVSPost2010PropOp35
 70
     1
102
RTVSPost2010Prop36
280
     0
102
RTVSPost2010PropOp36
 70
     1
102
RTVSPost2010Prop37
 90
       50
102
RTVSPost2010PropOp37
 70
     1
102
RTVSPost2010Prop38
140
0.0
102
RTVSPost2010PropOp38
 70
     1
102
RTVSPost2010Prop39
140
1.0
102
RTVSPost2010PropOp39
 70
     1
102
RTVSPost2010Prop40
 90
        0
102
RTVSPost2010PropOp40
 70
     1
102
RTVSPost2010Prop41ColorIndex
 90
       18
102
RTVSPost2010Prop41ColorRGB
 90
        0
102
RTVSPost2010PropOp41
 70
     1
102
RTVSPost2010Prop42
 90
       50
102
RTVSPost2010PropOp42
 70
     1
102
RTVSPost2010Prop43
 90
        3
102
RTVSPost2010PropOp43
 70
     1
102
RTVSPost2010Prop44ColorIndex
 90
        5
102
RTVSPost2010Prop44ColorRGB
 90
      255
102
RTVSPost2010PropOp44
 70
     1
102
RTVSPost2010Prop45
280
     0
102
RTVSPost2010PropOp45
 70
     1
102
RTVSPost2010Prop46
 90
       50
102
RTVSPost2010PropOp46
 70
     1
102
RTVSPost2010Prop47
 90
       50
102
RTVSPost2010PropOp47
 70
     1
102
RTVSPost2010Prop48
 90
       50
102
RTVSPost2010PropOp48
 70
     1
102
RTVSPost2010Prop49
280
     0
102
RTVSPost2010PropOp49
 70
     1
102
RTVSPost2010Prop50
 90
       50
102
RTVSPost2010PropOp50
 70
     1
102
RTVSPost2010Prop51ColorIndex
 90
      256
102
RTVSPost2010Prop51ColorRGB
 90
-16777216
102
RTVSPost2010PropOp51
 70
     0
102
RTVSPost2010Prop52
140
1.0
102
RTVSPost2010PropOp52
 70
     0
102
RTVSPost2010Prop53
 90
        2
102
RTVSPost2010PropOp53
 70
     1
102
RTVSPost2010Prop54
  1
strokes_ogs.tif
102
RTVSPost2010PropOp54
 70
     1
102
RTVSPost2010Prop55
280
     0
102
RTVSPost2010PropOp55
 70
     1
102
RTVSPost2010Prop56
140
1.0
102
RTVSPost2010PropOp56
 70
     1
102
RTVSPost2010Prop57
140
1.0
102
RTVSPost2010PropOp57
 70
     1
102
RTVSPropertyOp0
 70
     1
102
RTVSPropertyOp1
 70
     1
102
RTVSPropertyOp2
 70
     1
102
RTVSPropertyOp3
 70
     1
102
RTVSPropertyOp4
 70
     1
102
RTVSPropertyOp5
 70
     1
102
RTVSPropertyOp6
 70
     1
102
RTVSPropertyOp7
 70
     1
102
RTVSPropertyOp8
 70
     1
102
RTVSPropertyOp9
 70
     1
102
RTVSPropertyOp10
 70
     1
102
RTVSPropertyOp11
 70
     1
102
RTVSPropertyOp12
 70
     1
102
RTVSPropertyOp13
 70
     1
102
RTVSPropertyOp14
 70
     1
102
RTVSPropertyOp15
 70
     1
102
RTVSPropertyOp16
 70
     1
102
RTVSPropertyOp17
 70
     1
102
RTVSPropertyOp18
 70
     1
102
RTVSPropertyOp19
 70
     1
102
RTVSPropertyOp20
 70
     1
102
RTVSPropertyOp21
 70
     1
102
RTVSPropertyOp22
 70
     1
102
RTVSPropertyOp23
 70
     1
102
RTVSPropertyOp24
 70
     1
102
RTVSPropertyOp25
 70
     1
102
RTVSPropertyOp26
 70
     1
102
RTVSPropertyOp27
 70
     1
102
RTVSPropertyOp28
 70
     1
102
RTVSPropertyOp29
 70
     1
102
RTVSPropertyOp30
 70
     1
102
RTVSPropertyOp31
 70
     1
102
RTVSPropertyOp32
 70
     1
102
RTVSPropertyOp33
 70
     1
102
RTVSPropertyOp34
 70
     1
102
RTVSPropertyOp35
 70
     1
102
RTVSPropertyOp36
 70
     1
102
RTVSPropertyOp37
 70
     1
102
RTVSPropertyOp38
 70
     1
102
RTVSPropertyOp39
 70
     1
102
RTVSPropertyOp40
 70
     1
102
RTVSPropertyOp41
 70
     1
102
RTVSPropertyOp42
 70
     1
102
RTVSPropertyOp43
 70
     1
102
RTVSPropertyOp44
 70
     1
102
RTVSPropertyOp45
 70
     1
102
RTVSPropertyOp46
 70
     1
102
RTVSPropertyOp47
 70
     1
102
RTVSPropertyOp48
 70
     1
102
RTVSPropertyOp49
 70
     1
102
RTVSPropertyOp50
 70
     1
102
RTVSPropertyOp51
 70
     0
102
RTVSPropertyOp52
 70
     0
102
RTVSPropertyOp53
 70
     1
102
RTVSPropertyOp54
 70
     1
102
RTVSPropertyOp55
 70
     1
102
RTVSPropertyOp56
 70
     1
102
RTVSPropertyOp57
 70
     1
102
RTVSPropertyOp58
 70
     1
102
RTVSPropertyOp59
 70
     1
102
RTVSPropertyOp60
 70
     1
102
RTVSPropertyOp61
 70
     1
102
RTVSPropertyOp62
 70
     1
  0
XRECORD
  5
9776
102
{ACAD_REACTORS
330
9775
102
}
330
9775
100
AcDbXrecord
280
     1
102
RTVSPost2010Prop28
280
     0
102
RTVSPost2010PropOp28
 70
     1
102
RTVSPost2010Prop29
280
     1
102
RTVSPost2010PropOp29
 70
     1
102
RTVSPost2010Prop30
280
     1
102
RTVSPost2010PropOp30
 70
     1
102
RTVSPost2010Prop31
280
     0
102
RTVSPost2010PropOp31
 70
     1
102
RTVSPost2010Prop32
280
     0
102
RTVSPost2010PropOp32
 70
     1
102
RTVSPost2010Prop33
280
     0
102
RTVSPost2010PropOp33
 70
     1
102
RTVSPost2010Prop34
280
     0
102
RTVSPost2010PropOp34
 70
     1
102
RTVSPost2010Prop35
280
     0
102
RTVSPost2010PropOp35
 70
     1
102
RTVSPost2010Prop36
280
     0
102
RTVSPost2010PropOp36
 70
     1
102
RTVSPost2010Prop37
 90
       50
102
RTVSPost2010PropOp37
 70
     1
102
RTVSPost2010Prop38
140
0.0
102
RTVSPost2010PropOp38
 70
     1
102
RTVSPost2010Prop39
140
1.0
102
RTVSPost2010PropOp39
 70
     1
102
RTVSPost2010Prop40
 90
        0
102
RTVSPost2010PropOp40
 70
     1
102
RTVSPost2010Prop41ColorIndex
 90
       18
102
RTVSPost2010Prop41ColorRGB
 90
        0
102
RTVSPost2010PropOp41
 70
     1
102
RTVSPost2010Prop42
 90
       50
102
RTVSPost2010PropOp42
 70
     1
102
RTVSPost2010Prop43
 90
        3
102
RTVSPost2010PropOp43
 70
     1
102
RTVSPost2010Prop44ColorIndex
 90
        5
102
RTVSPost2010Prop44ColorRGB
 90
      255
102
RTVSPost2010PropOp44
 70
     1
102
RTVSPost2010Prop45
280
     0
102
RTVSPost2010PropOp45
 70
     1
102
RTVSPost2010Prop46
 90
       50
102
RTVSPost2010PropOp46
 70
     1
102
RTVSPost2010Prop47
 90
       50
102
RTVSPost2010PropOp47
 70
     1
102
RTVSPost2010Prop48
 90
       50
102
RTVSPost2010PropOp48
 70
     1
102
RTVSPost2010Prop49
280
     0
102
RTVSPost2010PropOp49
 70
     1
102
RTVSPost2010Prop50
 90
       50
102
RTVSPost2010PropOp50
 70
     1
102
RTVSPost2010Prop51ColorIndex
 90
      256
102
RTVSPost2010Prop51ColorRGB
 90
-16777216
102
RTVSPost2010PropOp51
 70
     0
102
RTVSPost2010Prop52
140
1.0
102
RTVSPost2010PropOp52
 70
     0
102
RTVSPost2010Prop53
 90
        2
102
RTVSPost2010PropOp53
 70
     1
102
RTVSPost2010Prop54
  1
strokes_ogs.tif
102
RTVSPost2010PropOp54
 70
     1
102
RTVSPost2010Prop55
280
     0
102
RTVSPost2010PropOp55
 70
     1
102
RTVSPost2010Prop56
140
1.0
102
RTVSPost2010PropOp56
 70
     1
102
RTVSPost2010Prop57
140
1.0
102
RTVSPost2010PropOp57
 70
     1
102
RTVSPropertyOp0
 70
     1
102
RTVSPropertyOp1
 70
     1
102
RTVSPropertyOp2
 70
     1
102
RTVSPropertyOp3
 70
     1
102
RTVSPropertyOp4
 70
     1
102
RTVSPropertyOp5
 70
     1
102
RTVSPropertyOp6
 70
     1
102
RTVSPropertyOp7
 70
     1
102
RTVSPropertyOp8
 70
     1
102
RTVSPropertyOp9
 70
     1
102
RTVSPropertyOp10
 70
     1
102
RTVSPropertyOp11
 70
     1
102
RTVSPropertyOp12
 70
     1
102
RTVSPropertyOp13
 70
     1
102
RTVSPropertyOp14
 70
     1
102
RTVSPropertyOp15
 70
     1
102
RTVSPropertyOp16
 70
     1
102
RTVSPropertyOp17
 70
     1
102
RTVSPropertyOp18
 70
     1
102
RTVSPropertyOp19
 70
     1
102
RTVSPropertyOp20
 70
     1
102
RTVSPropertyOp21
 70
     1
102
RTVSPropertyOp22
 70
     1
102
RTVSPropertyOp23
 70
     1
102
RTVSPropertyOp24
 70
     1
102
RTVSPropertyOp25
 70
     1
102
RTVSPropertyOp26
 70
     1
102
RTVSPropertyOp27
 70
     1
102
RTVSPropertyOp28
 70
     1
102
RTVSPropertyOp29
 70
     1
102
RTVSPropertyOp30
 70
     1
102
RTVSPropertyOp31
 70
     1
102
RTVSPropertyOp32
 70
     1
102
RTVSPropertyOp33
 70
     1
102
RTVSPropertyOp34
 70
     1
102
RTVSPropertyOp35
 70
     1
102
RTVSPropertyOp36
 70
     1
102
RTVSPropertyOp37
 70
     1
102
RTVSPropertyOp38
 70
     1
102
RTVSPropertyOp39
 70
     1
102
RTVSPropertyOp40
 70
     1
102
RTVSPropertyOp41
 70
     1
102
RTVSPropertyOp42
 70
     1
102
RTVSPropertyOp43
 70
     1
102
RTVSPropertyOp44
 70
     1
102
RTVSPropertyOp45
 70
     1
102
RTVSPropertyOp46
 70
     1
102
RTVSPropertyOp47
 70
     1
102
RTVSPropertyOp48
 70
     1
102
RTVSPropertyOp49
 70
     1
102
RTVSPropertyOp50
 70
     1
102
RTVSPropertyOp51
 70
     0
102
RTVSPropertyOp52
 70
     0
102
RTVSPropertyOp53
 70
     1
102
RTVSPropertyOp54
 70
     1
102
RTVSPropertyOp55
 70
     1
102
RTVSPropertyOp56
 70
     1
102
RTVSPropertyOp57
 70
     1
102
RTVSPropertyOp58
 70
     1
102
RTVSPropertyOp59
 70
     1
102
RTVSPropertyOp60
 70
     1
102
RTVSPropertyOp61
 70
     1
102
RTVSPropertyOp62
 70
     1
  0
XRECORD
  5
977E
102
{ACAD_REACTORS
330
977D
102
}
330
977D
100
AcDbXrecord
280
     1
102
RTVSPost2010Prop28
280
     0
102
RTVSPost2010PropOp28
 70
     1
102
RTVSPost2010Prop29
280
     1
102
RTVSPost2010PropOp29
 70
     1
102
RTVSPost2010Prop30
280
     1
102
RTVSPost2010PropOp30
 70
     1
102
RTVSPost2010Prop31
280
     0
102
RTVSPost2010PropOp31
 70
     1
102
RTVSPost2010Prop32
280
     0
102
RTVSPost2010PropOp32
 70
     1
102
RTVSPost2010Prop33
280
     0
102
RTVSPost2010PropOp33
 70
     1
102
RTVSPost2010Prop34
280
     0
102
RTVSPost2010PropOp34
 70
     1
102
RTVSPost2010Prop35
280
     0
102
RTVSPost2010PropOp35
 70
     1
102
RTVSPost2010Prop36
280
     0
102
RTVSPost2010PropOp36
 70
     1
102
RTVSPost2010Prop37
 90
       50
102
RTVSPost2010PropOp37
 70
     1
102
RTVSPost2010Prop38
140
0.0
102
RTVSPost2010PropOp38
 70
     1
102
RTVSPost2010Prop39
140
1.0
102
RTVSPost2010PropOp39
 70
     1
102
RTVSPost2010Prop40
 90
        0
102
RTVSPost2010PropOp40
 70
     1
102
RTVSPost2010Prop41ColorIndex
 90
       18
102
RTVSPost2010Prop41ColorRGB
 90
        0
102
RTVSPost2010PropOp41
 70
     1
102
RTVSPost2010Prop42
 90
       50
102
RTVSPost2010PropOp42
 70
     1
102
RTVSPost2010Prop43
 90
        3
102
RTVSPost2010PropOp43
 70
     1
102
RTVSPost2010Prop44ColorIndex
 90
        5
102
RTVSPost2010Prop44ColorRGB
 90
      255
102
RTVSPost2010PropOp44
 70
     1
102
RTVSPost2010Prop45
280
     0
102
RTVSPost2010PropOp45
 70
     1
102
RTVSPost2010Prop46
 90
       50
102
RTVSPost2010PropOp46
 70
     1
102
RTVSPost2010Prop47
 90
       50
102
RTVSPost2010PropOp47
 70
     1
102
RTVSPost2010Prop48
 90
       50
102
RTVSPost2010PropOp48
 70
     1
102
RTVSPost2010Prop49
280
     0
102
RTVSPost2010PropOp49
 70
     1
102
RTVSPost2010Prop50
 90
       50
102
RTVSPost2010PropOp50
 70
     1
102
RTVSPost2010Prop51ColorIndex
 90
      256
102
RTVSPost2010Prop51ColorRGB
 90
-16777216
102
RTVSPost2010PropOp51
 70
     0
102
RTVSPost2010Prop52
140
1.0
102
RTVSPost2010PropOp52
 70
     0
102
RTVSPost2010Prop53
 90
        2
102
RTVSPost2010PropOp53
 70
     1
102
RTVSPost2010Prop54
  1
strokes_ogs.tif
102
RTVSPost2010PropOp54
 70
     1
102
RTVSPost2010Prop55
280
     0
102
RTVSPost2010PropOp55
 70
     1
102
RTVSPost2010Prop56
140
1.0
102
RTVSPost2010PropOp56
 70
     1
102
RTVSPost2010Prop57
140
1.0
102
RTVSPost2010PropOp57
 70
     1
102
RTVSPropertyOp0
 70
     1
102
RTVSPropertyOp1
 70
     1
102
RTVSPropertyOp2
 70
     1
102
RTVSPropertyOp3
 70
     1
102
RTVSPropertyOp4
 70
     1
102
RTVSPropertyOp5
 70
     1
102
RTVSPropertyOp6
 70
     1
102
RTVSPropertyOp7
 70
     1
102
RTVSPropertyOp8
 70
     1
102
RTVSPropertyOp9
 70
     1
102
RTVSPropertyOp10
 70
     1
102
RTVSPropertyOp11
 70
     1
102
RTVSPropertyOp12
 70
     1
102
RTVSPropertyOp13
 70
     1
102
RTVSPropertyOp14
 70
     1
102
RTVSPropertyOp15
 70
     1
102
RTVSPropertyOp16
 70
     1
102
RTVSPropertyOp17
 70
     1
102
RTVSPropertyOp18
 70
     1
102
RTVSPropertyOp19
 70
     1
102
RTVSPropertyOp20
 70
     1
102
RTVSPropertyOp21
 70
     1
102
RTVSPropertyOp22
 70
     1
102
RTVSPropertyOp23
 70
     1
102
RTVSPropertyOp24
 70
     1
102
RTVSPropertyOp25
 70
     1
102
RTVSPropertyOp26
 70
     1
102
RTVSPropertyOp27
 70
     1
102
RTVSPropertyOp28
 70
     1
102
RTVSPropertyOp29
 70
     1
102
RTVSPropertyOp30
 70
     1
102
RTVSPropertyOp31
 70
     1
102
RTVSPropertyOp32
 70
     1
102
RTVSPropertyOp33
 70
     1
102
RTVSPropertyOp34
 70
     1
102
RTVSPropertyOp35
 70
     1
102
RTVSPropertyOp36
 70
     1
102
RTVSPropertyOp37
 70
     1
102
RTVSPropertyOp38
 70
     1
102
RTVSPropertyOp39
 70
     1
102
RTVSPropertyOp40
 70
     1
102
RTVSPropertyOp41
 70
     1
102
RTVSPropertyOp42
 70
     1
102
RTVSPropertyOp43
 70
     1
102
RTVSPropertyOp44
 70
     1
102
RTVSPropertyOp45
 70
     1
102
RTVSPropertyOp46
 70
     1
102
RTVSPropertyOp47
 70
     1
102
RTVSPropertyOp48
 70
     1
102
RTVSPropertyOp49
 70
     1
102
RTVSPropertyOp50
 70
     1
102
RTVSPropertyOp51
 70
     0
102
RTVSPropertyOp52
 70
     0
102
RTVSPropertyOp53
 70
     1
102
RTVSPropertyOp54
 70
     1
102
RTVSPropertyOp55
 70
     1
102
RTVSPropertyOp56
 70
     1
102
RTVSPropertyOp57
 70
     1
102
RTVSPropertyOp58
 70
     1
102
RTVSPropertyOp59
 70
     1
102
RTVSPropertyOp60
 70
     1
102
RTVSPropertyOp61
 70
     1
102
RTVSPropertyOp62
 70
     1
  0
XRECORD
  5
979A
102
{ACAD_REACTORS
330
9799
102
}
330
9799
100
AcDbXrecord
280
     1
102
RTVSPost2010Prop28
280
     0
102
RTVSPost2010PropOp28
 70
     1
102
RTVSPost2010Prop29
280
     1
102
RTVSPost2010PropOp29
 70
     1
102
RTVSPost2010Prop30
280
     1
102
RTVSPost2010PropOp30
 70
     1
102
RTVSPost2010Prop31
280
     0
102
RTVSPost2010PropOp31
 70
     1
102
RTVSPost2010Prop32
280
     0
102
RTVSPost2010PropOp32
 70
     1
102
RTVSPost2010Prop33
280
     0
102
RTVSPost2010PropOp33
 70
     1
102
RTVSPost2010Prop34
280
     0
102
RTVSPost2010PropOp34
 70
     1
102
RTVSPost2010Prop35
280
     0
102
RTVSPost2010PropOp35
 70
     1
102
RTVSPost2010Prop36
280
     0
102
RTVSPost2010PropOp36
 70
     1
102
RTVSPost2010Prop37
 90
       50
102
RTVSPost2010PropOp37
 70
     0
102
RTVSPost2010Prop38
140
0.0
102
RTVSPost2010PropOp38
 70
     0
102
RTVSPost2010Prop39
140
1.0
102
RTVSPost2010PropOp39
 70
     0
102
RTVSPost2010Prop40
 90
        0
102
RTVSPost2010PropOp40
 70
     0
102
RTVSPost2010Prop41ColorIndex
 90
       18
102
RTVSPost2010Prop41ColorRGB
 90
        0
102
RTVSPost2010PropOp41
 70
     0
102
RTVSPost2010Prop42
 90
       50
102
RTVSPost2010PropOp42
 70
     0
102
RTVSPost2010Prop43
 90
        3
102
RTVSPost2010PropOp43
 70
     0
102
RTVSPost2010Prop44ColorIndex
 90
        5
102
RTVSPost2010Prop44ColorRGB
 90
      255
102
RTVSPost2010PropOp44
 70
     0
102
RTVSPost2010Prop45
280
     0
102
RTVSPost2010PropOp45
 70
     1
102
RTVSPost2010Prop46
 90
       50
102
RTVSPost2010PropOp46
 70
     0
102
RTVSPost2010Prop47
 90
       50
102
RTVSPost2010PropOp47
 70
     0
102
RTVSPost2010Prop48
 90
       50
102
RTVSPost2010PropOp48
 70
     0
102
RTVSPost2010Prop49
280
     0
102
RTVSPost2010PropOp49
 70
     1
102
RTVSPost2010Prop50
 90
       50
102
RTVSPost2010PropOp50
 70
     0
102
RTVSPost2010Prop51ColorIndex
 90
      256
102
RTVSPost2010Prop51ColorRGB
 90
-16777216
102
RTVSPost2010PropOp51
 70
     0
102
RTVSPost2010Prop52
140
1.0
102
RTVSPost2010PropOp52
 70
     0
102
RTVSPost2010Prop53
 90
        2
102
RTVSPost2010PropOp53
 70
     0
102
RTVSPost2010Prop54
  1
strokes_ogs.tif
102
RTVSPost2010PropOp54
 70
     0
102
RTVSPost2010Prop55
280
     0
102
RTVSPost2010PropOp55
 70
     1
102
RTVSPost2010Prop56
140
1.0
102
RTVSPost2010PropOp56
 70
     0
102
RTVSPost2010Prop57
140
1.0
102
RTVSPost2010PropOp57
 70
     0
102
RTVSPropertyOp0
 70
     0
102
RTVSPropertyOp1
 70
     0
102
RTVSPropertyOp2
 70
     0
102
RTVSPropertyOp3
 70
     0
102
RTVSPropertyOp4
 70
     0
102
RTVSPropertyOp5
 70
     0
102
RTVSPropertyOp6
 70
     0
102
RTVSPropertyOp7
 70
     0
102
RTVSPropertyOp8
 70
     0
102
RTVSPropertyOp9
 70
     0
102
RTVSPropertyOp10
 70
     0
102
RTVSPropertyOp11
 70
     0
102
RTVSPropertyOp12
 70
     0
102
RTVSPropertyOp13
 70
     0
102
RTVSPropertyOp14
 70
     2
102
RTVSPropertyOp15
 70
     0
102
RTVSPropertyOp16
 70
     0
102
RTVSPropertyOp17
 70
     0
102
RTVSPropertyOp18
 70
     0
102
RTVSPropertyOp19
 70
     0
102
RTVSPropertyOp20
 70
     0
102
RTVSPropertyOp21
 70
     0
102
RTVSPropertyOp22
 70
     0
102
RTVSPropertyOp23
 70
     0
102
RTVSPropertyOp24
 70
     0
102
RTVSPropertyOp25
 70
     0
102
RTVSPropertyOp26
 70
     0
102
RTVSPropertyOp27
 70
     0
102
RTVSPropertyOp28
 70
     1
102
RTVSPropertyOp29
 70
     1
102
RTVSPropertyOp30
 70
     1
102
RTVSPropertyOp31
 70
     1
102
RTVSPropertyOp32
 70
     1
102
RTVSPropertyOp33
 70
     1
102
RTVSPropertyOp34
 70
     1
102
RTVSPropertyOp35
 70
     1
102
RTVSPropertyOp36
 70
     1
102
RTVSPropertyOp37
 70
     0
102
RTVSPropertyOp38
 70
     0
102
RTVSPropertyOp39
 70
     0
102
RTVSPropertyOp40
 70
     0
102
RTVSPropertyOp41
 70
     0
102
RTVSPropertyOp42
 70
     0
102
RTVSPropertyOp43
 70
     0
102
RTVSPropertyOp44
 70
     0
102
RTVSPropertyOp45
 70
     1
102
RTVSPropertyOp46
 70
     0
102
RTVSPropertyOp47
 70
     0
102
RTVSPropertyOp48
 70
     0
102
RTVSPropertyOp49
 70
     1
102
RTVSPropertyOp50
 70
     0
102
RTVSPropertyOp51
 70
     0
102
RTVSPropertyOp52
 70
     0
102
RTVSPropertyOp53
 70
     0
102
RTVSPropertyOp54
 70
     0
102
RTVSPropertyOp55
 70
     1
102
RTVSPropertyOp56
 70
     0
102
RTVSPropertyOp57
 70
     0
102
RTVSPropertyOp58
 70
     0
102
RTVSPropertyOp59
 70
     0
102
RTVSPropertyOp60
 70
     0
102
RTVSPropertyOp61
 70
     0
102
RTVSPropertyOp62
 70
     0
  0
XRECORD
  5
978A
102
{ACAD_REACTORS
330
9789
102
}
330
9789
100
AcDbXrecord
280
     1
102
RTVSPost2010Prop28
280
     0
102
RTVSPost2010PropOp28
 70
     1
102
RTVSPost2010Prop29
280
     1
102
RTVSPost2010PropOp29
 70
     1
102
RTVSPost2010Prop30
280
     1
102
RTVSPost2010PropOp30
 70
     1
102
RTVSPost2010Prop31
280
     0
102
RTVSPost2010PropOp31
 70
     1
102
RTVSPost2010Prop32
280
     0
102
RTVSPost2010PropOp32
 70
     1
102
RTVSPost2010Prop33
280
     0
102
RTVSPost2010PropOp33
 70
     1
102
RTVSPost2010Prop34
280
     0
102
RTVSPost2010PropOp34
 70
     1
102
RTVSPost2010Prop35
280
     0
102
RTVSPost2010PropOp35
 70
     1
102
RTVSPost2010Prop36
280
     0
102
RTVSPost2010PropOp36
 70
     1
102
RTVSPost2010Prop37
 90
       50
102
RTVSPost2010PropOp37
 70
     1
102
RTVSPost2010Prop38
140
0.0
102
RTVSPost2010PropOp38
 70
     1
102
RTVSPost2010Prop39
140
1.0
102
RTVSPost2010PropOp39
 70
     1
102
RTVSPost2010Prop40
 90
        0
102
RTVSPost2010PropOp40
 70
     1
102
RTVSPost2010Prop41ColorIndex
 90
       18
102
RTVSPost2010Prop41ColorRGB
 90
        0
102
RTVSPost2010PropOp41
 70
     1
102
RTVSPost2010Prop42
 90
       50
102
RTVSPost2010PropOp42
 70
     1
102
RTVSPost2010Prop43
 90
        3
102
RTVSPost2010PropOp43
 70
     1
102
RTVSPost2010Prop44ColorIndex
 90
        5
102
RTVSPost2010Prop44ColorRGB
 90
      255
102
RTVSPost2010PropOp44
 70
     1
102
RTVSPost2010Prop45
280
     0
102
RTVSPost2010PropOp45
 70
     1
102
RTVSPost2010Prop46
 90
       50
102
RTVSPost2010PropOp46
 70
     1
102
RTVSPost2010Prop47
 90
       50
102
RTVSPost2010PropOp47
 70
     1
102
RTVSPost2010Prop48
 90
       50
102
RTVSPost2010PropOp48
 70
     1
102
RTVSPost2010Prop49
280
     0
102
RTVSPost2010PropOp49
 70
     1
102
RTVSPost2010Prop50
 90
       50
102
RTVSPost2010PropOp50
 70
     1
102
RTVSPost2010Prop51ColorIndex
 90
      256
102
RTVSPost2010Prop51ColorRGB
 90
-16777216
102
RTVSPost2010PropOp51
 70
     0
102
RTVSPost2010Prop52
140
1.0
102
RTVSPost2010PropOp52
 70
     0
102
RTVSPost2010Prop53
 90
        2
102
RTVSPost2010PropOp53
 70
     1
102
RTVSPost2010Prop54
  1
strokes_ogs.tif
102
RTVSPost2010PropOp54
 70
     1
102
RTVSPost2010Prop55
280
     0
102
RTVSPost2010PropOp55
 70
     1
102
RTVSPost2010Prop56
140
1.0
102
RTVSPost2010PropOp56
 70
     1
102
RTVSPost2010Prop57
140
1.0
102
RTVSPost2010PropOp57
 70
     1
102
RTVSPropertyOp0
 70
     1
102
RTVSPropertyOp1
 70
     1
102
RTVSPropertyOp2
 70
     1
102
RTVSPropertyOp3
 70
     1
102
RTVSPropertyOp4
 70
     1
102
RTVSPropertyOp5
 70
     1
102
RTVSPropertyOp6
 70
     1
102
RTVSPropertyOp7
 70
     1
102
RTVSPropertyOp8
 70
     1
102
RTVSPropertyOp9
 70
     1
102
RTVSPropertyOp10
 70
     1
102
RTVSPropertyOp11
 70
     1
102
RTVSPropertyOp12
 70
     1
102
RTVSPropertyOp13
 70
     1
102
RTVSPropertyOp14
 70
     1
102
RTVSPropertyOp15
 70
     1
102
RTVSPropertyOp16
 70
     1
102
RTVSPropertyOp17
 70
     1
102
RTVSPropertyOp18
 70
     1
102
RTVSPropertyOp19
 70
     1
102
RTVSPropertyOp20
 70
     1
102
RTVSPropertyOp21
 70
     1
102
RTVSPropertyOp22
 70
     1
102
RTVSPropertyOp23
 70
     1
102
RTVSPropertyOp24
 70
     1
102
RTVSPropertyOp25
 70
     1
102
RTVSPropertyOp26
 70
     1
102
RTVSPropertyOp27
 70
     1
102
RTVSPropertyOp28
 70
     1
102
RTVSPropertyOp29
 70
     1
102
RTVSPropertyOp30
 70
     1
102
RTVSPropertyOp31
 70
     1
102
RTVSPropertyOp32
 70
     1
102
RTVSPropertyOp33
 70
     1
102
RTVSPropertyOp34
 70
     1
102
RTVSPropertyOp35
 70
     1
102
RTVSPropertyOp36
 70
     1
102
RTVSPropertyOp37
 70
     1
102
RTVSPropertyOp38
 70
     1
102
RTVSPropertyOp39
 70
     1
102
RTVSPropertyOp40
 70
     1
102
RTVSPropertyOp41
 70
     1
102
RTVSPropertyOp42
 70
     1
102
RTVSPropertyOp43
 70
     1
102
RTVSPropertyOp44
 70
     1
102
RTVSPropertyOp45
 70
     1
102
RTVSPropertyOp46
 70
     1
102
RTVSPropertyOp47
 70
     1
102
RTVSPropertyOp48
 70
     1
102
RTVSPropertyOp49
 70
     1
102
RTVSPropertyOp50
 70
     1
102
RTVSPropertyOp51
 70
     0
102
RTVSPropertyOp52
 70
     0
102
RTVSPropertyOp53
 70
     1
102
RTVSPropertyOp54
 70
     1
102
RTVSPropertyOp55
 70
     1
102
RTVSPropertyOp56
 70
     1
102
RTVSPropertyOp57
 70
     1
102
RTVSPropertyOp58
 70
     1
102
RTVSPropertyOp59
 70
     1
102
RTVSPropertyOp60
 70
     1
102
RTVSPropertyOp61
 70
     1
102
RTVSPropertyOp62
 70
     1
  0
XRECORD
  5
979C
102
{ACAD_REACTORS
330
979B
102
}
330
979B
100
AcDbXrecord
280
     1
102
RTVSPost2010Prop28
280
     0
102
RTVSPost2010PropOp28
 70
     1
102
RTVSPost2010Prop29
280
     1
102
RTVSPost2010PropOp29
 70
     1
102
RTVSPost2010Prop30
280
     1
102
RTVSPost2010PropOp30
 70
     1
102
RTVSPost2010Prop31
280
     0
102
RTVSPost2010PropOp31
 70
     1
102
RTVSPost2010Prop32
280
     0
102
RTVSPost2010PropOp32
 70
     1
102
RTVSPost2010Prop33
280
     0
102
RTVSPost2010PropOp33
 70
     1
102
RTVSPost2010Prop34
280
     0
102
RTVSPost2010PropOp34
 70
     1
102
RTVSPost2010Prop35
280
     0
102
RTVSPost2010PropOp35
 70
     1
102
RTVSPost2010Prop36
280
     0
102
RTVSPost2010PropOp36
 70
     1
102
RTVSPost2010Prop37
 90
       50
102
RTVSPost2010PropOp37
 70
     0
102
RTVSPost2010Prop38
140
0.0
102
RTVSPost2010PropOp38
 70
     0
102
RTVSPost2010Prop39
140
1.0
102
RTVSPost2010PropOp39
 70
     0
102
RTVSPost2010Prop40
 90
        0
102
RTVSPost2010PropOp40
 70
     0
102
RTVSPost2010Prop41ColorIndex
 90
       18
102
RTVSPost2010Prop41ColorRGB
 90
        0
102
RTVSPost2010PropOp41
 70
     0
102
RTVSPost2010Prop42
 90
       50
102
RTVSPost2010PropOp42
 70
     0
102
RTVSPost2010Prop43
 90
        3
102
RTVSPost2010PropOp43
 70
     0
102
RTVSPost2010Prop44ColorIndex
 90
        5
102
RTVSPost2010Prop44ColorRGB
 90
      255
102
RTVSPost2010PropOp44
 70
     0
102
RTVSPost2010Prop45
280
     0
102
RTVSPost2010PropOp45
 70
     1
102
RTVSPost2010Prop46
 90
       50
102
RTVSPost2010PropOp46
 70
     0
102
RTVSPost2010Prop47
 90
       50
102
RTVSPost2010PropOp47
 70
     0
102
RTVSPost2010Prop48
 90
       50
102
RTVSPost2010PropOp48
 70
     0
102
RTVSPost2010Prop49
280
     0
102
RTVSPost2010PropOp49
 70
     1
102
RTVSPost2010Prop50
 90
       50
102
RTVSPost2010PropOp50
 70
     0
102
RTVSPost2010Prop51ColorIndex
 90
      256
102
RTVSPost2010Prop51ColorRGB
 90
-16777216
102
RTVSPost2010PropOp51
 70
     0
102
RTVSPost2010Prop52
140
1.0
102
RTVSPost2010PropOp52
 70
     0
102
RTVSPost2010Prop53
 90
        2
102
RTVSPost2010PropOp53
 70
     0
102
RTVSPost2010Prop54
  1
strokes_ogs.tif
102
RTVSPost2010PropOp54
 70
     0
102
RTVSPost2010Prop55
280
     0
102
RTVSPost2010PropOp55
 70
     1
102
RTVSPost2010Prop56
140
1.0
102
RTVSPost2010PropOp56
 70
     0
102
RTVSPost2010Prop57
140
1.0
102
RTVSPost2010PropOp57
 70
     0
102
RTVSPropertyOp0
 70
     0
102
RTVSPropertyOp1
 70
     0
102
RTVSPropertyOp2
 70
     0
102
RTVSPropertyOp3
 70
     0
102
RTVSPropertyOp4
 70
     0
102
RTVSPropertyOp5
 70
     0
102
RTVSPropertyOp6
 70
     0
102
RTVSPropertyOp7
 70
     0
102
RTVSPropertyOp8
 70
     0
102
RTVSPropertyOp9
 70
     0
102
RTVSPropertyOp10
 70
     0
102
RTVSPropertyOp11
 70
     0
102
RTVSPropertyOp12
 70
     0
102
RTVSPropertyOp13
 70
     0
102
RTVSPropertyOp14
 70
     2
102
RTVSPropertyOp15
 70
     0
102
RTVSPropertyOp16
 70
     0
102
RTVSPropertyOp17
 70
     0
102
RTVSPropertyOp18
 70
     0
102
RTVSPropertyOp19
 70
     0
102
RTVSPropertyOp20
 70
     0
102
RTVSPropertyOp21
 70
     0
102
RTVSPropertyOp22
 70
     0
102
RTVSPropertyOp23
 70
     0
102
RTVSPropertyOp24
 70
     0
102
RTVSPropertyOp25
 70
     0
102
RTVSPropertyOp26
 70
     0
102
RTVSPropertyOp27
 70
     0
102
RTVSPropertyOp28
 70
     1
102
RTVSPropertyOp29
 70
     1
102
RTVSPropertyOp30
 70
     1
102
RTVSPropertyOp31
 70
     1
102
RTVSPropertyOp32
 70
     1
102
RTVSPropertyOp33
 70
     1
102
RTVSPropertyOp34
 70
     1
102
RTVSPropertyOp35
 70
     1
102
RTVSPropertyOp36
 70
     1
102
RTVSPropertyOp37
 70
     0
102
RTVSPropertyOp38
 70
     0
102
RTVSPropertyOp39
 70
     0
102
RTVSPropertyOp40
 70
     0
102
RTVSPropertyOp41
 70
     0
102
RTVSPropertyOp42
 70
     0
102
RTVSPropertyOp43
 70
     0
102
RTVSPropertyOp44
 70
     0
102
RTVSPropertyOp45
 70
     1
102
RTVSPropertyOp46
 70
     0
102
RTVSPropertyOp47
 70
     0
102
RTVSPropertyOp48
 70
     0
102
RTVSPropertyOp49
 70
     1
102
RTVSPropertyOp50
 70
     0
102
RTVSPropertyOp51
 70
     0
102
RTVSPropertyOp52
 70
     0
102
RTVSPropertyOp53
 70
     0
102
RTVSPropertyOp54
 70
     0
102
RTVSPropertyOp55
 70
     1
102
RTVSPropertyOp56
 70
     0
102
RTVSPropertyOp57
 70
     0
102
RTVSPropertyOp58
 70
     0
102
RTVSPropertyOp59
 70
     0
102
RTVSPropertyOp60
 70
     0
102
RTVSPropertyOp61
 70
     0
102
RTVSPropertyOp62
 70
     0
  0
XRECORD
  5
9782
102
{ACAD_REACTORS
330
9781
102
}
330
9781
100
AcDbXrecord
280
     1
102
RTVSPost2010Prop28
280
     0
102
RTVSPost2010PropOp28
 70
     1
102
RTVSPost2010Prop29
280
     1
102
RTVSPost2010PropOp29
 70
     1
102
RTVSPost2010Prop30
280
     1
102
RTVSPost2010PropOp30
 70
     1
102
RTVSPost2010Prop31
280
     0
102
RTVSPost2010PropOp31
 70
     1
102
RTVSPost2010Prop32
280
     0
102
RTVSPost2010PropOp32
 70
     1
102
RTVSPost2010Prop33
280
     0
102
RTVSPost2010PropOp33
 70
     1
102
RTVSPost2010Prop34
280
     0
102
RTVSPost2010PropOp34
 70
     1
102
RTVSPost2010Prop35
280
     0
102
RTVSPost2010PropOp35
 70
     1
102
RTVSPost2010Prop36
280
     0
102
RTVSPost2010PropOp36
 70
     1
102
RTVSPost2010Prop37
 90
       50
102
RTVSPost2010PropOp37
 70
     1
102
RTVSPost2010Prop38
140
0.0
102
RTVSPost2010PropOp38
 70
     1
102
RTVSPost2010Prop39
140
1.0
102
RTVSPost2010PropOp39
 70
     1
102
RTVSPost2010Prop40
 90
        0
102
RTVSPost2010PropOp40
 70
     1
102
RTVSPost2010Prop41ColorIndex
 90
       18
102
RTVSPost2010Prop41ColorRGB
 90
        0
102
RTVSPost2010PropOp41
 70
     1
102
RTVSPost2010Prop42
 90
       50
102
RTVSPost2010PropOp42
 70
     1
102
RTVSPost2010Prop43
 90
        3
102
RTVSPost2010PropOp43
 70
     1
102
RTVSPost2010Prop44ColorIndex
 90
        5
102
RTVSPost2010Prop44ColorRGB
 90
      255
102
RTVSPost2010PropOp44
 70
     1
102
RTVSPost2010Prop45
280
     0
102
RTVSPost2010PropOp45
 70
     1
102
RTVSPost2010Prop46
 90
       50
102
RTVSPost2010PropOp46
 70
     1
102
RTVSPost2010Prop47
 90
       50
102
RTVSPost2010PropOp47
 70
     1
102
RTVSPost2010Prop48
 90
       50
102
RTVSPost2010PropOp48
 70
     1
102
RTVSPost2010Prop49
280
     0
102
RTVSPost2010PropOp49
 70
     1
102
RTVSPost2010Prop50
 90
       50
102
RTVSPost2010PropOp50
 70
     1
102
RTVSPost2010Prop51ColorIndex
 90
      256
102
RTVSPost2010Prop51ColorRGB
 90
-16777216
102
RTVSPost2010PropOp51
 70
     0
102
RTVSPost2010Prop52
140
1.0
102
RTVSPost2010PropOp52
 70
     0
102
RTVSPost2010Prop53
 90
        2
102
RTVSPost2010PropOp53
 70
     1
102
RTVSPost2010Prop54
  1
strokes_ogs.tif
102
RTVSPost2010PropOp54
 70
     1
102
RTVSPost2010Prop55
280
     0
102
RTVSPost2010PropOp55
 70
     1
102
RTVSPost2010Prop56
140
1.0
102
RTVSPost2010PropOp56
 70
     1
102
RTVSPost2010Prop57
140
1.0
102
RTVSPost2010PropOp57
 70
     1
102
RTVSPropertyOp0
 70
     1
102
RTVSPropertyOp1
 70
     1
102
RTVSPropertyOp2
 70
     1
102
RTVSPropertyOp3
 70
     1
102
RTVSPropertyOp4
 70
     1
102
RTVSPropertyOp5
 70
     1
102
RTVSPropertyOp6
 70
     1
102
RTVSPropertyOp7
 70
     1
102
RTVSPropertyOp8
 70
     1
102
RTVSPropertyOp9
 70
     1
102
RTVSPropertyOp10
 70
     1
102
RTVSPropertyOp11
 70
     1
102
RTVSPropertyOp12
 70
     1
102
RTVSPropertyOp13
 70
     1
102
RTVSPropertyOp14
 70
     1
102
RTVSPropertyOp15
 70
     1
102
RTVSPropertyOp16
 70
     1
102
RTVSPropertyOp17
 70
     1
102
RTVSPropertyOp18
 70
     1
102
RTVSPropertyOp19
 70
     1
102
RTVSPropertyOp20
 70
     1
102
RTVSPropertyOp21
 70
     1
102
RTVSPropertyOp22
 70
     1
102
RTVSPropertyOp23
 70
     1
102
RTVSPropertyOp24
 70
     1
102
RTVSPropertyOp25
 70
     1
102
RTVSPropertyOp26
 70
     1
102
RTVSPropertyOp27
 70
     1
102
RTVSPropertyOp28
 70
     1
102
RTVSPropertyOp29
 70
     1
102
RTVSPropertyOp30
 70
     1
102
RTVSPropertyOp31
 70
     1
102
RTVSPropertyOp32
 70
     1
102
RTVSPropertyOp33
 70
     1
102
RTVSPropertyOp34
 70
     1
102
RTVSPropertyOp35
 70
     1
102
RTVSPropertyOp36
 70
     1
102
RTVSPropertyOp37
 70
     1
102
RTVSPropertyOp38
 70
     1
102
RTVSPropertyOp39
 70
     1
102
RTVSPropertyOp40
 70
     1
102
RTVSPropertyOp41
 70
     1
102
RTVSPropertyOp42
 70
     1
102
RTVSPropertyOp43
 70
     1
102
RTVSPropertyOp44
 70
     1
102
RTVSPropertyOp45
 70
     1
102
RTVSPropertyOp46
 70
     1
102
RTVSPropertyOp47
 70
     1
102
RTVSPropertyOp48
 70
     1
102
RTVSPropertyOp49
 70
     1
102
RTVSPropertyOp50
 70
     1
102
RTVSPropertyOp51
 70
     0
102
RTVSPropertyOp52
 70
     0
102
RTVSPropertyOp53
 70
     1
102
RTVSPropertyOp54
 70
     1
102
RTVSPropertyOp55
 70
     1
102
RTVSPropertyOp56
 70
     1
102
RTVSPropertyOp57
 70
     1
102
RTVSPropertyOp58
 70
     1
102
RTVSPropertyOp59
 70
     1
102
RTVSPropertyOp60
 70
     1
102
RTVSPropertyOp61
 70
     1
102
RTVSPropertyOp62
 70
     1
  0
XRECORD
  5
9798
102
{ACAD_REACTORS
330
9797
102
}
330
9797
100
AcDbXrecord
280
     1
102
RTVSPost2010Prop28
280
     0
102
RTVSPost2010PropOp28
 70
     1
102
RTVSPost2010Prop29
280
     1
102
RTVSPost2010PropOp29
 70
     1
102
RTVSPost2010Prop30
280
     1
102
RTVSPost2010PropOp30
 70
     1
102
RTVSPost2010Prop31
280
     0
102
RTVSPost2010PropOp31
 70
     1
102
RTVSPost2010Prop32
280
     0
102
RTVSPost2010PropOp32
 70
     1
102
RTVSPost2010Prop33
280
     0
102
RTVSPost2010PropOp33
 70
     1
102
RTVSPost2010Prop34
280
     0
102
RTVSPost2010PropOp34
 70
     1
102
RTVSPost2010Prop35
280
     0
102
RTVSPost2010PropOp35
 70
     1
102
RTVSPost2010Prop36
280
     0
102
RTVSPost2010PropOp36
 70
     1
102
RTVSPost2010Prop37
 90
       50
102
RTVSPost2010PropOp37
 70
     1
102
RTVSPost2010Prop38
140
0.0
102
RTVSPost2010PropOp38
 70
     1
102
RTVSPost2010Prop39
140
1.0
102
RTVSPost2010PropOp39
 70
     1
102
RTVSPost2010Prop40
 90
        0
102
RTVSPost2010PropOp40
 70
     1
102
RTVSPost2010Prop41ColorIndex
 90
       18
102
RTVSPost2010Prop41ColorRGB
 90
        0
102
RTVSPost2010PropOp41
 70
     1
102
RTVSPost2010Prop42
 90
       50
102
RTVSPost2010PropOp42
 70
     1
102
RTVSPost2010Prop43
 90
        3
102
RTVSPost2010PropOp43
 70
     1
102
RTVSPost2010Prop44ColorIndex
 90
        5
102
RTVSPost2010Prop44ColorRGB
 90
      255
102
RTVSPost2010PropOp44
 70
     1
102
RTVSPost2010Prop45
280
     0
102
RTVSPost2010PropOp45
 70
     1
102
RTVSPost2010Prop46
 90
       50
102
RTVSPost2010PropOp46
 70
     1
102
RTVSPost2010Prop47
 90
       50
102
RTVSPost2010PropOp47
 70
     1
102
RTVSPost2010Prop48
 90
       50
102
RTVSPost2010PropOp48
 70
     1
102
RTVSPost2010Prop49
280
     0
102
RTVSPost2010PropOp49
 70
     1
102
RTVSPost2010Prop50
 90
       50
102
RTVSPost2010PropOp50
 70
     1
102
RTVSPost2010Prop51ColorIndex
 90
      256
102
RTVSPost2010Prop51ColorRGB
 90
-16777216
102
RTVSPost2010PropOp51
 70
     0
102
RTVSPost2010Prop52
140
1.0
102
RTVSPost2010PropOp52
 70
     0
102
RTVSPost2010Prop53
 90
        2
102
RTVSPost2010PropOp53
 70
     1
102
RTVSPost2010Prop54
  1
strokes_ogs.tif
102
RTVSPost2010PropOp54
 70
     1
102
RTVSPost2010Prop55
280
     0
102
RTVSPost2010PropOp55
 70
     1
102
RTVSPost2010Prop56
140
1.0
102
RTVSPost2010PropOp56
 70
     1
102
RTVSPost2010Prop57
140
1.0
102
RTVSPost2010PropOp57
 70
     1
102
RTVSPropertyOp0
 70
     1
102
RTVSPropertyOp1
 70
     1
102
RTVSPropertyOp2
 70
     1
102
RTVSPropertyOp3
 70
     1
102
RTVSPropertyOp4
 70
     1
102
RTVSPropertyOp5
 70
     1
102
RTVSPropertyOp6
 70
     1
102
RTVSPropertyOp7
 70
     1
102
RTVSPropertyOp8
 70
     1
102
RTVSPropertyOp9
 70
     1
102
RTVSPropertyOp10
 70
     1
102
RTVSPropertyOp11
 70
     1
102
RTVSPropertyOp12
 70
     1
102
RTVSPropertyOp13
 70
     1
102
RTVSPropertyOp14
 70
     1
102
RTVSPropertyOp15
 70
     1
102
RTVSPropertyOp16
 70
     1
102
RTVSPropertyOp17
 70
     1
102
RTVSPropertyOp18
 70
     1
102
RTVSPropertyOp19
 70
     1
102
RTVSPropertyOp20
 70
     1
102
RTVSPropertyOp21
 70
     1
102
RTVSPropertyOp22
 70
     1
102
RTVSPropertyOp23
 70
     1
102
RTVSPropertyOp24
 70
     1
102
RTVSPropertyOp25
 70
     1
102
RTVSPropertyOp26
 70
     1
102
RTVSPropertyOp27
 70
     1
102
RTVSPropertyOp28
 70
     1
102
RTVSPropertyOp29
 70
     1
102
RTVSPropertyOp30
 70
     1
102
RTVSPropertyOp31
 70
     1
102
RTVSPropertyOp32
 70
     1
102
RTVSPropertyOp33
 70
     1
102
RTVSPropertyOp34
 70
     1
102
RTVSPropertyOp35
 70
     1
102
RTVSPropertyOp36
 70
     1
102
RTVSPropertyOp37
 70
     1
102
RTVSPropertyOp38
 70
     1
102
RTVSPropertyOp39
 70
     1
102
RTVSPropertyOp40
 70
     1
102
RTVSPropertyOp41
 70
     1
102
RTVSPropertyOp42
 70
     1
102
RTVSPropertyOp43
 70
     1
102
RTVSPropertyOp44
 70
     1
102
RTVSPropertyOp45
 70
     1
102
RTVSPropertyOp46
 70
     1
102
RTVSPropertyOp47
 70
     1
102
RTVSPropertyOp48
 70
     1
102
RTVSPropertyOp49
 70
     1
102
RTVSPropertyOp50
 70
     1
102
RTVSPropertyOp51
 70
     0
102
RTVSPropertyOp52
 70
     0
102
RTVSPropertyOp53
 70
     1
102
RTVSPropertyOp54
 70
     1
102
RTVSPropertyOp55
 70
     1
102
RTVSPropertyOp56
 70
     1
102
RTVSPropertyOp57
 70
     1
102
RTVSPropertyOp58
 70
     1
102
RTVSPropertyOp59
 70
     1
102
RTVSPropertyOp60
 70
     1
102
RTVSPropertyOp61
 70
     1
102
RTVSPropertyOp62
 70
     1
  0
XRECORD
  5
9796
102
{ACAD_REACTORS
330
9795
102
}
330
9795
100
AcDbXrecord
280
     1
102
RTVSPost2010Prop28
280
     0
102
RTVSPost2010PropOp28
 70
     1
102
RTVSPost2010Prop29
280
     1
102
RTVSPost2010PropOp29
 70
     1
102
RTVSPost2010Prop30
280
     1
102
RTVSPost2010PropOp30
 70
     1
102
RTVSPost2010Prop31
280
     0
102
RTVSPost2010PropOp31
 70
     1
102
RTVSPost2010Prop32
280
     0
102
RTVSPost2010PropOp32
 70
     1
102
RTVSPost2010Prop33
280
     0
102
RTVSPost2010PropOp33
 70
     1
102
RTVSPost2010Prop34
280
     0
102
RTVSPost2010PropOp34
 70
     1
102
RTVSPost2010Prop35
280
     0
102
RTVSPost2010PropOp35
 70
     1
102
RTVSPost2010Prop36
280
     0
102
RTVSPost2010PropOp36
 70
     1
102
RTVSPost2010Prop37
 90
       50
102
RTVSPost2010PropOp37
 70
     1
102
RTVSPost2010Prop38
140
0.0
102
RTVSPost2010PropOp38
 70
     1
102
RTVSPost2010Prop39
140
1.0
102
RTVSPost2010PropOp39
 70
     1
102
RTVSPost2010Prop40
 90
        0
102
RTVSPost2010PropOp40
 70
     1
102
RTVSPost2010Prop41ColorIndex
 90
       18
102
RTVSPost2010Prop41ColorRGB
 90
        0
102
RTVSPost2010PropOp41
 70
     1
102
RTVSPost2010Prop42
 90
       50
102
RTVSPost2010PropOp42
 70
     1
102
RTVSPost2010Prop43
 90
        3
102
RTVSPost2010PropOp43
 70
     1
102
RTVSPost2010Prop44ColorIndex
 90
        5
102
RTVSPost2010Prop44ColorRGB
 90
      255
102
RTVSPost2010PropOp44
 70
     1
102
RTVSPost2010Prop45
280
     0
102
RTVSPost2010PropOp45
 70
     1
102
RTVSPost2010Prop46
 90
       50
102
RTVSPost2010PropOp46
 70
     1
102
RTVSPost2010Prop47
 90
       50
102
RTVSPost2010PropOp47
 70
     1
102
RTVSPost2010Prop48
 90
       50
102
RTVSPost2010PropOp48
 70
     1
102
RTVSPost2010Prop49
280
     0
102
RTVSPost2010PropOp49
 70
     1
102
RTVSPost2010Prop50
 90
       50
102
RTVSPost2010PropOp50
 70
     1
102
RTVSPost2010Prop51ColorIndex
 90
      256
102
RTVSPost2010Prop51ColorRGB
 90
-16777216
102
RTVSPost2010PropOp51
 70
     0
102
RTVSPost2010Prop52
140
1.0
102
RTVSPost2010PropOp52
 70
     0
102
RTVSPost2010Prop53
 90
        2
102
RTVSPost2010PropOp53
 70
     1
102
RTVSPost2010Prop54
  1
strokes_ogs.tif
102
RTVSPost2010PropOp54
 70
     1
102
RTVSPost2010Prop55
280
     0
102
RTVSPost2010PropOp55
 70
     1
102
RTVSPost2010Prop56
140
1.0
102
RTVSPost2010PropOp56
 70
     1
102
RTVSPost2010Prop57
140
1.0
102
RTVSPost2010PropOp57
 70
     1
102
RTVSPropertyOp0
 70
     1
102
RTVSPropertyOp1
 70
     1
102
RTVSPropertyOp2
 70
     1
102
RTVSPropertyOp3
 70
     1
102
RTVSPropertyOp4
 70
     1
102
RTVSPropertyOp5
 70
     1
102
RTVSPropertyOp6
 70
     1
102
RTVSPropertyOp7
 70
     1
102
RTVSPropertyOp8
 70
     1
102
RTVSPropertyOp9
 70
     1
102
RTVSPropertyOp10
 70
     1
102
RTVSPropertyOp11
 70
     1
102
RTVSPropertyOp12
 70
     1
102
RTVSPropertyOp13
 70
     1
102
RTVSPropertyOp14
 70
     1
102
RTVSPropertyOp15
 70
     1
102
RTVSPropertyOp16
 70
     1
102
RTVSPropertyOp17
 70
     1
102
RTVSPropertyOp18
 70
     1
102
RTVSPropertyOp19
 70
     1
102
RTVSPropertyOp20
 70
     1
102
RTVSPropertyOp21
 70
     1
102
RTVSPropertyOp22
 70
     1
102
RTVSPropertyOp23
 70
     1
102
RTVSPropertyOp24
 70
     1
102
RTVSPropertyOp25
 70
     1
102
RTVSPropertyOp26
 70
     1
102
RTVSPropertyOp27
 70
     1
102
RTVSPropertyOp28
 70
     1
102
RTVSPropertyOp29
 70
     1
102
RTVSPropertyOp30
 70
     1
102
RTVSPropertyOp31
 70
     1
102
RTVSPropertyOp32
 70
     1
102
RTVSPropertyOp33
 70
     1
102
RTVSPropertyOp34
 70
     1
102
RTVSPropertyOp35
 70
     1
102
RTVSPropertyOp36
 70
     1
102
RTVSPropertyOp37
 70
     1
102
RTVSPropertyOp38
 70
     1
102
RTVSPropertyOp39
 70
     1
102
RTVSPropertyOp40
 70
     1
102
RTVSPropertyOp41
 70
     1
102
RTVSPropertyOp42
 70
     1
102
RTVSPropertyOp43
 70
     1
102
RTVSPropertyOp44
 70
     1
102
RTVSPropertyOp45
 70
     1
102
RTVSPropertyOp46
 70
     1
102
RTVSPropertyOp47
 70
     1
102
RTVSPropertyOp48
 70
     1
102
RTVSPropertyOp49
 70
     1
102
RTVSPropertyOp50
 70
     1
102
RTVSPropertyOp51
 70
     0
102
RTVSPropertyOp52
 70
     0
102
RTVSPropertyOp53
 70
     1
102
RTVSPropertyOp54
 70
     1
102
RTVSPropertyOp55
 70
     1
102
RTVSPropertyOp56
 70
     1
102
RTVSPropertyOp57
 70
     1
102
RTVSPropertyOp58
 70
     1
102
RTVSPropertyOp59
 70
     1
102
RTVSPropertyOp60
 70
     1
102
RTVSPropertyOp61
 70
     1
102
RTVSPropertyOp62
 70
     1
  0
XRECORD
  5
9790
102
{ACAD_REACTORS
330
978F
102
}
330
978F
100
AcDbXrecord
280
     1
102
RTVSPost2010Prop28
280
     0
102
RTVSPost2010PropOp28
 70
     1
102
RTVSPost2010Prop29
280
     1
102
RTVSPost2010PropOp29
 70
     1
102
RTVSPost2010Prop30
280
     1
102
RTVSPost2010PropOp30
 70
     1
102
RTVSPost2010Prop31
280
     0
102
RTVSPost2010PropOp31
 70
     1
102
RTVSPost2010Prop32
280
     0
102
RTVSPost2010PropOp32
 70
     1
102
RTVSPost2010Prop33
280
     0
102
RTVSPost2010PropOp33
 70
     1
102
RTVSPost2010Prop34
280
     0
102
RTVSPost2010PropOp34
 70
     1
102
RTVSPost2010Prop35
280
     0
102
RTVSPost2010PropOp35
 70
     1
102
RTVSPost2010Prop36
280
     0
102
RTVSPost2010PropOp36
 70
     1
102
RTVSPost2010Prop37
 90
       50
102
RTVSPost2010PropOp37
 70
     1
102
RTVSPost2010Prop38
140
0.0
102
RTVSPost2010PropOp38
 70
     1
102
RTVSPost2010Prop39
140
1.0
102
RTVSPost2010PropOp39
 70
     1
102
RTVSPost2010Prop40
 90
        0
102
RTVSPost2010PropOp40
 70
     1
102
RTVSPost2010Prop41ColorIndex
 90
       18
102
RTVSPost2010Prop41ColorRGB
 90
        0
102
RTVSPost2010PropOp41
 70
     1
102
RTVSPost2010Prop42
 90
       50
102
RTVSPost2010PropOp42
 70
     1
102
RTVSPost2010Prop43
 90
        3
102
RTVSPost2010PropOp43
 70
     1
102
RTVSPost2010Prop44ColorIndex
 90
        5
102
RTVSPost2010Prop44ColorRGB
 90
      255
102
RTVSPost2010PropOp44
 70
     1
102
RTVSPost2010Prop45
280
     0
102
RTVSPost2010PropOp45
 70
     1
102
RTVSPost2010Prop46
 90
       50
102
RTVSPost2010PropOp46
 70
     1
102
RTVSPost2010Prop47
 90
       50
102
RTVSPost2010PropOp47
 70
     1
102
RTVSPost2010Prop48
 90
       50
102
RTVSPost2010PropOp48
 70
     1
102
RTVSPost2010Prop49
280
     0
102
RTVSPost2010PropOp49
 70
     1
102
RTVSPost2010Prop50
 90
       50
102
RTVSPost2010PropOp50
 70
     1
102
RTVSPost2010Prop51ColorIndex
 90
      256
102
RTVSPost2010Prop51ColorRGB
 90
-16777216
102
RTVSPost2010PropOp51
 70
     0
102
RTVSPost2010Prop52
140
1.0
102
RTVSPost2010PropOp52
 70
     0
102
RTVSPost2010Prop53
 90
        2
102
RTVSPost2010PropOp53
 70
     1
102
RTVSPost2010Prop54
  1
strokes_ogs.tif
102
RTVSPost2010PropOp54
 70
     1
102
RTVSPost2010Prop55
280
     0
102
RTVSPost2010PropOp55
 70
     1
102
RTVSPost2010Prop56
140
1.0
102
RTVSPost2010PropOp56
 70
     1
102
RTVSPost2010Prop57
140
1.0
102
RTVSPost2010PropOp57
 70
     1
102
RTVSPropertyOp0
 70
     1
102
RTVSPropertyOp1
 70
     1
102
RTVSPropertyOp2
 70
     1
102
RTVSPropertyOp3
 70
     1
102
RTVSPropertyOp4
 70
     1
102
RTVSPropertyOp5
 70
     1
102
RTVSPropertyOp6
 70
     1
102
RTVSPropertyOp7
 70
     1
102
RTVSPropertyOp8
 70
     1
102
RTVSPropertyOp9
 70
     1
102
RTVSPropertyOp10
 70
     1
102
RTVSPropertyOp11
 70
     1
102
RTVSPropertyOp12
 70
     1
102
RTVSPropertyOp13
 70
     1
102
RTVSPropertyOp14
 70
     1
102
RTVSPropertyOp15
 70
     1
102
RTVSPropertyOp16
 70
     1
102
RTVSPropertyOp17
 70
     1
102
RTVSPropertyOp18
 70
     1
102
RTVSPropertyOp19
 70
     1
102
RTVSPropertyOp20
 70
     1
102
RTVSPropertyOp21
 70
     1
102
RTVSPropertyOp22
 70
     1
102
RTVSPropertyOp23
 70
     1
102
RTVSPropertyOp24
 70
     1
102
RTVSPropertyOp25
 70
     1
102
RTVSPropertyOp26
 70
     1
102
RTVSPropertyOp27
 70
     1
102
RTVSPropertyOp28
 70
     1
102
RTVSPropertyOp29
 70
     1
102
RTVSPropertyOp30
 70
     1
102
RTVSPropertyOp31
 70
     1
102
RTVSPropertyOp32
 70
     1
102
RTVSPropertyOp33
 70
     1
102
RTVSPropertyOp34
 70
     1
102
RTVSPropertyOp35
 70
     1
102
RTVSPropertyOp36
 70
     1
102
RTVSPropertyOp37
 70
     1
102
RTVSPropertyOp38
 70
     1
102
RTVSPropertyOp39
 70
     1
102
RTVSPropertyOp40
 70
     1
102
RTVSPropertyOp41
 70
     1
102
RTVSPropertyOp42
 70
     1
102
RTVSPropertyOp43
 70
     1
102
RTVSPropertyOp44
 70
     1
102
RTVSPropertyOp45
 70
     1
102
RTVSPropertyOp46
 70
     1
102
RTVSPropertyOp47
 70
     1
102
RTVSPropertyOp48
 70
     1
102
RTVSPropertyOp49
 70
     1
102
RTVSPropertyOp50
 70
     1
102
RTVSPropertyOp51
 70
     0
102
RTVSPropertyOp52
 70
     0
102
RTVSPropertyOp53
 70
     1
102
RTVSPropertyOp54
 70
     1
102
RTVSPropertyOp55
 70
     1
102
RTVSPropertyOp56
 70
     1
102
RTVSPropertyOp57
 70
     1
102
RTVSPropertyOp58
 70
     1
102
RTVSPropertyOp59
 70
     1
102
RTVSPropertyOp60
 70
     1
102
RTVSPropertyOp61
 70
     1
102
RTVSPropertyOp62
 70
     1
  0
XRECORD
  5
9792
102
{ACAD_REACTORS
330
9791
102
}
330
9791
100
AcDbXrecord
280
     1
102
RTVSPost2010Prop28
280
     0
102
RTVSPost2010PropOp28
 70
     1
102
RTVSPost2010Prop29
280
     1
102
RTVSPost2010PropOp29
 70
     1
102
RTVSPost2010Prop30
280
     1
102
RTVSPost2010PropOp30
 70
     1
102
RTVSPost2010Prop31
280
     0
102
RTVSPost2010PropOp31
 70
     1
102
RTVSPost2010Prop32
280
     0
102
RTVSPost2010PropOp32
 70
     1
102
RTVSPost2010Prop33
280
     0
102
RTVSPost2010PropOp33
 70
     1
102
RTVSPost2010Prop34
280
     0
102
RTVSPost2010PropOp34
 70
     1
102
RTVSPost2010Prop35
280
     0
102
RTVSPost2010PropOp35
 70
     1
102
RTVSPost2010Prop36
280
     0
102
RTVSPost2010PropOp36
 70
     1
102
RTVSPost2010Prop37
 90
       50
102
RTVSPost2010PropOp37
 70
     1
102
RTVSPost2010Prop38
140
0.0
102
RTVSPost2010PropOp38
 70
     1
102
RTVSPost2010Prop39
140
1.0
102
RTVSPost2010PropOp39
 70
     1
102
RTVSPost2010Prop40
 90
        0
102
RTVSPost2010PropOp40
 70
     1
102
RTVSPost2010Prop41ColorIndex
 90
       18
102
RTVSPost2010Prop41ColorRGB
 90
        0
102
RTVSPost2010PropOp41
 70
     1
102
RTVSPost2010Prop42
 90
       50
102
RTVSPost2010PropOp42
 70
     1
102
RTVSPost2010Prop43
 90
        3
102
RTVSPost2010PropOp43
 70
     1
102
RTVSPost2010Prop44ColorIndex
 90
        5
102
RTVSPost2010Prop44ColorRGB
 90
      255
102
RTVSPost2010PropOp44
 70
     1
102
RTVSPost2010Prop45
280
     0
102
RTVSPost2010PropOp45
 70
     1
102
RTVSPost2010Prop46
 90
       50
102
RTVSPost2010PropOp46
 70
     1
102
RTVSPost2010Prop47
 90
       50
102
RTVSPost2010PropOp47
 70
     1
102
RTVSPost2010Prop48
 90
       50
102
RTVSPost2010PropOp48
 70
     1
102
RTVSPost2010Prop49
280
     0
102
RTVSPost2010PropOp49
 70
     1
102
RTVSPost2010Prop50
 90
       50
102
RTVSPost2010PropOp50
 70
     1
102
RTVSPost2010Prop51ColorIndex
 90
      256
102
RTVSPost2010Prop51ColorRGB
 90
-16777216
102
RTVSPost2010PropOp51
 70
     0
102
RTVSPost2010Prop52
140
1.0
102
RTVSPost2010PropOp52
 70
     0
102
RTVSPost2010Prop53
 90
        2
102
RTVSPost2010PropOp53
 70
     1
102
RTVSPost2010Prop54
  1
strokes_ogs.tif
102
RTVSPost2010PropOp54
 70
     1
102
RTVSPost2010Prop55
280
     0
102
RTVSPost2010PropOp55
 70
     1
102
RTVSPost2010Prop56
140
1.0
102
RTVSPost2010PropOp56
 70
     1
102
RTVSPost2010Prop57
140
1.0
102
RTVSPost2010PropOp57
 70
     1
102
RTVSPropertyOp0
 70
     1
102
RTVSPropertyOp1
 70
     1
102
RTVSPropertyOp2
 70
     1
102
RTVSPropertyOp3
 70
     1
102
RTVSPropertyOp4
 70
     1
102
RTVSPropertyOp5
 70
     1
102
RTVSPropertyOp6
 70
     1
102
RTVSPropertyOp7
 70
     1
102
RTVSPropertyOp8
 70
     1
102
RTVSPropertyOp9
 70
     1
102
RTVSPropertyOp10
 70
     1
102
RTVSPropertyOp11
 70
     1
102
RTVSPropertyOp12
 70
     1
102
RTVSPropertyOp13
 70
     1
102
RTVSPropertyOp14
 70
     1
102
RTVSPropertyOp15
 70
     1
102
RTVSPropertyOp16
 70
     1
102
RTVSPropertyOp17
 70
     1
102
RTVSPropertyOp18
 70
     1
102
RTVSPropertyOp19
 70
     1
102
RTVSPropertyOp20
 70
     1
102
RTVSPropertyOp21
 70
     1
102
RTVSPropertyOp22
 70
     1
102
RTVSPropertyOp23
 70
     1
102
RTVSPropertyOp24
 70
     1
102
RTVSPropertyOp25
 70
     1
102
RTVSPropertyOp26
 70
     1
102
RTVSPropertyOp27
 70
     1
102
RTVSPropertyOp28
 70
     1
102
RTVSPropertyOp29
 70
     1
102
RTVSPropertyOp30
 70
     1
102
RTVSPropertyOp31
 70
     1
102
RTVSPropertyOp32
 70
     1
102
RTVSPropertyOp33
 70
     1
102
RTVSPropertyOp34
 70
     1
102
RTVSPropertyOp35
 70
     1
102
RTVSPropertyOp36
 70
     1
102
RTVSPropertyOp37
 70
     1
102
RTVSPropertyOp38
 70
     1
102
RTVSPropertyOp39
 70
     1
102
RTVSPropertyOp40
 70
     1
102
RTVSPropertyOp41
 70
     1
102
RTVSPropertyOp42
 70
     1
102
RTVSPropertyOp43
 70
     1
102
RTVSPropertyOp44
 70
     1
102
RTVSPropertyOp45
 70
     1
102
RTVSPropertyOp46
 70
     1
102
RTVSPropertyOp47
 70
     1
102
RTVSPropertyOp48
 70
     1
102
RTVSPropertyOp49
 70
     1
102
RTVSPropertyOp50
 70
     1
102
RTVSPropertyOp51
 70
     0
102
RTVSPropertyOp52
 70
     0
102
RTVSPropertyOp53
 70
     1
102
RTVSPropertyOp54
 70
     1
102
RTVSPropertyOp55
 70
     1
102
RTVSPropertyOp56
 70
     1
102
RTVSPropertyOp57
 70
     1
102
RTVSPropertyOp58
 70
     1
102
RTVSPropertyOp59
 70
     1
102
RTVSPropertyOp60
 70
     1
102
RTVSPropertyOp61
 70
     1
102
RTVSPropertyOp62
 70
     1
  0
XRECORD
  5
9788
102
{ACAD_REACTORS
330
9787
102
}
330
9787
100
AcDbXrecord
280
     1
102
RTVSPost2010Prop28
280
     0
102
RTVSPost2010PropOp28
 70
     1
102
RTVSPost2010Prop29
280
     1
102
RTVSPost2010PropOp29
 70
     1
102
RTVSPost2010Prop30
280
     1
102
RTVSPost2010PropOp30
 70
     1
102
RTVSPost2010Prop31
280
     0
102
RTVSPost2010PropOp31
 70
     1
102
RTVSPost2010Prop32
280
     0
102
RTVSPost2010PropOp32
 70
     1
102
RTVSPost2010Prop33
280
     0
102
RTVSPost2010PropOp33
 70
     1
102
RTVSPost2010Prop34
280
     0
102
RTVSPost2010PropOp34
 70
     1
102
RTVSPost2010Prop35
280
     0
102
RTVSPost2010PropOp35
 70
     1
102
RTVSPost2010Prop36
280
     0
102
RTVSPost2010PropOp36
 70
     1
102
RTVSPost2010Prop37
 90
       50
102
RTVSPost2010PropOp37
 70
     1
102
RTVSPost2010Prop38
140
0.0
102
RTVSPost2010PropOp38
 70
     1
102
RTVSPost2010Prop39
140
1.0
102
RTVSPost2010PropOp39
 70
     1
102
RTVSPost2010Prop40
 90
        0
102
RTVSPost2010PropOp40
 70
     1
102
RTVSPost2010Prop41ColorIndex
 90
       18
102
RTVSPost2010Prop41ColorRGB
 90
        0
102
RTVSPost2010PropOp41
 70
     1
102
RTVSPost2010Prop42
 90
       50
102
RTVSPost2010PropOp42
 70
     1
102
RTVSPost2010Prop43
 90
        3
102
RTVSPost2010PropOp43
 70
     1
102
RTVSPost2010Prop44ColorIndex
 90
        5
102
RTVSPost2010Prop44ColorRGB
 90
      255
102
RTVSPost2010PropOp44
 70
     1
102
RTVSPost2010Prop45
280
     0
102
RTVSPost2010PropOp45
 70
     1
102
RTVSPost2010Prop46
 90
       50
102
RTVSPost2010PropOp46
 70
     1
102
RTVSPost2010Prop47
 90
       50
102
RTVSPost2010PropOp47
 70
     1
102
RTVSPost2010Prop48
 90
       50
102
RTVSPost2010PropOp48
 70
     1
102
RTVSPost2010Prop49
280
     0
102
RTVSPost2010PropOp49
 70
     1
102
RTVSPost2010Prop50
 90
       50
102
RTVSPost2010PropOp50
 70
     1
102
RTVSPost2010Prop51ColorIndex
 90
      256
102
RTVSPost2010Prop51ColorRGB
 90
-16777216
102
RTVSPost2010PropOp51
 70
     0
102
RTVSPost2010Prop52
140
1.0
102
RTVSPost2010PropOp52
 70
     0
102
RTVSPost2010Prop53
 90
        2
102
RTVSPost2010PropOp53
 70
     1
102
RTVSPost2010Prop54
  1
strokes_ogs.tif
102
RTVSPost2010PropOp54
 70
     1
102
RTVSPost2010Prop55
280
     0
102
RTVSPost2010PropOp55
 70
     1
102
RTVSPost2010Prop56
140
1.0
102
RTVSPost2010PropOp56
 70
     1
102
RTVSPost2010Prop57
140
1.0
102
RTVSPost2010PropOp57
 70
     1
102
RTVSPropertyOp0
 70
     1
102
RTVSPropertyOp1
 70
     1
102
RTVSPropertyOp2
 70
     1
102
RTVSPropertyOp3
 70
     1
102
RTVSPropertyOp4
 70
     1
102
RTVSPropertyOp5
 70
     1
102
RTVSPropertyOp6
 70
     1
102
RTVSPropertyOp7
 70
     1
102
RTVSPropertyOp8
 70
     1
102
RTVSPropertyOp9
 70
     1
102
RTVSPropertyOp10
 70
     1
102
RTVSPropertyOp11
 70
     1
102
RTVSPropertyOp12
 70
     1
102
RTVSPropertyOp13
 70
     1
102
RTVSPropertyOp14
 70
     1
102
RTVSPropertyOp15
 70
     1
102
RTVSPropertyOp16
 70
     1
102
RTVSPropertyOp17
 70
     1
102
RTVSPropertyOp18
 70
     1
102
RTVSPropertyOp19
 70
     1
102
RTVSPropertyOp20
 70
     1
102
RTVSPropertyOp21
 70
     1
102
RTVSPropertyOp22
 70
     1
102
RTVSPropertyOp23
 70
     1
102
RTVSPropertyOp24
 70
     1
102
RTVSPropertyOp25
 70
     1
102
RTVSPropertyOp26
 70
     1
102
RTVSPropertyOp27
 70
     1
102
RTVSPropertyOp28
 70
     1
102
RTVSPropertyOp29
 70
     1
102
RTVSPropertyOp30
 70
     1
102
RTVSPropertyOp31
 70
     1
102
RTVSPropertyOp32
 70
     1
102
RTVSPropertyOp33
 70
     1
102
RTVSPropertyOp34
 70
     1
102
RTVSPropertyOp35
 70
     1
102
RTVSPropertyOp36
 70
     1
102
RTVSPropertyOp37
 70
     1
102
RTVSPropertyOp38
 70
     1
102
RTVSPropertyOp39
 70
     1
102
RTVSPropertyOp40
 70
     1
102
RTVSPropertyOp41
 70
     1
102
RTVSPropertyOp42
 70
     1
102
RTVSPropertyOp43
 70
     1
102
RTVSPropertyOp44
 70
     1
102
RTVSPropertyOp45
 70
     1
102
RTVSPropertyOp46
 70
     1
102
RTVSPropertyOp47
 70
     1
102
RTVSPropertyOp48
 70
     1
102
RTVSPropertyOp49
 70
     1
102
RTVSPropertyOp50
 70
     1
102
RTVSPropertyOp51
 70
     0
102
RTVSPropertyOp52
 70
     0
102
RTVSPropertyOp53
 70
     1
102
RTVSPropertyOp54
 70
     1
102
RTVSPropertyOp55
 70
     1
102
RTVSPropertyOp56
 70
     1
102
RTVSPropertyOp57
 70
     1
102
RTVSPropertyOp58
 70
     1
102
RTVSPropertyOp59
 70
     1
102
RTVSPropertyOp60
 70
     1
102
RTVSPropertyOp61
 70
     1
102
RTVSPropertyOp62
 70
     1
  0
XRECORD
  5
977C
102
{ACAD_REACTORS
330
977B
102
}
330
977B
100
AcDbXrecord
280
     1
102
RTVSPost2010Prop28
280
     0
102
RTVSPost2010PropOp28
 70
     1
102
RTVSPost2010Prop29
280
     1
102
RTVSPost2010PropOp29
 70
     1
102
RTVSPost2010Prop30
280
     1
102
RTVSPost2010PropOp30
 70
     1
102
RTVSPost2010Prop31
280
     0
102
RTVSPost2010PropOp31
 70
     1
102
RTVSPost2010Prop32
280
     0
102
RTVSPost2010PropOp32
 70
     1
102
RTVSPost2010Prop33
280
     0
102
RTVSPost2010PropOp33
 70
     1
102
RTVSPost2010Prop34
280
     0
102
RTVSPost2010PropOp34
 70
     1
102
RTVSPost2010Prop35
280
     0
102
RTVSPost2010PropOp35
 70
     1
102
RTVSPost2010Prop36
280
     0
102
RTVSPost2010PropOp36
 70
     1
102
RTVSPost2010Prop37
 90
       50
102
RTVSPost2010PropOp37
 70
     1
102
RTVSPost2010Prop38
140
0.0
102
RTVSPost2010PropOp38
 70
     1
102
RTVSPost2010Prop39
140
1.0
102
RTVSPost2010PropOp39
 70
     1
102
RTVSPost2010Prop40
 90
        0
102
RTVSPost2010PropOp40
 70
     1
102
RTVSPost2010Prop41ColorIndex
 90
       18
102
RTVSPost2010Prop41ColorRGB
 90
        0
102
RTVSPost2010PropOp41
 70
     1
102
RTVSPost2010Prop42
 90
       50
102
RTVSPost2010PropOp42
 70
     1
102
RTVSPost2010Prop43
 90
        3
102
RTVSPost2010PropOp43
 70
     1
102
RTVSPost2010Prop44ColorIndex
 90
        5
102
RTVSPost2010Prop44ColorRGB
 90
      255
102
RTVSPost2010PropOp44
 70
     1
102
RTVSPost2010Prop45
280
     0
102
RTVSPost2010PropOp45
 70
     1
102
RTVSPost2010Prop46
 90
       50
102
RTVSPost2010PropOp46
 70
     1
102
RTVSPost2010Prop47
 90
       50
102
RTVSPost2010PropOp47
 70
     1
102
RTVSPost2010Prop48
 90
       50
102
RTVSPost2010PropOp48
 70
     1
102
RTVSPost2010Prop49
280
     0
102
RTVSPost2010PropOp49
 70
     1
102
RTVSPost2010Prop50
 90
       50
102
RTVSPost2010PropOp50
 70
     1
102
RTVSPost2010Prop51ColorIndex
 90
      256
102
RTVSPost2010Prop51ColorRGB
 90
-16777216
102
RTVSPost2010PropOp51
 70
     0
102
RTVSPost2010Prop52
140
1.0
102
RTVSPost2010PropOp52
 70
     0
102
RTVSPost2010Prop53
 90
        2
102
RTVSPost2010PropOp53
 70
     1
102
RTVSPost2010Prop54
  1
strokes_ogs.tif
102
RTVSPost2010PropOp54
 70
     1
102
RTVSPost2010Prop55
280
     0
102
RTVSPost2010PropOp55
 70
     1
102
RTVSPost2010Prop56
140
1.0
102
RTVSPost2010PropOp56
 70
     1
102
RTVSPost2010Prop57
140
1.0
102
RTVSPost2010PropOp57
 70
     1
102
RTVSPropertyOp0
 70
     1
102
RTVSPropertyOp1
 70
     1
102
RTVSPropertyOp2
 70
     1
102
RTVSPropertyOp3
 70
     1
102
RTVSPropertyOp4
 70
     1
102
RTVSPropertyOp5
 70
     1
102
RTVSPropertyOp6
 70
     1
102
RTVSPropertyOp7
 70
     1
102
RTVSPropertyOp8
 70
     1
102
RTVSPropertyOp9
 70
     1
102
RTVSPropertyOp10
 70
     1
102
RTVSPropertyOp11
 70
     1
102
RTVSPropertyOp12
 70
     1
102
RTVSPropertyOp13
 70
     1
102
RTVSPropertyOp14
 70
     1
102
RTVSPropertyOp15
 70
     1
102
RTVSPropertyOp16
 70
     1
102
RTVSPropertyOp17
 70
     1
102
RTVSPropertyOp18
 70
     1
102
RTVSPropertyOp19
 70
     1
102
RTVSPropertyOp20
 70
     1
102
RTVSPropertyOp21
 70
     1
102
RTVSPropertyOp22
 70
     1
102
RTVSPropertyOp23
 70
     1
102
RTVSPropertyOp24
 70
     1
102
RTVSPropertyOp25
 70
     1
102
RTVSPropertyOp26
 70
     1
102
RTVSPropertyOp27
 70
     1
102
RTVSPropertyOp28
 70
     1
102
RTVSPropertyOp29
 70
     1
102
RTVSPropertyOp30
 70
     1
102
RTVSPropertyOp31
 70
     1
102
RTVSPropertyOp32
 70
     1
102
RTVSPropertyOp33
 70
     1
102
RTVSPropertyOp34
 70
     1
102
RTVSPropertyOp35
 70
     1
102
RTVSPropertyOp36
 70
     1
102
RTVSPropertyOp37
 70
     1
102
RTVSPropertyOp38
 70
     1
102
RTVSPropertyOp39
 70
     1
102
RTVSPropertyOp40
 70
     1
102
RTVSPropertyOp41
 70
     1
102
RTVSPropertyOp42
 70
     1
102
RTVSPropertyOp43
 70
     1
102
RTVSPropertyOp44
 70
     1
102
RTVSPropertyOp45
 70
     1
102
RTVSPropertyOp46
 70
     1
102
RTVSPropertyOp47
 70
     1
102
RTVSPropertyOp48
 70
     1
102
RTVSPropertyOp49
 70
     1
102
RTVSPropertyOp50
 70
     1
102
RTVSPropertyOp51
 70
     0
102
RTVSPropertyOp52
 70
     0
102
RTVSPropertyOp53
 70
     1
102
RTVSPropertyOp54
 70
     1
102
RTVSPropertyOp55
 70
     1
102
RTVSPropertyOp56
 70
     1
102
RTVSPropertyOp57
 70
     1
102
RTVSPropertyOp58
 70
     1
102
RTVSPropertyOp59
 70
     1
102
RTVSPropertyOp60
 70
     1
102
RTVSPropertyOp61
 70
     1
102
RTVSPropertyOp62
 70
     1
  0
XRECORD
  5
9794
102
{ACAD_REACTORS
330
9793
102
}
330
9793
100
AcDbXrecord
280
     1
102
RTVSPost2010Prop28
280
     0
102
RTVSPost2010PropOp28
 70
     1
102
RTVSPost2010Prop29
280
     1
102
RTVSPost2010PropOp29
 70
     1
102
RTVSPost2010Prop30
280
     1
102
RTVSPost2010PropOp30
 70
     1
102
RTVSPost2010Prop31
280
     0
102
RTVSPost2010PropOp31
 70
     1
102
RTVSPost2010Prop32
280
     0
102
RTVSPost2010PropOp32
 70
     1
102
RTVSPost2010Prop33
280
     0
102
RTVSPost2010PropOp33
 70
     1
102
RTVSPost2010Prop34
280
     0
102
RTVSPost2010PropOp34
 70
     1
102
RTVSPost2010Prop35
280
     0
102
RTVSPost2010PropOp35
 70
     1
102
RTVSPost2010Prop36
280
     0
102
RTVSPost2010PropOp36
 70
     1
102
RTVSPost2010Prop37
 90
       50
102
RTVSPost2010PropOp37
 70
     1
102
RTVSPost2010Prop38
140
0.0
102
RTVSPost2010PropOp38
 70
     1
102
RTVSPost2010Prop39
140
1.0
102
RTVSPost2010PropOp39
 70
     1
102
RTVSPost2010Prop40
 90
        0
102
RTVSPost2010PropOp40
 70
     1
102
RTVSPost2010Prop41ColorIndex
 90
       18
102
RTVSPost2010Prop41ColorRGB
 90
        0
102
RTVSPost2010PropOp41
 70
     1
102
RTVSPost2010Prop42
 90
       50
102
RTVSPost2010PropOp42
 70
     1
102
RTVSPost2010Prop43
 90
        3
102
RTVSPost2010PropOp43
 70
     1
102
RTVSPost2010Prop44ColorIndex
 90
        5
102
RTVSPost2010Prop44ColorRGB
 90
      255
102
RTVSPost2010PropOp44
 70
     1
102
RTVSPost2010Prop45
280
     0
102
RTVSPost2010PropOp45
 70
     1
102
RTVSPost2010Prop46
 90
       50
102
RTVSPost2010PropOp46
 70
     1
102
RTVSPost2010Prop47
 90
       50
102
RTVSPost2010PropOp47
 70
     1
102
RTVSPost2010Prop48
 90
       50
102
RTVSPost2010PropOp48
 70
     1
102
RTVSPost2010Prop49
280
     0
102
RTVSPost2010PropOp49
 70
     1
102
RTVSPost2010Prop50
 90
       50
102
RTVSPost2010PropOp50
 70
     1
102
RTVSPost2010Prop51ColorIndex
 90
      256
102
RTVSPost2010Prop51ColorRGB
 90
-16777216
102
RTVSPost2010PropOp51
 70
     0
102
RTVSPost2010Prop52
140
1.0
102
RTVSPost2010PropOp52
 70
     0
102
RTVSPost2010Prop53
 90
        2
102
RTVSPost2010PropOp53
 70
     1
102
RTVSPost2010Prop54
  1
strokes_ogs.tif
102
RTVSPost2010PropOp54
 70
     1
102
RTVSPost2010Prop55
280
     0
102
RTVSPost2010PropOp55
 70
     1
102
RTVSPost2010Prop56
140
1.0
102
RTVSPost2010PropOp56
 70
     1
102
RTVSPost2010Prop57
140
1.0
102
RTVSPost2010PropOp57
 70
     1
102
RTVSPropertyOp0
 70
     1
102
RTVSPropertyOp1
 70
     1
102
RTVSPropertyOp2
 70
     1
102
RTVSPropertyOp3
 70
     1
102
RTVSPropertyOp4
 70
     1
102
RTVSPropertyOp5
 70
     1
102
RTVSPropertyOp6
 70
     1
102
RTVSPropertyOp7
 70
     1
102
RTVSPropertyOp8
 70
     1
102
RTVSPropertyOp9
 70
     1
102
RTVSPropertyOp10
 70
     1
102
RTVSPropertyOp11
 70
     1
102
RTVSPropertyOp12
 70
     1
102
RTVSPropertyOp13
 70
     1
102
RTVSPropertyOp14
 70
     1
102
RTVSPropertyOp15
 70
     1
102
RTVSPropertyOp16
 70
     1
102
RTVSPropertyOp17
 70
     1
102
RTVSPropertyOp18
 70
     1
102
RTVSPropertyOp19
 70
     1
102
RTVSPropertyOp20
 70
     1
102
RTVSPropertyOp21
 70
     1
102
RTVSPropertyOp22
 70
     1
102
RTVSPropertyOp23
 70
     1
102
RTVSPropertyOp24
 70
     1
102
RTVSPropertyOp25
 70
     1
102
RTVSPropertyOp26
 70
     1
102
RTVSPropertyOp27
 70
     1
102
RTVSPropertyOp28
 70
     1
102
RTVSPropertyOp29
 70
     1
102
RTVSPropertyOp30
 70
     1
102
RTVSPropertyOp31
 70
     1
102
RTVSPropertyOp32
 70
     1
102
RTVSPropertyOp33
 70
     1
102
RTVSPropertyOp34
 70
     1
102
RTVSPropertyOp35
 70
     1
102
RTVSPropertyOp36
 70
     1
102
RTVSPropertyOp37
 70
     1
102
RTVSPropertyOp38
 70
     1
102
RTVSPropertyOp39
 70
     1
102
RTVSPropertyOp40
 70
     1
102
RTVSPropertyOp41
 70
     1
102
RTVSPropertyOp42
 70
     1
102
RTVSPropertyOp43
 70
     1
102
RTVSPropertyOp44
 70
     1
102
RTVSPropertyOp45
 70
     1
102
RTVSPropertyOp46
 70
     1
102
RTVSPropertyOp47
 70
     1
102
RTVSPropertyOp48
 70
     1
102
RTVSPropertyOp49
 70
     1
102
RTVSPropertyOp50
 70
     1
102
RTVSPropertyOp51
 70
     0
102
RTVSPropertyOp52
 70
     0
102
RTVSPropertyOp53
 70
     1
102
RTVSPropertyOp54
 70
     1
102
RTVSPropertyOp55
 70
     1
102
RTVSPropertyOp56
 70
     1
102
RTVSPropertyOp57
 70
     1
102
RTVSPropertyOp58
 70
     1
102
RTVSPropertyOp59
 70
     1
102
RTVSPropertyOp60
 70
     1
102
RTVSPropertyOp61
 70
     1
102
RTVSPropertyOp62
 70
     1
  0
ENDSEC
  0
EOF
