  0
SECTION
  2
HEADER
  9
$ACADVER
  1
AC1015
  9
$ACADMAINTVER
 70
    20
  9
$DWGCODEPAGE
  3
ANSI_932
  9
$INSBASE
 10
0.0
 20
0.0
 30
0.0
  9
$EXTMIN
 10
9.99995
 20
9.999999999999998
 30
0.0
  9
$EXTMAX
 10
539.117645
 20
368.942139
 30
0.0
  9
$LIMMIN
 10
0.0
 20
0.0
  9
$LIMMAX
 10
554.3999999999998
 20
382.2
  9
$ORTHOMODE
 70
     1
  9
$REGENMODE
 70
     1
  9
$FILLMODE
 70
     1
  9
$QTEXTMODE
 70
     0
  9
$MIRRTEXT
 70
     1
  9
$LTSCALE
 40
20.0
  9
$ATTMODE
 70
     1
  9
$TEXTSIZE
 40
5.0
  9
$TRACEWID
 40
1.0
  9
$TEXTSTYLE
  7
STANDARD
  9
$CLAYER
  8
0
  9
$CELTYPE
  6
BYLAYER
  9
$CECOLOR
 62
   256
  9
$CELTSCALE
 40
1.0
  9
$DISPSILH
 70
     0
  9
$DIMSCALE
 40
1.0
  9
$DIMASZ
 40
3.0
  9
$DIMEXO
 40
1.0
  9
$DIMDLI
 40
10.0
  9
$DIMRND
 40
0.0
  9
$DIMDLE
 40
0.0
  9
$DIMEXE
 40
1.0
  9
$DIMTP
 40
0.0
  9
$DIMTM
 40
0.0
  9
$DIMTXT
 40
3.2
  9
$DIMCEN
 40
0.0
  9
$DIMTSZ
 40
0.0
  9
$DIMTOL
 70
     0
  9
$DIMLIM
 70
     0
  9
$DIMTIH
 70
     0
  9
$DIMTOH
 70
     0
  9
$DIMSE1
 70
     0
  9
$DIMSE2
 70
     0
  9
$DIMTAD
 70
     3
  9
$DIMZIN
 70
     8
  9
$DIMBLK
  1

  9
$DIMASO
 70
     1
  9
$DIMSHO
 70
     1
  9
$DIMPOST
  1

  9
$DIMAPOST
  1

  9
$DIMALT
 70
     0
  9
$DIMALTD
 70
     2
  9
$DIMALTF
 40
25.4
  9
$DIMLFAC
 40
1.0
  9
$DIMTOFL
 70
     1
  9
$DIMTVP
 40
0.0
  9
$DIMTIX
 70
     0
  9
$DIMSOXD
 70
     0
  9
$DIMSAH
 70
     1
  9
$DIMBLK1
  1

  9
$DIMBLK2
  1

  9
$DIMSTYLE
  2
STANDARD
  9
$DIMCLRD
 70
     0
  9
$DIMCLRE
 70
     0
  9
$DIMCLRT
 70
     0
  9
$DIMTFAC
 40
1.0
  9
$DIMGAP
 40
1.0
  9
$DIMJUST
 70
     0
  9
$DIMSD1
 70
     0
  9
$DIMSD2
 70
     0
  9
$DIMTOLJ
 70
     1
  9
$DIMTZIN
 70
     0
  9
$DIMALTZ
 70
     0
  9
$DIMALTTZ
 70
     0
  9
$DIMUPT
 70
     0
  9
$DIMDEC
 70
     4
  9
$DIMTDEC
 70
     4
  9
$DIMALTU
 70
     2
  9
$DIMALTTD
 70
     2
  9
$DIMTXSTY
  7
STANDARD
  9
$DIMAUNIT
 70
     0
  9
$DIMADEC
 70
     0
  9
$DIMALTRND
 40
0.0
  9
$DIMAZIN
 70
     0
  9
$DIMDSEP
 70
    46
  9
$DIMATFIT
 70
     3
  9
$DIMFRAC
 70
     0
  9
$DIMLDRBLK
  1

  9
$DIMLUNIT
 70
     2
  9
$DIMLWD
 70
    -2
  9
$DIMLWE
 70
    -2
  9
$DIMTMOVE
 70
     0
  9
$LUNITS
 70
     2
  9
$LUPREC
 70
     4
  9
$SKETCHINC
 40
1.0
  9
$FILLETRAD
 40
2.5
  9
$AUNITS
 70
     0
  9
$AUPREC
 70
     2
  9
$MENU
  1
.
  9
$ELEVATION
 40
0.0
  9
$PELEVATION
 40
0.0
  9
$THICKNESS
 40
0.0
  9
$LIMCHECK
 70
     0
  9
$CHAMFERA
 40
10.0
  9
$CHAMFERB
 40
10.0
  9
$CHAMFERC
 40
0.0
  9
$CHAMFERD
 40
0.0
  9
$SKPOLY
 70
     0
  9
$TDCREATE
 40
2451069.704442940
  9
$TDUCREATE
 40
2451069.329442940
  9
$TDUPDATE
 40
2457192.622908380
  9
$TDUUPDATE
 40
2457192.247908380
  9
$TDINDWG
 40
0.0000152431
  9
$TDUSRTIMER
 40
0.0000147569
  9
$USRTIMER
 70
     1
  9
$ANGBASE
 50
0.0
  9
$ANGDIR
 70
     0
  9
$PDMODE
 70
     0
  9
$PDSIZE
 40
0.0
  9
$PLINEWID
 40
0.0
  9
$SPLFRAME
 70
     0
  9
$SPLINETYPE
 70
     6
  9
$SPLINESEGS
 70
     8
  9
$HANDSEED
  5
505
  9
$SURFTAB1
 70
     6
  9
$SURFTAB2
 70
     6
  9
$SURFTYPE
 70
     6
  9
$SURFU
 70
     6
  9
$SURFV
 70
     6
  9
$UCSBASE
  2

  9
$UCSNAME
  2

  9
$UCSORG
 10
0.0
 20
0.0
 30
0.0
  9
$UCSXDIR
 10
1.0
 20
0.0
 30
0.0
  9
$UCSYDIR
 10
0.0
 20
1.0
 30
0.0
  9
$UCSORTHOREF
  2

  9
$UCSORTHOVIEW
 70
     0
  9
$UCSORGTOP
 10
0.0
 20
0.0
 30
0.0
  9
$UCSORGBOTTOM
 10
0.0
 20
0.0
 30
0.0
  9
$UCSORGLEFT
 10
0.0
 20
0.0
 30
0.0
  9
$UCSORGRIGHT
 10
0.0
 20
0.0
 30
0.0
  9
$UCSORGFRONT
 10
0.0
 20
0.0
 30
0.0
  9
$UCSORGBACK
 10
0.0
 20
0.0
 30
0.0
  9
$PUCSBASE
  2

  9
$PUCSNAME
  2

  9
$PUCSORG
 10
0.0
 20
0.0
 30
0.0
  9
$PUCSXDIR
 10
1.0
 20
0.0
 30
0.0
  9
$PUCSYDIR
 10
0.0
 20
1.0
 30
0.0
  9
$PUCSORTHOREF
  2

  9
$PUCSORTHOVIEW
 70
     0
  9
$PUCSORGTOP
 10
0.0
 20
0.0
 30
0.0
  9
$PUCSORGBOTTOM
 10
0.0
 20
0.0
 30
0.0
  9
$PUCSORGLEFT
 10
0.0
 20
0.0
 30
0.0
  9
$PUCSORGRIGHT
 10
0.0
 20
0.0
 30
0.0
  9
$PUCSORGFRONT
 10
0.0
 20
0.0
 30
0.0
  9
$PUCSORGBACK
 10
0.0
 20
0.0
 30
0.0
  9
$USERI1
 70
     0
  9
$USERI2
 70
     0
  9
$USERI3
 70
     0
  9
$USERI4
 70
     0
  9
$USERI5
 70
     0
  9
$USERR1
 40
0.0
  9
$USERR2
 40
0.0
  9
$USERR3
 40
0.0
  9
$USERR4
 40
0.0
  9
$USERR5
 40
0.0
  9
$WORLDVIEW
 70
     1
  9
$SHADEDGE
 70
     3
  9
$SHADEDIF
 70
    70
  9
$TILEMODE
 70
     1
  9
$MAXACTVP
 70
    16
  9
$PINSBASE
 10
0.0
 20
0.0
 30
0.0
  9
$PLIMCHECK
 70
     0
  9
$PEXTMIN
 10
1.000000000000000E+20
 20
1.000000000000000E+20
 30
1.000000000000000E+20
  9
$PEXTMAX
 10
-1.000000000000000E+20
 20
-1.000000000000000E+20
 30
-1.000000000000000E+20
  9
$PLIMMIN
 10
0.0
 20
0.0
  9
$PLIMMAX
 10
420.0
 20
297.0
  9
$UNITMODE
 70
     0
  9
$VISRETAIN
 70
     0
  9
$PLINEGEN
 70
     0
  9
$PSLTSCALE
 70
     0
  9
$TREEDEPTH
 70
  3020
  9
$CMLSTYLE
  2
STANDARD
  9
$CMLJUST
 70
     0
  9
$CMLSCALE
 40
1.0
  9
$PROXYGRAPHICS
 70
     1
  9
$MEASUREMENT
 70
     0
  9
$CELWEIGHT
370
    -1
  9
$ENDCAPS
280
     0
  9
$JOINSTYLE
280
     0
  9
$LWDISPLAY
290
     0
  9
$INSUNITS
 70
     0
  9
$HYPERLINKBASE
  1

  9
$STYLESHEET
  1

  9
$XEDIT
290
     1
  9
$CEPSNTYPE
380
     0
  9
$PSTYLEMODE
290
     1
  9
$FINGERPRINTGUID
  2
{BB982FDE-32F2-4F40-B164-1D8120EE282C}
  9
$VERSIONGUID
  2
{BD4C6BCC-99BC-4AE8-A63A-426BC07B1B6D}
  9
$EXTNAMES
290
     1
  9
$PSVPSCALE
 40
0.0
  9
$OLESTARTUP
290
     0
  0
ENDSEC
  0
SECTION
  2
CLASSES
  0
CLASS
  1
ACDBDICTIONARYWDFLT
  2
AcDbDictionaryWithDefault
  3
ObjectDBX Classes
 90
        0
280
     0
281
     0
  0
CLASS
  1
ACDBPLACEHOLDER
  2
AcDbPlaceHolder
  3
ObjectDBX Classes
 90
        0
280
     0
281
     0
  0
CLASS
  1
LAYOUT
  2
AcDbLayout
  3
ObjectDBX Classes
 90
        0
280
     0
281
     0
  0
CLASS
  1
DICTIONARYVAR
  2
AcDbDictionaryVar
  3
ObjectDBX Classes
 90
        0
280
     0
281
     0
  0
CLASS
  1
MATERIAL
  2
AcDbMaterial
  3
ObjectDBX Classes
 90
     1153
280
     0
281
     0
  0
CLASS
  1
VISUALSTYLE
  2
AcDbVisualStyle
  3
ObjectDBX Classes
 90
     4095
280
     0
281
     0
  0
CLASS
  1
TABLESTYLE
  2
AcDbTableStyle
  3
ObjectDBX Classes
 90
     4095
280
     0
281
     0
  0
CLASS
  1
SCALE
  2
AcDbScale
  3
ObjectDBX Classes
 90
     1153
280
     0
281
     0
  0
CLASS
  1
MLEADERSTYLE
  2
AcDbMLeaderStyle
  3
ACDB_MLEADERSTYLE_CLASS
 90
     4095
280
     0
281
     0
  0
CLASS
  1
ACDBSECTIONVIEWSTYLE
  2
AcDbSectionViewStyle
  3
ObjectDBX Classes
 90
     1025
280
     0
281
     0
  0
CLASS
  1
ACDBDETAILVIEWSTYLE
  2
AcDbDetailViewStyle
  3
ObjectDBX Classes
 90
     1025
280
     0
281
     0
  0
CLASS
  1
CELLSTYLEMAP
  2
AcDbCellStyleMap
  3
ObjectDBX Classes
 90
     1152
280
     0
281
     0
  0
ENDSEC
  0
SECTION
  2
TABLES
  0
TABLE
  2
VPORT
  5
229
330
0
100
AcDbSymbolTable
 70
     1
  0
VPORT
  5
44E
330
229
100
AcDbSymbolTableRecord
100
AcDbViewportTableRecord
  2
*ACTIVE
 70
     0
 10
0.0
 20
0.0
 11
1.0
 21
1.0
 12
383.277108666954
 22
189.4670663176651
 13
0.0
 23
0.0
 14
10.0
 24
10.0
 15
10.0
 25
10.0
 16
0.0
 26
0.0
 36
1.0
 17
0.0
 27
0.0
 37
0.0
 40
362.9687015586107
 41
1.899603698811096
 42
50.0
 43
0.0
 44
0.0
 50
0.0
 51
0.0
 71
     0
 72
   100
 73
     1
 74
     0
 75
     0
 76
     0
 77
     0
 78
     0
281
     0
 65
     1
110
0.0
120
0.0
130
0.0
111
1.0
121
0.0
131
0.0
112
0.0
122
1.0
132
0.0
 79
     0
146
0.0
1001
ACAD_NAV_VCDISPLAY
1070
     3
  0
ENDTAB
  0
TABLE
  2
LTYPE
  5
226
330
0
100
AcDbSymbolTable
 70
     4
  0
LTYPE
  5
234
330
226
100
AcDbSymbolTableRecord
100
AcDbLinetypeTableRecord
  2
BYBLOCK
 70
     0
  3

 72
    65
 73
     0
 40
0.0
  0
LTYPE
  5
235
330
226
100
AcDbSymbolTableRecord
100
AcDbLinetypeTableRecord
  2
BYLAYER
 70
     0
  3

 72
    65
 73
     0
 40
0.0
  0
LTYPE
  5
236
330
226
100
AcDbSymbolTableRecord
100
AcDbLinetypeTableRecord
  2
CONTINUOUS
 70
     0
  3
Solid line
 72
    65
 73
     0
 40
0.0
  0
LTYPE
  5
244
330
226
100
AcDbSymbolTableRecord
100
AcDbLinetypeTableRecord
  2
DASHED
 70
     0
  3
__ __ __ __ __ __ __ __ __ __ __ __ __ __ __ __
 72
    65
 73
     2
 40
0.75
 49
0.5
 74
     0
 49
-0.25
 74
     0
  0
LTYPE
  5
245
330
226
100
AcDbSymbolTableRecord
100
AcDbLinetypeTableRecord
  2
CENTER
 70
     0
  3
____ _ ____ _ ____ _ ____ _ ____ _ ____ _ ____ 
 72
    65
 73
     4
 40
2.0
 49
1.25
 74
     0
 49
-0.25
 74
     0
 49
0.25
 74
     0
 49
-0.25
 74
     0
  0
LTYPE
  5
246
330
226
100
AcDbSymbolTableRecord
100
AcDbLinetypeTableRecord
  2
PHANTOM
 70
     0
  3
______  __  __  ______  __  __  ______  __  __ 
 72
    65
 73
     6
 40
2.5
 49
1.25
 74
     0
 49
-0.25
 74
     0
 49
0.25
 74
     0
 49
-0.25
 74
     0
 49
0.25
 74
     0
 49
-0.25
 74
     0
  0
ENDTAB
  0
TABLE
  2
LAYER
  5
223
330
0
100
AcDbSymbolTable
 70
     8
  0
LAYER
  5
231
102
{ACAD_XDICTIONARY
360
4A9
102
}
330
223
100
AcDbSymbolTableRecord
100
AcDbLayerTableRecord
  2
0
 70
     0
 62
     7
  6
CONTINUOUS
370
    -3
390
457
  0
LAYER
  5
247
102
{ACAD_XDICTIONARY
360
4AB
102
}
330
223
100
AcDbSymbolTableRecord
100
AcDbLayerTableRecord
  2
4
 70
     0
 62
     1
  6
CENTER
370
    -3
390
457
  0
LAYER
  5
248
102
{ACAD_XDICTIONARY
360
4AD
102
}
330
223
100
AcDbSymbolTableRecord
100
AcDbLayerTableRecord
  2
5
 70
     0
 62
     6
  6
PHANTOM
370
    -3
390
457
  0
LAYER
  5
249
102
{ACAD_XDICTIONARY
360
4AF
102
}
330
223
100
AcDbSymbolTableRecord
100
AcDbLayerTableRecord
  2
1
 70
     0
 62
     7
  6
CONTINUOUS
370
    -3
390
457
  0
LAYER
  5
24A
102
{ACAD_XDICTIONARY
360
4B1
102
}
330
223
100
AcDbSymbolTableRecord
100
AcDbLayerTableRecord
  2
2
 70
     0
 62
     4
  6
CONTINUOUS
370
    -3
390
457
  0
LAYER
  5
24B
102
{ACAD_XDICTIONARY
360
4B3
102
}
330
223
100
AcDbSymbolTableRecord
100
AcDbLayerTableRecord
  2
3
 70
     0
 62
     2
  6
DASHED
370
    -3
390
457
  0
LAYER
  5
24C
102
{ACAD_XDICTIONARY
360
4B5
102
}
330
223
100
AcDbSymbolTableRecord
100
AcDbLayerTableRecord
  2
6
 70
     0
 62
     5
  6
CONTINUOUS
370
    -3
390
457
  0
LAYER
  5
24D
102
{ACAD_XDICTIONARY
360
4B7
102
}
330
223
100
AcDbSymbolTableRecord
100
AcDbLayerTableRecord
  2
7
 70
     0
 62
     3
  6
CONTINUOUS
370
    -3
390
457
  0
ENDTAB
  0
TABLE
  2
STYLE
  5
224
330
0
100
AcDbSymbolTable
 70
     1
  0
STYLE
  5
232
330
224
100
AcDbSymbolTableRecord
100
AcDbTextStyleTableRecord
  2
STANDARD
 70
     0
 40
0.0
 41
1.0
 50
0.0
 71
     0
 42
5.0
  3
txt
  4

  0
ENDTAB
  0
TABLE
  2
VIEW
  5
227
330
0
100
AcDbSymbolTable
 70
     0
  0
ENDTAB
  0
TABLE
  2
UCS
  5
228
330
0
100
AcDbSymbolTable
 70
     0
  0
ENDTAB
  0
TABLE
  2
APPID
  5
22A
330
0
100
AcDbSymbolTable
 70
     3
  0
APPID
  5
233
330
22A
100
AcDbSymbolTableRecord
100
AcDbRegAppTableRecord
  2
ACAD
 70
     0
  0
APPID
  5
4C3
330
22A
100
AcDbSymbolTableRecord
100
AcDbRegAppTableRecord
  2
ACAD_NAV_VCDISPLAY
 70
     0
  0
APPID
  5
4FC
330
22A
100
AcDbSymbolTableRecord
100
AcDbRegAppTableRecord
  2
ACAD_MLEADERVER
 70
     0
  0
ENDTAB
  0
TABLE
  2
DIMSTYLE
  5
22B
330
0
100
AcDbSymbolTable
 70
     1
100
AcDbDimStyleTable
 71
     0
  0
DIMSTYLE
105
24F
330
22B
100
AcDbSymbolTableRecord
100
AcDbDimStyleTableRecord
  2
STANDARD
 70
     0
 41
3.0
 42
1.0
 43
10.0
 44
1.0
 73
     0
 74
     0
 77
     3
 78
     8
140
3.2
141
0.0
147
1.0
172
     1
173
     1
284
     8
285
     8
286
     8
340
232
  0
ENDTAB
  0
TABLE
  2
BLOCK_RECORD
  5
222
330
0
100
AcDbSymbolTable
 70
     0
  0
BLOCK_RECORD
  5
23F
102
{ACAD_XDICTIONARY
360
451
102
}
330
222
100
AcDbSymbolTableRecord
100
AcDbBlockTableRecord
  2
*MODEL_SPACE
340
4A5
  0
BLOCK_RECORD
  5
23B
102
{ACAD_XDICTIONARY
360
44F
102
}
330
222
100
AcDbSymbolTableRecord
100
AcDbBlockTableRecord
  2
*PAPER_SPACE
340
4A6
  0
ENDTAB
  0
ENDSEC
  0
SECTION
  2
BLOCKS
  0
BLOCK
  5
240
330
23F
100
AcDbEntity
  8
0
100
AcDbBlockBegin
  2
*MODEL_SPACE
 70
     0
 10
0.0
 20
0.0
 30
0.0
  3
*MODEL_SPACE
  1

  0
ENDBLK
  5
241
330
23F
100
AcDbEntity
  8
0
100
AcDbBlockEnd
  0
BLOCK
  5
23C
330
23B
100
AcDbEntity
 67
     1
  8
0
100
AcDbBlockBegin
  2
*PAPER_SPACE
 70
     0
 10
0.0
 20
0.0
 30
0.0
  3
*PAPER_SPACE
  1

  0
ENDBLK
  5
23D
330
23B
100
AcDbEntity
 67
     1
  8
0
100
AcDbBlockEnd
  0
ENDSEC
  0
SECTION
  2
ENTITIES
  0
LINE
  5
257
330
23F
100
AcDbEntity
  8
4
  6
CENTER
100
AcDbLine
 10
521.017609
 20
195.4710689999998
 30
0.0
 11
536.217621
 21
195.4710689999998
 31
0.0
  0
LINE
  5
258
330
23F
100
AcDbEntity
  8
1
  6
Continuous
100
AcDbLine
 10
342.0
 20
200.471069
 30
0.0
 11
342.0
 21
284.4710689999999
 31
0.0
  0
LINE
  5
259
330
23F
100
AcDbEntity
  8
1
  6
Continuous
100
AcDbLine
 10
369.722748
 20
198.2433619999999
 30
0.0
 11
354.2276919999998
 21
274.9437869999998
 31
0.0
  0
LINE
  5
25A
330
23F
100
AcDbEntity
  8
1
  6
Continuous
100
AcDbLine
 10
342.0
 20
195.4710689999998
 30
0.0
 11
342.0
 21
115.4710689999999
 31
0.0
  0
LINE
  5
25B
330
23F
100
AcDbEntity
  8
1
  6
Continuous
100
AcDbLine
 10
353.8811949999998
 20
114.282959
 30
0.0
 11
369.7227779999999
 21
192.698776
 31
0.0
  0
LINE
  5
25C
330
23F
100
AcDbEntity
  8
1
  6
Continuous
100
AcDbLine
 10
354.0
 20
284.4710689999999
 30
0.0
 11
354.0
 21
271.4710689999999
 31
0.0
  0
LINE
  5
25D
330
23F
100
AcDbEntity
  8
1
  6
Continuous
100
AcDbLine
 10
342.0
 20
284.4710689999999
 30
0.0
 11
354.0
 21
284.4710689999999
 31
0.0
  0
LINE
  5
25E
330
23F
100
AcDbEntity
  8
1
  6
Continuous
100
AcDbLine
 10
342.0
 20
282.4710689999998
 30
0.0
 11
354.0
 21
282.4710689999998
 31
0.0
  0
LINE
  5
25F
330
23F
100
AcDbEntity
  8
1
  6
Continuous
100
AcDbLine
 10
340.0
 20
200.471069
 30
0.0
 11
342.0
 21
200.471069
 31
0.0
  0
LINE
  5
260
330
23F
100
AcDbEntity
  8
1
  6
Continuous
100
AcDbLine
 10
340.0
 20
190.4710689999998
 30
0.0
 11
340.0
 21
200.471069
 31
0.0
  0
LINE
  5
261
330
23F
100
AcDbEntity
  8
1
  6
Continuous
100
AcDbLine
 10
340.0
 20
190.4710689999998
 30
0.0
 11
342.0
 21
190.4710689999998
 31
0.0
  0
LINE
  5
262
330
23F
100
AcDbEntity
  8
1
  6
Continuous
100
AcDbLine
 10
340.0
 20
195.4710689999998
 30
0.0
 11
342.0
 21
195.4710689999998
 31
0.0
  0
LINE
  5
263
330
23F
100
AcDbEntity
  8
1
  6
Continuous
100
AcDbLine
 10
336.0
 20
121.4710689999999
 30
0.0
 11
342.0
 21
121.4710689999999
 31
0.0
  0
LINE
  5
264
330
23F
100
AcDbEntity
  8
1
  6
Continuous
100
AcDbLine
 10
336.0
 20
109.471069
 30
0.0
 11
346.2499999999999
 21
109.471069
 31
0.0
  0
LINE
  5
265
330
23F
100
AcDbEntity
  8
1
  6
Continuous
100
AcDbLine
 10
342.0
 20
113.721069
 30
0.0
 11
342.0
 21
109.471069
 31
0.0
  0
LINE
  5
266
330
23F
100
AcDbEntity
  8
1
  6
Continuous
100
AcDbLine
 10
354.0
 20
113.721069
 30
0.0
 11
354.0
 21
109.471069
 31
0.0
  0
LINE
  5
267
330
23F
100
AcDbEntity
  8
1
  6
Continuous
100
AcDbLine
 10
355.3333129999999
 20
121.4710689999999
 30
0.0
 11
360.0
 21
121.4710689999999
 31
0.0
  0
LINE
  5
268
330
23F
100
AcDbEntity
  8
1
  6
Continuous
100
AcDbLine
 10
506.6176449999998
 20
284.4710689999999
 30
0.0
 11
523.117645
 21
284.4710689999999
 31
0.0
  0
LINE
  5
269
330
23F
100
AcDbEntity
  8
1
  6
Continuous
100
AcDbLine
 10
506.6176449999998
 20
282.4710689999998
 30
0.0
 11
523.117645
 21
282.4710689999998
 31
0.0
  0
LINE
  5
26A
330
23F
100
AcDbEntity
  8
4
  6
CENTER
100
AcDbLine
 10
519.617645
 20
275.471069
 30
0.0
 11
531.117645
 21
275.471069
 31
0.0
  0
LINE
  5
26B
330
23F
100
AcDbEntity
  8
4
  6
CENTER
100
AcDbLine
 10
525.117645
 20
115.4710689999999
 30
0.0
 11
539.117645
 21
115.4710689999999
 31
0.0
  0
LINE
  5
26C
330
23F
100
AcDbEntity
  8
1
  6
Continuous
100
AcDbLine
 10
525.617645
 20
281.7210689999999
 30
0.0
 11
525.617645
 21
181.471069
 31
0.0
  0
LINE
  5
26D
330
23F
100
AcDbEntity
  8
1
  6
Continuous
100
AcDbLine
 10
527.617645
 20
281.471069
 30
0.0
 11
527.617645
 21
181.471069
 31
0.0
  0
LINE
  5
26E
330
23F
100
AcDbEntity
  8
1
  6
Continuous
100
AcDbLine
 10
528.617645
 20
209.4710689999998
 30
0.0
 11
528.617645
 21
109.471069
 31
0.0
  0
LINE
  5
26F
330
23F
100
AcDbEntity
  8
1
  6
Continuous
100
AcDbLine
 10
530.617645
 20
209.4710689999998
 30
0.0
 11
530.617645
 21
109.2210689999999
 31
0.0
  0
LINE
  5
270
330
23F
100
AcDbEntity
  8
1
  6
Continuous
100
AcDbLine
 10
531.217621
 20
208.471069
 30
0.0
 11
531.217621
 21
182.471069
 31
0.0
  0
LINE
  5
271
330
23F
100
AcDbEntity
  8
1
  6
Continuous
100
AcDbLine
 10
525.017609
 20
208.471069
 30
0.0
 11
525.017609
 21
182.471069
 31
0.0
  0
LINE
  5
272
330
23F
100
AcDbEntity
  8
1
  6
Continuous
100
AcDbLine
 10
523.0176089999998
 20
199.971069
 30
0.0
 11
523.0176089999998
 21
190.9710689999998
 31
0.0
  0
LINE
  5
273
330
23F
100
AcDbEntity
  8
1
  6
Continuous
100
AcDbLine
 10
532.717621
 20
200.471069
 30
0.0
 11
532.717621
 21
190.4710689999998
 31
0.0
  0
LINE
  5
274
330
23F
100
AcDbEntity
  8
1
  6
Continuous
100
AcDbLine
 10
525.017609
 20
208.471069
 30
0.0
 11
525.617645
 21
208.471069
 31
0.0
  0
LINE
  5
275
330
23F
100
AcDbEntity
  8
1
  6
Continuous
100
AcDbLine
 10
525.017609
 20
182.471069
 30
0.0
 11
525.617645
 21
182.471069
 31
0.0
  0
LINE
  5
276
330
23F
100
AcDbEntity
  8
1
  6
Continuous
100
AcDbLine
 10
530.617645
 20
208.471069
 30
0.0
 11
531.217621
 21
208.471069
 31
0.0
  0
LINE
  5
277
330
23F
100
AcDbEntity
  8
1
  6
Continuous
100
AcDbLine
 10
530.617645
 20
182.471069
 30
0.0
 11
531.217621
 21
182.471069
 31
0.0
  0
LINE
  5
278
330
23F
100
AcDbEntity
  8
1
  6
Continuous
100
AcDbLine
 10
523.517609
 20
200.471069
 30
0.0
 11
525.017609
 21
200.471069
 31
0.0
  0
LINE
  5
279
330
23F
100
AcDbEntity
  8
1
  6
Continuous
100
AcDbLine
 10
523.517609
 20
190.4710689999998
 30
0.0
 11
525.017609
 21
190.4710689999998
 31
0.0
  0
LINE
  5
27A
330
23F
100
AcDbEntity
  8
1
  6
Continuous
100
AcDbLine
 10
531.217621
 20
200.471069
 30
0.0
 11
532.717621
 21
200.471069
 31
0.0
  0
LINE
  5
27B
330
23F
100
AcDbEntity
  8
1
  6
Continuous
100
AcDbLine
 10
531.217621
 20
190.4710689999998
 30
0.0
 11
532.717621
 21
190.4710689999998
 31
0.0
  0
LINE
  5
27C
330
23F
100
AcDbEntity
  8
1
  6
Continuous
100
AcDbLine
 10
525.617645
 20
181.471069
 30
0.0
 11
527.617645
 21
181.471069
 31
0.0
  0
LINE
  5
27D
330
23F
100
AcDbEntity
  8
1
  6
Continuous
100
AcDbLine
 10
528.617645
 20
209.4710689999998
 30
0.0
 11
530.617645
 21
209.4710689999998
 31
0.0
  0
LINE
  5
27E
330
23F
100
AcDbEntity
  8
1
  6
Continuous
100
AcDbLine
 10
532.717621
 20
197.8710629999999
 30
0.0
 11
533.7176209999999
 21
197.8710629999999
 31
0.0
  0
LINE
  5
27F
330
23F
100
AcDbEntity
  8
1
  6
Continuous
100
AcDbLine
 10
532.717621
 20
193.071075
 30
0.0
 11
533.7176209999999
 21
193.071075
 31
0.0
  0
LINE
  5
280
330
23F
100
AcDbEntity
  8
1
  6
Continuous
100
AcDbLine
 10
527.617645
 20
187.721069
 30
0.0
 11
528.617645
 21
187.721069
 31
0.0
  0
LINE
  5
281
330
23F
100
AcDbEntity
  8
1
  6
Continuous
100
AcDbLine
 10
527.617645
 20
203.2210689999998
 30
0.0
 11
528.617645
 21
203.2210689999998
 31
0.0
  0
LINE
  5
282
330
23F
100
AcDbEntity
  8
1
  6
Continuous
100
AcDbLine
 10
525.117645
 20
282.4710689999998
 30
0.0
 11
525.117645
 21
269.221069
 31
0.0
  0
LINE
  5
283
330
23F
100
AcDbEntity
  8
1
  6
Continuous
100
AcDbLine
 10
525.117645
 20
281.7210689999999
 30
0.0
 11
525.617645
 21
281.7210689999999
 31
0.0
  0
LINE
  5
284
330
23F
100
AcDbEntity
  8
1
  6
Continuous
100
AcDbLine
 10
525.117645
 20
269.221069
 30
0.0
 11
525.617645
 21
269.221069
 31
0.0
  0
LINE
  5
285
330
23F
100
AcDbEntity
  8
1
  6
Continuous
100
AcDbLine
 10
525.617645
 20
281.471069
 30
0.0
 11
527.617645
 21
281.471069
 31
0.0
  0
LINE
  5
286
330
23F
100
AcDbEntity
  8
1
  6
Continuous
100
AcDbLine
 10
523.117645
 20
282.4710689999998
 30
0.0
 11
523.117645
 21
269.4710689999999
 31
0.0
  0
LINE
  5
287
330
23F
100
AcDbEntity
  8
1
  6
Continuous
100
AcDbLine
 10
523.117645
 20
269.4710689999999
 30
0.0
 11
525.117645
 21
269.4710689999999
 31
0.0
  0
LINE
  5
288
330
23F
100
AcDbEntity
  8
1
  6
Continuous
100
AcDbLine
 10
506.6176449999998
 20
284.4710689999999
 30
0.0
 11
506.6176449999998
 21
282.4710689999998
 31
0.0
  0
LINE
  5
289
330
23F
100
AcDbEntity
  8
4
  6
CENTER
100
AcDbLine
 10
518.617645
 20
286.4710689999999
 30
0.0
 11
518.617645
 21
280.4710689999998
 31
0.0
  0
LINE
  5
28A
330
23F
100
AcDbEntity
  8
4
  6
CENTER
100
AcDbLine
 10
511.617645
 20
286.4710689999999
 30
0.0
 11
511.617645
 21
280.4710689999998
 31
0.0
  0
LINE
  5
28B
330
23F
100
AcDbEntity
  8
1
  6
Continuous
100
AcDbLine
 10
522.117645
 20
279.471069
 30
0.0
 11
523.117645
 21
279.471069
 31
0.0
  0
LINE
  5
28C
330
23F
100
AcDbEntity
  8
1
  6
Continuous
100
AcDbLine
 10
522.117645
 20
271.4710689999999
 30
0.0
 11
523.117645
 21
271.4710689999999
 31
0.0
  0
LINE
  5
28D
330
23F
100
AcDbEntity
  8
1
  6
Continuous
100
AcDbLine
 10
521.617645
 20
278.971069
 30
0.0
 11
521.617645
 21
271.9710689999998
 31
0.0
  0
LINE
  5
28E
330
23F
100
AcDbEntity
  8
1
  6
Continuous
100
AcDbLine
 10
527.617645
 20
277.8710629999998
 30
0.0
 11
528.817657
 21
277.8710629999998
 31
0.0
  0
LINE
  5
28F
330
23F
100
AcDbEntity
  8
1
  6
Continuous
100
AcDbLine
 10
527.617645
 20
273.071075
 30
0.0
 11
528.817657
 21
273.071075
 31
0.0
  0
LINE
  5
290
330
23F
100
AcDbEntity
  8
1
  6
Continuous
100
AcDbLine
 10
531.117645
 20
121.4710689999999
 30
0.0
 11
537.117645
 21
121.4710689999999
 31
0.0
  0
LINE
  5
291
330
23F
100
AcDbEntity
  8
1
  6
Continuous
100
AcDbLine
 10
528.617645
 20
109.471069
 30
0.0
 11
530.617645
 21
109.471069
 31
0.0
  0
LINE
  5
292
330
23F
100
AcDbEntity
  8
1
  6
Continuous
100
AcDbLine
 10
531.117645
 20
121.7210689999999
 30
0.0
 11
531.117645
 21
109.2210689999999
 31
0.0
  0
LINE
  5
293
330
23F
100
AcDbEntity
  8
1
  6
Continuous
100
AcDbLine
 10
530.617645
 20
121.7210689999999
 30
0.0
 11
531.117645
 21
121.7210689999999
 31
0.0
  0
LINE
  5
294
330
23F
100
AcDbEntity
  8
1
  6
Continuous
100
AcDbLine
 10
530.617645
 20
109.2210689999999
 30
0.0
 11
531.117645
 21
109.2210689999999
 31
0.0
  0
LINE
  5
295
330
23F
100
AcDbEntity
  8
1
  6
Continuous
100
AcDbLine
 10
537.117645
 20
121.4710689999999
 30
0.0
 11
537.117645
 21
109.471069
 31
0.0
  0
LINE
  5
296
330
23F
100
AcDbEntity
  8
1
  6
Continuous
100
AcDbLine
 10
535.117645
 20
121.4710689999999
 30
0.0
 11
535.117645
 21
109.471069
 31
0.0
  0
LINE
  5
297
330
23F
100
AcDbEntity
  8
1
  6
Continuous
100
AcDbLine
 10
527.117645
 20
118.971069
 30
0.0
 11
527.117645
 21
111.971069
 31
0.0
  0
LINE
  5
298
330
23F
100
AcDbEntity
  8
1
  6
Continuous
100
AcDbLine
 10
527.617645
 20
119.4710689999999
 30
0.0
 11
528.617645
 21
119.4710689999999
 31
0.0
  0
LINE
  5
299
330
23F
100
AcDbEntity
  8
1
  6
Continuous
100
AcDbLine
 10
527.617645
 20
111.471069
 30
0.0
 11
528.617645
 21
111.471069
 31
0.0
  0
LINE
  5
29A
330
23F
100
AcDbEntity
  8
1
  6
Continuous
100
AcDbLine
 10
531.117645
 20
109.471069
 30
0.0
 11
537.117645
 21
109.471069
 31
0.0
  0
LINE
  5
29B
330
23F
100
AcDbEntity
  8
1
  6
Continuous
100
AcDbLine
 10
229.217941
 20
340.6921389999999
 30
0.0
 11
229.217941
 21
367.9421389999998
 31
0.0
  0
LINE
  5
29C
330
23F
100
AcDbEntity
  8
1
  6
Continuous
100
AcDbLine
 10
228.6179349999999
 20
340.9421389999998
 30
0.0
 11
228.6179349999999
 21
368.942139
 31
0.0
  0
LINE
  5
29D
330
23F
100
AcDbEntity
  8
1
  6
Continuous
100
AcDbLine
 10
226.6179349999999
 20
340.9421389999998
 30
0.0
 11
226.6179349999999
 21
368.942139
 31
0.0
  0
LINE
  5
29E
330
23F
100
AcDbEntity
  8
1
  6
Continuous
100
AcDbLine
 10
225.117935
 20
344.5421449999998
 30
0.0
 11
225.117935
 21
349.3421329999998
 31
0.0
  0
LINE
  5
29F
330
23F
100
AcDbEntity
  8
4
  6
CENTER
100
AcDbLine
 10
249.6179349999999
 20
346.9421389999998
 30
0.0
 11
218.1179349999999
 21
346.9421389999998
 31
0.0
  0
LINE
  5
2A0
330
23F
100
AcDbEntity
  8
1
  6
Continuous
100
AcDbLine
 10
245.6179349999999
 20
340.9421389999998
 30
0.0
 11
229.217941
 21
340.9421389999998
 31
0.0
  0
LINE
  5
2A1
330
23F
100
AcDbEntity
  8
1
  6
Continuous
100
AcDbLine
 10
245.6179349999999
 20
352.9421389999998
 30
0.0
 11
229.217941
 21
352.9421389999998
 31
0.0
  0
LINE
  5
2A2
330
23F
100
AcDbEntity
  8
1
  6
Continuous
100
AcDbLine
 10
229.217941
 20
340.6921389999999
 30
0.0
 11
228.6179349999999
 21
340.6921389999999
 31
0.0
  0
LINE
  5
2A3
330
23F
100
AcDbEntity
  8
1
  6
Continuous
100
AcDbLine
 10
229.217941
 20
353.1921389999998
 30
0.0
 11
228.6179349999999
 21
353.1921389999998
 31
0.0
  0
LINE
  5
2A4
330
23F
100
AcDbEntity
  8
1
  6
Continuous
100
AcDbLine
 10
228.6179349999999
 20
340.9421389999998
 30
0.0
 11
226.6179349999999
 21
340.9421389999998
 31
0.0
  0
LINE
  5
2A5
330
23F
100
AcDbEntity
  8
1
  6
Continuous
100
AcDbLine
 10
226.6179349999999
 20
344.5421449999998
 30
0.0
 11
225.117935
 21
344.5421449999998
 31
0.0
  0
LINE
  5
2A6
330
23F
100
AcDbEntity
  8
1
  6
Continuous
100
AcDbLine
 10
226.6179349999999
 20
349.3421329999998
 30
0.0
 11
225.117935
 21
349.3421329999998
 31
0.0
  0
LINE
  5
2A7
330
23F
100
AcDbEntity
  8
1
  6
Continuous
100
AcDbLine
 10
228.6179349999999
 20
368.942139
 30
0.0
 11
226.6179349999999
 21
368.942139
 31
0.0
  0
LINE
  5
2A8
330
23F
100
AcDbEntity
  8
1
  6
Continuous
100
AcDbLine
 10
225.617935
 20
340.9421389999998
 30
0.0
 11
225.617935
 21
344.5421449999998
 31
0.0
  0
LINE
  5
2A9
330
23F
100
AcDbEntity
  8
1
  6
Continuous
100
AcDbLine
 10
223.617935
 20
340.9421389999998
 30
0.0
 11
223.617935
 21
368.942139
 31
0.0
  0
LINE
  5
2AA
330
23F
100
AcDbEntity
  8
1
  6
Continuous
100
AcDbLine
 10
223.017929
 20
341.942139
 30
0.0
 11
223.017929
 21
367.9421389999998
 31
0.0
  0
LINE
  5
2AB
330
23F
100
AcDbEntity
  8
1
  6
Continuous
100
AcDbLine
 10
221.517929
 20
349.942139
 30
0.0
 11
221.517929
 21
359.9421389999998
 31
0.0
  0
LINE
  5
2AC
330
23F
100
AcDbEntity
  8
1
  6
Continuous
100
AcDbLine
 10
220.017929
 20
352.542145
 30
0.0
 11
220.017929
 21
357.3421329999998
 31
0.0
  0
LINE
  5
2AD
330
23F
100
AcDbEntity
  8
1
  6
Continuous
100
AcDbLine
 10
225.617935
 20
340.9421389999998
 30
0.0
 11
223.617935
 21
340.9421389999998
 31
0.0
  0
LINE
  5
2AE
330
23F
100
AcDbEntity
  8
4
  6
CENTER
100
AcDbLine
 10
233.217941
 20
354.942139
 30
0.0
 11
215.117935
 21
354.942139
 31
0.0
  0
LINE
  5
2AF
330
23F
100
AcDbEntity
  8
1
  6
Continuous
100
AcDbLine
 10
226.6179349999999
 20
362.692139
 30
0.0
 11
225.617935
 21
362.692139
 31
0.0
  0
LINE
  5
2B0
330
23F
100
AcDbEntity
  8
1
  6
Continuous
100
AcDbLine
 10
225.617935
 20
368.942139
 30
0.0
 11
223.617935
 21
368.942139
 31
0.0
  0
LINE
  5
2B1
330
23F
100
AcDbEntity
  8
1
  6
Continuous
100
AcDbLine
 10
223.617935
 20
341.942139
 30
0.0
 11
223.017929
 21
341.942139
 31
0.0
  0
LINE
  5
2B2
330
23F
100
AcDbEntity
  8
1
  6
Continuous
100
AcDbLine
 10
229.217941
 20
367.9421389999998
 30
0.0
 11
228.6179349999999
 21
367.9421389999998
 31
0.0
  0
LINE
  5
2B3
330
23F
100
AcDbEntity
  8
1
  6
Continuous
100
AcDbLine
 10
223.617935
 20
367.9421389999998
 30
0.0
 11
223.017929
 21
367.9421389999998
 31
0.0
  0
LINE
  5
2B4
330
23F
100
AcDbEntity
  8
1
  6
Continuous
100
AcDbLine
 10
223.017929
 20
349.942139
 30
0.0
 11
221.517929
 21
349.942139
 31
0.0
  0
LINE
  5
2B5
330
23F
100
AcDbEntity
  8
1
  6
Continuous
100
AcDbLine
 10
223.017929
 20
359.9421389999998
 30
0.0
 11
221.517929
 21
359.9421389999998
 31
0.0
  0
LINE
  5
2B6
330
23F
100
AcDbEntity
  8
1
  6
Continuous
100
AcDbLine
 10
221.517929
 20
357.3421329999998
 30
0.0
 11
220.017929
 21
357.3421329999998
 31
0.0
  0
LINE
  5
2B7
330
23F
100
AcDbEntity
  8
1
  6
Continuous
100
AcDbLine
 10
221.517929
 20
352.542145
 30
0.0
 11
220.017929
 21
352.542145
 31
0.0
  0
LINE
  5
2B8
330
23F
100
AcDbEntity
  8
1
  6
Continuous
100
AcDbLine
 10
223.117935
 20
340.6921389999999
 30
0.0
 11
223.117935
 21
341.942139
 31
0.0
  0
LINE
  5
2B9
330
23F
100
AcDbEntity
  8
1
  6
Continuous
100
AcDbLine
 10
219.117935
 20
332.942139
 30
0.0
 11
219.117935
 21
340.9421389999998
 31
0.0
  0
LINE
  5
2BA
330
23F
100
AcDbEntity
  8
1
  6
Continuous
100
AcDbLine
 10
217.117935
 20
332.942139
 30
0.0
 11
217.117935
 21
340.9421389999998
 31
0.0
  0
LINE
  5
2BB
330
23F
100
AcDbEntity
  8
1
  6
Continuous
100
AcDbLine
 10
221.117935
 20
342.9421389999999
 30
0.0
 11
221.117935
 21
350.9421389999998
 31
0.0
  0
LINE
  5
2BC
330
23F
100
AcDbEntity
  8
1
  6
Continuous
100
AcDbLine
 10
219.117935
 20
332.942139
 30
0.0
 11
217.117935
 21
332.942139
 31
0.0
  0
LINE
  5
2BD
330
23F
100
AcDbEntity
  8
1
  6
Continuous
100
AcDbLine
 10
219.117935
 20
360.942139
 30
0.0
 11
217.117935
 21
360.942139
 31
0.0
  0
LINE
  5
2BE
330
23F
100
AcDbEntity
  8
1
  6
Continuous
100
AcDbLine
 10
221.117935
 20
340.9421389999998
 30
0.0
 11
219.117935
 21
340.9421389999998
 31
0.0
  0
LINE
  5
2BF
330
23F
100
AcDbEntity
  8
1
  6
Continuous
100
AcDbLine
 10
220.017929
 20
352.9421389999998
 30
0.0
 11
219.117935
 21
352.9421389999998
 31
0.0
  0
LINE
  5
2C0
330
23F
100
AcDbEntity
  8
1
  6
Continuous
100
AcDbLine
 10
221.117935
 20
342.9421389999999
 30
0.0
 11
219.117935
 21
342.9421389999999
 31
0.0
  0
LINE
  5
2C1
330
23F
100
AcDbEntity
  8
1
  6
Continuous
100
AcDbLine
 10
221.117935
 20
350.9421389999998
 30
0.0
 11
219.117935
 21
350.9421389999998
 31
0.0
  0
LINE
  5
2C2
330
23F
100
AcDbEntity
  8
1
  6
Continuous
100
AcDbLine
 10
219.117935
 20
352.9421389999998
 30
0.0
 11
219.117935
 21
360.942139
 31
0.0
  0
LINE
  5
2C3
330
23F
100
AcDbEntity
  8
1
  6
Continuous
100
AcDbLine
 10
217.117935
 20
352.9421389999998
 30
0.0
 11
217.117935
 21
360.942139
 31
0.0
  0
LINE
  5
2C4
330
23F
100
AcDbEntity
  8
1
  6
Continuous
100
AcDbLine
 10
223.633621
 20
340.6921389999999
 30
0.0
 11
223.117935
 21
340.6921389999999
 31
0.0
  0
LINE
  5
2C5
330
23F
100
AcDbEntity
  8
1
  6
Continuous
100
AcDbLine
 10
221.117935
 20
344.9421389999998
 30
0.0
 11
219.9179379999999
 21
344.9421389999998
 31
0.0
  0
LINE
  5
2C6
330
23F
100
AcDbEntity
  8
1
  6
Continuous
100
AcDbLine
 10
221.117935
 20
348.9421389999998
 30
0.0
 11
219.9179379999999
 21
348.9421389999998
 31
0.0
  0
LINE
  5
2C7
330
23F
100
AcDbEntity
  8
1
  6
Continuous
100
AcDbLine
 10
231.217941
 20
352.9421389999998
 30
0.0
 11
231.217941
 21
359.4421389999998
 31
0.0
  0
LINE
  5
2C8
330
23F
100
AcDbEntity
  8
1
  6
Continuous
100
AcDbLine
 10
230.717941
 20
359.9421389999998
 30
0.0
 11
229.217941
 21
359.9421389999998
 31
0.0
  0
LINE
  5
2C9
330
23F
100
AcDbEntity
  8
4
  6
CENTER
100
AcDbLine
 10
221.117935
 20
336.9421389999998
 30
0.0
 11
215.117935
 21
336.9421389999998
 31
0.0
  0
LINE
  5
2CA
330
23F
100
AcDbEntity
  8
4
  6
CENTER
100
AcDbLine
 10
221.117935
 20
356.942139
 30
0.0
 11
215.117935
 21
356.942139
 31
0.0
  0
LINE
  5
2CB
330
23F
100
AcDbEntity
  8
1
  6
Continuous
100
AcDbLine
 10
224.6179349999999
 20
339.638885
 30
0.0
 11
224.6179349999999
 21
340.40625
 31
0.0
  0
LINE
  5
2CC
330
23F
100
AcDbEntity
  8
1
  6
Continuous
100
AcDbLine
 10
226.6179349999999
 20
340.9421389999998
 30
0.0
 11
224.6179349999999
 21
340.406219
 31
0.0
  0
LINE
  5
2CD
330
23F
100
AcDbEntity
  8
1
  6
Continuous
100
AcDbLine
 10
227.135574
 20
339.010284
 30
0.0
 11
225.8767549999999
 21
338.672974
 31
0.0
  0
LINE
  5
2CE
330
23F
100
AcDbEntity
  8
1
  6
Continuous
100
AcDbLine
 10
225.61795
 20
340.942108
 30
0.0
 11
226.11792
 21
340.808136
 31
0.0
  0
LINE
  5
2CF
330
23F
100
AcDbEntity
  8
1
  6
Continuous
100
AcDbLine
 10
226.11795
 20
338.737579
 30
0.0
 11
226.359116
 21
338.672974
 31
0.0
  0
LINE
  5
2D0
330
23F
100
AcDbEntity
  8
1
  6
Continuous
100
AcDbLine
 10
225.617935
 20
349.3421329999998
 30
0.0
 11
225.617935
 21
368.942139
 31
0.0
  0
LINE
  5
2D1
330
23F
100
AcDbEntity
  8
1
  6
Continuous
100
AcDbLine
 10
229.217941
 20
59.25
 30
0.0
 11
229.217941
 21
32.0
 31
0.0
  0
LINE
  5
2D2
330
23F
100
AcDbEntity
  8
1
  6
Continuous
100
AcDbLine
 10
228.6179349999999
 20
59.25
 30
0.0
 11
228.6179349999999
 21
31.0
 31
0.0
  0
LINE
  5
2D3
330
23F
100
AcDbEntity
  8
4
  6
CENTER
100
AcDbLine
 10
249.6179349999999
 20
53.0
 30
0.0
 11
218.1179349999999
 21
53.0
 31
0.0
  0
LINE
  5
2D4
330
23F
100
AcDbEntity
  8
1
  6
Continuous
100
AcDbLine
 10
245.6179349999999
 20
59.0
 30
0.0
 11
229.217941
 21
59.0
 31
0.0
  0
LINE
  5
2D5
330
23F
100
AcDbEntity
  8
1
  6
Continuous
100
AcDbLine
 10
245.6179349999999
 20
47.0
 30
0.0
 11
231.217941
 21
47.0
 31
0.0
  0
LINE
  5
2D6
330
23F
100
AcDbEntity
  8
1
  6
Continuous
100
AcDbLine
 10
229.217941
 20
59.25
 30
0.0
 11
228.6179349999999
 21
59.25
 31
0.0
  0
LINE
  5
2D7
330
23F
100
AcDbEntity
  8
1
  6
Continuous
100
AcDbLine
 10
228.6179349999999
 20
59.0
 30
0.0
 11
226.6179349999999
 21
59.0
 31
0.0
  0
LINE
  5
2D8
330
23F
100
AcDbEntity
  8
1
  6
Continuous
100
AcDbLine
 10
228.6179349999999
 20
31.0
 30
0.0
 11
226.6179349999999
 21
31.0
 31
0.0
  0
LINE
  5
2D9
330
23F
100
AcDbEntity
  8
1
  6
Continuous
100
AcDbLine
 10
225.617935
 20
59.0
 30
0.0
 11
225.617935
 21
31.0
 31
0.0
  0
LINE
  5
2DA
330
23F
100
AcDbEntity
  8
1
  6
Continuous
100
AcDbLine
 10
223.617935
 20
59.0
 30
0.0
 11
223.617935
 21
31.0
 31
0.0
  0
LINE
  5
2DB
330
23F
100
AcDbEntity
  8
1
  6
Continuous
100
AcDbLine
 10
223.017929
 20
58.0
 30
0.0
 11
223.017929
 21
57.62451899999999
 31
0.0
  0
LINE
  5
2DC
330
23F
100
AcDbEntity
  8
1
  6
Continuous
100
AcDbLine
 10
221.517929
 20
47.040405
 30
0.0
 11
221.517929
 21
40.0
 31
0.0
  0
LINE
  5
2DD
330
23F
100
AcDbEntity
  8
1
  6
Continuous
100
AcDbLine
 10
220.017929
 20
47.0
 30
0.0
 11
220.017929
 21
42.600006
 31
0.0
  0
LINE
  5
2DE
330
23F
100
AcDbEntity
  8
1
  6
Continuous
100
AcDbLine
 10
225.617935
 20
59.0
 30
0.0
 11
223.617935
 21
59.0
 31
0.0
  0
LINE
  5
2DF
330
23F
100
AcDbEntity
  8
4
  6
CENTER
100
AcDbLine
 10
233.217941
 20
45.0
 30
0.0
 11
215.117935
 21
45.0
 31
0.0
  0
LINE
  5
2E0
330
23F
100
AcDbEntity
  8
1
  6
Continuous
100
AcDbLine
 10
226.6179349999999
 20
37.25
 30
0.0
 11
225.617935
 21
37.25
 31
0.0
  0
LINE
  5
2E1
330
23F
100
AcDbEntity
  8
1
  6
Continuous
100
AcDbLine
 10
225.617935
 20
31.0
 30
0.0
 11
223.617935
 21
31.0
 31
0.0
  0
LINE
  5
2E2
330
23F
100
AcDbEntity
  8
1
  6
Continuous
100
AcDbLine
 10
223.117935
 20
58.0
 30
0.0
 11
223.017929
 21
58.0
 31
0.0
  0
LINE
  5
2E3
330
23F
100
AcDbEntity
  8
1
  6
Continuous
100
AcDbLine
 10
229.217941
 20
32.0
 30
0.0
 11
228.6179349999999
 21
32.0
 31
0.0
  0
LINE
  5
2E4
330
23F
100
AcDbEntity
  8
1
  6
Continuous
100
AcDbLine
 10
223.617935
 20
32.0
 30
0.0
 11
223.017929
 21
32.0
 31
0.0
  0
LINE
  5
2E5
330
23F
100
AcDbEntity
  8
1
  6
Continuous
100
AcDbLine
 10
223.017929
 20
40.0
 30
0.0
 11
221.517929
 21
40.0
 31
0.0
  0
LINE
  5
2E6
330
23F
100
AcDbEntity
  8
1
  6
Continuous
100
AcDbLine
 10
221.517929
 20
42.600006
 30
0.0
 11
220.017929
 21
42.600006
 31
0.0
  0
LINE
  5
2E7
330
23F
100
AcDbEntity
  8
1
  6
Continuous
100
AcDbLine
 10
223.117935
 20
59.25
 30
0.0
 11
223.117935
 21
46.74999999999999
 31
0.0
  0
LINE
  5
2E8
330
23F
100
AcDbEntity
  8
1
  6
Continuous
100
AcDbLine
 10
219.117935
 20
67.0
 30
0.0
 11
219.117935
 21
59.0
 31
0.0
  0
LINE
  5
2E9
330
23F
100
AcDbEntity
  8
1
  6
Continuous
100
AcDbLine
 10
217.117935
 20
67.0
 30
0.0
 11
217.117935
 21
59.0
 31
0.0
  0
LINE
  5
2EA
330
23F
100
AcDbEntity
  8
1
  6
Continuous
100
AcDbLine
 10
221.117935
 20
57.0
 30
0.0
 11
221.117935
 21
49.0
 31
0.0
  0
LINE
  5
2EB
330
23F
100
AcDbEntity
  8
1
  6
Continuous
100
AcDbLine
 10
219.117935
 20
67.0
 30
0.0
 11
217.117935
 21
67.0
 31
0.0
  0
LINE
  5
2EC
330
23F
100
AcDbEntity
  8
1
  6
Continuous
100
AcDbLine
 10
219.117935
 20
39.0
 30
0.0
 11
217.117935
 21
39.0
 31
0.0
  0
LINE
  5
2ED
330
23F
100
AcDbEntity
  8
1
  6
Continuous
100
AcDbLine
 10
221.117935
 20
59.0
 30
0.0
 11
219.117935
 21
59.0
 31
0.0
  0
LINE
  5
2EE
330
23F
100
AcDbEntity
  8
1
  6
Continuous
100
AcDbLine
 10
221.117935
 20
47.0
 30
0.0
 11
219.117935
 21
47.0
 31
0.0
  0
LINE
  5
2EF
330
23F
100
AcDbEntity
  8
1
  6
Continuous
100
AcDbLine
 10
221.117935
 20
57.0
 30
0.0
 11
219.117935
 21
57.0
 31
0.0
  0
LINE
  5
2F0
330
23F
100
AcDbEntity
  8
1
  6
Continuous
100
AcDbLine
 10
221.117935
 20
49.0
 30
0.0
 11
219.117935
 21
49.0
 31
0.0
  0
LINE
  5
2F1
330
23F
100
AcDbEntity
  8
1
  6
Continuous
100
AcDbLine
 10
219.117935
 20
47.0
 30
0.0
 11
219.117935
 21
39.0
 31
0.0
  0
LINE
  5
2F2
330
23F
100
AcDbEntity
  8
1
  6
Continuous
100
AcDbLine
 10
217.117935
 20
47.0
 30
0.0
 11
217.117935
 21
39.0
 31
0.0
  0
LINE
  5
2F3
330
23F
100
AcDbEntity
  8
1
  6
Continuous
100
AcDbLine
 10
223.633621
 20
59.25
 30
0.0
 11
223.117935
 21
59.25
 31
0.0
  0
LINE
  5
2F4
330
23F
100
AcDbEntity
  8
1
  6
Continuous
100
AcDbLine
 10
221.117935
 20
55.0
 30
0.0
 11
219.9179379999999
 21
55.0
 31
0.0
  0
LINE
  5
2F5
330
23F
100
AcDbEntity
  8
1
  6
Continuous
100
AcDbLine
 10
221.117935
 20
51.0
 30
0.0
 11
219.9179379999999
 21
51.0
 31
0.0
  0
LINE
  5
2F6
330
23F
100
AcDbEntity
  8
1
  6
Continuous
100
AcDbLine
 10
231.217941
 20
49.5
 30
0.0
 11
231.217941
 21
40.49999999999999
 31
0.0
  0
LINE
  5
2F7
330
23F
100
AcDbEntity
  8
1
  6
Continuous
100
AcDbLine
 10
230.717941
 20
40.0
 30
0.0
 11
229.217941
 21
40.0
 31
0.0
  0
LINE
  5
2F8
330
23F
100
AcDbEntity
  8
4
  6
CENTER
100
AcDbLine
 10
221.117935
 20
63.0
 30
0.0
 11
215.117935
 21
63.0
 31
0.0
  0
LINE
  5
2F9
330
23F
100
AcDbEntity
  8
4
  6
CENTER
100
AcDbLine
 10
221.117935
 20
43.0
 30
0.0
 11
215.117935
 21
43.0
 31
0.0
  0
LINE
  5
2FA
330
23F
100
AcDbEntity
  8
1
  6
Continuous
100
AcDbLine
 10
227.617935
 20
60.30320699999999
 30
0.0
 11
227.617935
 21
59.53588899999999
 31
0.0
  0
LINE
  5
2FB
330
23F
100
AcDbEntity
  8
1
  6
Continuous
100
AcDbLine
 10
225.61792
 20
58.99998499999998
 30
0.0
 11
227.617935
 21
59.53588100000001
 31
0.0
  0
LINE
  5
2FC
330
23F
100
AcDbEntity
  8
1
  6
Continuous
100
AcDbLine
 10
225.100296
 20
60.931831
 30
0.0
 11
226.359116
 21
61.269135
 31
0.0
  0
LINE
  5
2FD
330
23F
100
AcDbEntity
  8
1
  6
Continuous
100
AcDbLine
 10
226.6179349999999
 20
59.0
 30
0.0
 11
226.1179349999999
 21
59.133972
 31
0.0
  0
LINE
  5
2FE
330
23F
100
AcDbEntity
  8
1
  6
Continuous
100
AcDbLine
 10
226.1179349999999
 20
61.204529
 30
0.0
 11
225.8767549999999
 21
61.26915699999999
 31
0.0
  0
LINE
  5
2FF
330
23F
100
AcDbEntity
  8
1
  6
Continuous
100
AcDbLine
 10
223.617935
 20
46.74999999999999
 30
0.0
 11
223.117935
 21
46.74999999999999
 31
0.0
  0
LINE
  5
300
330
23F
100
AcDbEntity
  8
1
  6
Continuous
100
AcDbLine
 10
227.117935
 20
56.49999199999999
 30
0.0
 11
227.117935
 21
49.500008
 31
0.0
  0
LINE
  5
301
330
23F
100
AcDbEntity
  8
1
  6
Continuous
100
AcDbLine
 10
226.6179349999999
 20
59.0
 30
0.0
 11
226.6179349999999
 21
31.0
 31
0.0
  0
LINE
  5
302
330
23F
100
AcDbEntity
  8
1
  6
Continuous
100
AcDbLine
 10
230.717941
 20
50.0
 30
0.0
 11
229.217941
 21
50.0
 31
0.0
  0
LINE
  5
303
330
23F
100
AcDbEntity
  8
1
  6
Continuous
100
AcDbLine
 10
231.1179349999999
 20
59.0
 30
0.0
 11
231.1179349999999
 21
49.60001
 31
0.0
  0
LINE
  5
304
330
23F
100
AcDbEntity
  8
1
  6
Continuous
100
AcDbLine
 10
232.6179349999999
 20
56.49999199999999
 30
0.0
 11
232.6179349999999
 21
49.500008
 31
0.0
  0
LINE
  5
305
330
23F
100
AcDbEntity
  8
1
  6
Continuous
100
AcDbLine
 10
226.6179349999999
 20
49.000008
 30
0.0
 11
225.617935
 21
49.000008
 31
0.0
  0
LINE
  5
306
330
23F
100
AcDbEntity
  8
1
  6
Continuous
100
AcDbLine
 10
226.6179349999999
 20
56.999992
 30
0.0
 11
225.617935
 21
56.999992
 31
0.0
  0
LINE
  5
307
330
23F
100
AcDbEntity
  8
1
  6
Continuous
100
AcDbLine
 10
232.1179349999999
 20
49.000008
 30
0.0
 11
231.217941
 21
49.000008
 31
0.0
  0
LINE
  5
308
330
23F
100
AcDbEntity
  8
1
  6
Continuous
100
AcDbLine
 10
232.1179349999999
 20
56.999992
 30
0.0
 11
231.1179349999999
 21
56.999992
 31
0.0
  0
LINE
  5
309
330
23F
100
AcDbEntity
  8
1
  6
Continuous
100
AcDbLine
 10
223.017929
 20
48.375481
 30
0.0
 11
223.017929
 21
32.0
 31
0.0
  0
LINE
  5
30A
330
23F
100
AcDbEntity
  8
4
  6
CENTER
100
AcDbLine
 10
127.711609
 20
195.4710849999999
 30
0.0
 11
89.12008699999999
 21
195.4710849999999
 31
0.0
  0
LINE
  5
30B
330
23F
100
AcDbEntity
  8
4
  6
CENTER
100
AcDbLine
 10
107.4934689999999
 20
213.478775
 30
0.0
 11
107.4934689999999
 21
176.688736
 31
0.0
  0
LINE
  5
30C
330
23F
100
AcDbEntity
  8
4
  6
CENTER
100
AcDbLine
 10
99.49346900000001
 20
115.471085
 30
0.0
 11
131.493469
 21
115.471085
 31
0.0
  0
LINE
  5
30D
330
23F
100
AcDbEntity
  8
1
  6
Continuous
100
AcDbLine
 10
121.4934689999999
 20
195.4710849999999
 30
0.0
 11
121.4934689999999
 21
275.471069
 31
0.0
  0
LINE
  5
30E
330
23F
100
AcDbEntity
  8
1
  6
Continuous
100
AcDbLine
 10
93.77070000000001
 20
198.2433619999999
 30
0.0
 11
109.6122889999999
 21
276.6592099999999
 31
0.0
  0
LINE
  5
30F
330
23F
100
AcDbEntity
  8
1
  6
Continuous
100
AcDbLine
 10
121.4934689999999
 20
190.4710849999999
 30
0.0
 11
121.4934689999999
 21
121.471085
 31
0.0
  0
LINE
  5
310
330
23F
100
AcDbEntity
  8
1
  6
Continuous
100
AcDbLine
 10
108.1601519999999
 20
121.4710689999999
 30
0.0
 11
93.77071200000001
 21
192.6988069999999
 31
0.0
  0
LINE
  5
311
330
23F
100
AcDbEntity
  8
1
  6
Continuous
100
AcDbLine
 10
109.4934689999999
 20
284.4710689999999
 30
0.0
 11
109.4934689999999
 21
277.221069
 31
0.0
  0
LINE
  5
312
330
23F
100
AcDbEntity
  8
1
  6
Continuous
100
AcDbLine
 10
121.4934689999999
 20
284.4710689999999
 30
0.0
 11
121.4934689999999
 21
277.221069
 31
0.0
  0
LINE
  5
313
330
23F
100
AcDbEntity
  8
1
  6
Continuous
100
AcDbLine
 10
109.4934689999999
 20
284.4710689999999
 30
0.0
 11
121.4934689999999
 21
284.4710689999999
 31
0.0
  0
LINE
  5
314
330
23F
100
AcDbEntity
  8
1
  6
Continuous
100
AcDbLine
 10
123.493469
 20
200.4710849999999
 30
0.0
 11
121.4934689999999
 21
200.4710849999999
 31
0.0
  0
LINE
  5
315
330
23F
100
AcDbEntity
  8
1
  6
Continuous
100
AcDbLine
 10
123.493469
 20
190.4710849999999
 30
0.0
 11
123.493469
 21
200.4710849999999
 31
0.0
  0
LINE
  5
316
330
23F
100
AcDbEntity
  8
1
  6
Continuous
100
AcDbLine
 10
123.493469
 20
190.4710849999999
 30
0.0
 11
121.4934689999999
 21
190.4710849999999
 31
0.0
  0
LINE
  5
317
330
23F
100
AcDbEntity
  8
1
  6
Continuous
100
AcDbLine
 10
123.493469
 20
195.4710849999999
 30
0.0
 11
121.4934689999999
 21
195.4710849999999
 31
0.0
  0
LINE
  5
318
330
23F
100
AcDbEntity
  8
1
  6
Continuous
100
AcDbLine
 10
103.4934689999999
 20
109.471085
 30
0.0
 11
127.493469
 21
109.471085
 31
0.0
  0
LINE
  5
319
330
23F
100
AcDbEntity
  8
1
  6
Continuous
100
AcDbLine
 10
103.4934689999999
 20
121.471085
 30
0.0
 11
127.493469
 21
121.471085
 31
0.0
  0
LINE
  5
31A
330
23F
100
AcDbEntity
  8
4
  6
CENTER
100
AcDbLine
 10
233.217972
 20
195.4710689999998
 30
0.0
 11
218.0179599999999
 21
195.4710689999998
 31
0.0
  0
LINE
  5
31B
330
23F
100
AcDbEntity
  8
1
  6
Continuous
100
AcDbLine
 10
247.6179349999999
 20
284.4710689999999
 30
0.0
 11
231.1179349999999
 21
284.4710689999999
 31
0.0
  0
LINE
  5
31C
330
23F
100
AcDbEntity
  8
1
  6
Continuous
100
AcDbLine
 10
247.6179349999999
 20
282.4710689999998
 30
0.0
 11
231.1179349999999
 21
282.4710689999998
 31
0.0
  0
LINE
  5
31D
330
23F
100
AcDbEntity
  8
4
  6
CENTER
100
AcDbLine
 10
234.6179349999999
 20
275.471069
 30
0.0
 11
223.117935
 21
275.471069
 31
0.0
  0
LINE
  5
31E
330
23F
100
AcDbEntity
  8
4
  6
CENTER
100
AcDbLine
 10
229.1179349999999
 20
115.4710689999999
 30
0.0
 11
215.117935
 21
115.4710689999999
 31
0.0
  0
LINE
  5
31F
330
23F
100
AcDbEntity
  8
1
  6
Continuous
100
AcDbLine
 10
228.6179349999999
 20
281.7210689999999
 30
0.0
 11
228.6179349999999
 21
181.471069
 31
0.0
  0
LINE
  5
320
330
23F
100
AcDbEntity
  8
1
  6
Continuous
100
AcDbLine
 10
226.6179349999999
 20
281.471069
 30
0.0
 11
226.6179349999999
 21
200.471069
 31
0.0
  0
LINE
  5
321
330
23F
100
AcDbEntity
  8
1
  6
Continuous
100
AcDbLine
 10
225.617935
 20
209.4710689999998
 30
0.0
 11
225.617935
 21
200.471069
 31
0.0
  0
LINE
  5
322
330
23F
100
AcDbEntity
  8
1
  6
Continuous
100
AcDbLine
 10
223.617935
 20
209.4710689999998
 30
0.0
 11
223.617935
 21
109.2210689999999
 31
0.0
  0
LINE
  5
323
330
23F
100
AcDbEntity
  8
1
  6
Continuous
100
AcDbLine
 10
223.01796
 20
208.471069
 30
0.0
 11
223.01796
 21
182.471069
 31
0.0
  0
LINE
  5
324
330
23F
100
AcDbEntity
  8
1
  6
Continuous
100
AcDbLine
 10
229.217972
 20
208.471069
 30
0.0
 11
229.217972
 21
182.471069
 31
0.0
  0
LINE
  5
325
330
23F
100
AcDbEntity
  8
1
  6
Continuous
100
AcDbLine
 10
231.217972
 20
199.971069
 30
0.0
 11
231.217972
 21
190.9710689999998
 31
0.0
  0
LINE
  5
326
330
23F
100
AcDbEntity
  8
1
  6
Continuous
100
AcDbLine
 10
221.5179599999999
 20
200.471069
 30
0.0
 11
221.5179599999999
 21
190.4710689999998
 31
0.0
  0
LINE
  5
327
330
23F
100
AcDbEntity
  8
1
  6
Continuous
100
AcDbLine
 10
229.217972
 20
208.471069
 30
0.0
 11
228.6179349999999
 21
208.471069
 31
0.0
  0
LINE
  5
328
330
23F
100
AcDbEntity
  8
1
  6
Continuous
100
AcDbLine
 10
229.217972
 20
182.471069
 30
0.0
 11
228.6179349999999
 21
182.471069
 31
0.0
  0
LINE
  5
329
330
23F
100
AcDbEntity
  8
1
  6
Continuous
100
AcDbLine
 10
223.617935
 20
208.471069
 30
0.0
 11
223.01796
 21
208.471069
 31
0.0
  0
LINE
  5
32A
330
23F
100
AcDbEntity
  8
1
  6
Continuous
100
AcDbLine
 10
223.617935
 20
182.471069
 30
0.0
 11
223.01796
 21
182.471069
 31
0.0
  0
LINE
  5
32B
330
23F
100
AcDbEntity
  8
1
  6
Continuous
100
AcDbLine
 10
230.717972
 20
200.471069
 30
0.0
 11
229.217972
 21
200.471069
 31
0.0
  0
LINE
  5
32C
330
23F
100
AcDbEntity
  8
1
  6
Continuous
100
AcDbLine
 10
230.717972
 20
190.4710689999998
 30
0.0
 11
229.217972
 21
190.4710689999998
 31
0.0
  0
LINE
  5
32D
330
23F
100
AcDbEntity
  8
1
  6
Continuous
100
AcDbLine
 10
223.01796
 20
200.471069
 30
0.0
 11
221.5179599999999
 21
200.471069
 31
0.0
  0
LINE
  5
32E
330
23F
100
AcDbEntity
  8
1
  6
Continuous
100
AcDbLine
 10
223.01796
 20
190.4710689999998
 30
0.0
 11
221.5179599999999
 21
190.4710689999998
 31
0.0
  0
LINE
  5
32F
330
23F
100
AcDbEntity
  8
1
  6
Continuous
100
AcDbLine
 10
228.6179349999999
 20
181.471069
 30
0.0
 11
226.6179349999999
 21
181.471069
 31
0.0
  0
LINE
  5
330
330
23F
100
AcDbEntity
  8
1
  6
Continuous
100
AcDbLine
 10
225.617935
 20
209.4710689999998
 30
0.0
 11
223.617935
 21
209.4710689999998
 31
0.0
  0
LINE
  5
331
330
23F
100
AcDbEntity
  8
1
  6
Continuous
100
AcDbLine
 10
221.5179599999999
 20
197.8710629999999
 30
0.0
 11
220.51796
 21
197.8710629999999
 31
0.0
  0
LINE
  5
332
330
23F
100
AcDbEntity
  8
1
  6
Continuous
100
AcDbLine
 10
221.5179599999999
 20
193.071075
 30
0.0
 11
220.51796
 21
193.071075
 31
0.0
  0
LINE
  5
333
330
23F
100
AcDbEntity
  8
1
  6
Continuous
100
AcDbLine
 10
226.6179349999999
 20
187.721069
 30
0.0
 11
225.617935
 21
187.721069
 31
0.0
  0
LINE
  5
334
330
23F
100
AcDbEntity
  8
1
  6
Continuous
100
AcDbLine
 10
226.6179349999999
 20
203.2210689999998
 30
0.0
 11
225.617935
 21
203.2210689999998
 31
0.0
  0
LINE
  5
335
330
23F
100
AcDbEntity
  8
1
  6
Continuous
100
AcDbLine
 10
229.1179349999999
 20
282.4710689999998
 30
0.0
 11
229.1179349999999
 21
269.221069
 31
0.0
  0
LINE
  5
336
330
23F
100
AcDbEntity
  8
1
  6
Continuous
100
AcDbLine
 10
229.1179349999999
 20
281.7210689999999
 30
0.0
 11
228.6179349999999
 21
281.7210689999999
 31
0.0
  0
LINE
  5
337
330
23F
100
AcDbEntity
  8
1
  6
Continuous
100
AcDbLine
 10
229.1179349999999
 20
269.221069
 30
0.0
 11
228.6179349999999
 21
269.221069
 31
0.0
  0
LINE
  5
338
330
23F
100
AcDbEntity
  8
1
  6
Continuous
100
AcDbLine
 10
228.6179349999999
 20
281.471069
 30
0.0
 11
226.6179349999999
 21
281.471069
 31
0.0
  0
LINE
  5
339
330
23F
100
AcDbEntity
  8
1
  6
Continuous
100
AcDbLine
 10
231.1179349999999
 20
282.4710689999998
 30
0.0
 11
231.1179349999999
 21
269.4710689999999
 31
0.0
  0
LINE
  5
33A
330
23F
100
AcDbEntity
  8
1
  6
Continuous
100
AcDbLine
 10
231.1179349999999
 20
269.4710689999999
 30
0.0
 11
229.1179349999999
 21
269.4710689999999
 31
0.0
  0
LINE
  5
33B
330
23F
100
AcDbEntity
  8
1
  6
Continuous
100
AcDbLine
 10
247.6179349999999
 20
284.4710689999999
 30
0.0
 11
247.6179349999999
 21
282.4710689999998
 31
0.0
  0
LINE
  5
33C
330
23F
100
AcDbEntity
  8
4
  6
CENTER
100
AcDbLine
 10
235.617935
 20
286.4710689999999
 30
0.0
 11
235.617935
 21
280.4710689999998
 31
0.0
  0
LINE
  5
33D
330
23F
100
AcDbEntity
  8
4
  6
CENTER
100
AcDbLine
 10
242.6179349999999
 20
286.4710689999999
 30
0.0
 11
242.6179349999999
 21
280.4710689999998
 31
0.0
  0
LINE
  5
33E
330
23F
100
AcDbEntity
  8
1
  6
Continuous
100
AcDbLine
 10
232.1179349999999
 20
279.471069
 30
0.0
 11
231.1179349999999
 21
279.471069
 31
0.0
  0
LINE
  5
33F
330
23F
100
AcDbEntity
  8
1
  6
Continuous
100
AcDbLine
 10
232.1179349999999
 20
271.4710689999999
 30
0.0
 11
231.1179349999999
 21
271.4710689999999
 31
0.0
  0
LINE
  5
340
330
23F
100
AcDbEntity
  8
1
  6
Continuous
100
AcDbLine
 10
232.6179349999999
 20
278.971069
 30
0.0
 11
232.6179349999999
 21
271.9710689999998
 31
0.0
  0
LINE
  5
341
330
23F
100
AcDbEntity
  8
1
  6
Continuous
100
AcDbLine
 10
226.6179349999999
 20
277.8710629999998
 30
0.0
 11
225.417938
 21
277.8710629999998
 31
0.0
  0
LINE
  5
342
330
23F
100
AcDbEntity
  8
1
  6
Continuous
100
AcDbLine
 10
226.6179349999999
 20
273.071075
 30
0.0
 11
225.417938
 21
273.071075
 31
0.0
  0
LINE
  5
343
330
23F
100
AcDbEntity
  8
1
  6
Continuous
100
AcDbLine
 10
223.117935
 20
121.4710689999999
 30
0.0
 11
217.117935
 21
121.4710689999999
 31
0.0
  0
LINE
  5
344
330
23F
100
AcDbEntity
  8
1
  6
Continuous
100
AcDbLine
 10
225.617935
 20
109.471069
 30
0.0
 11
223.617935
 21
109.471069
 31
0.0
  0
LINE
  5
345
330
23F
100
AcDbEntity
  8
1
  6
Continuous
100
AcDbLine
 10
223.117935
 20
121.7210689999999
 30
0.0
 11
223.117935
 21
109.2210689999999
 31
0.0
  0
LINE
  5
346
330
23F
100
AcDbEntity
  8
1
  6
Continuous
100
AcDbLine
 10
223.617935
 20
121.7210689999999
 30
0.0
 11
223.117935
 21
121.7210689999999
 31
0.0
  0
LINE
  5
347
330
23F
100
AcDbEntity
  8
1
  6
Continuous
100
AcDbLine
 10
223.617935
 20
109.2210689999999
 30
0.0
 11
223.117935
 21
109.2210689999999
 31
0.0
  0
LINE
  5
348
330
23F
100
AcDbEntity
  8
1
  6
Continuous
100
AcDbLine
 10
217.117935
 20
121.4710689999999
 30
0.0
 11
217.117935
 21
109.471069
 31
0.0
  0
LINE
  5
349
330
23F
100
AcDbEntity
  8
1
  6
Continuous
100
AcDbLine
 10
219.117935
 20
121.4710689999999
 30
0.0
 11
219.117935
 21
109.471069
 31
0.0
  0
LINE
  5
34A
330
23F
100
AcDbEntity
  8
1
  6
Continuous
100
AcDbLine
 10
227.117935
 20
118.971069
 30
0.0
 11
227.117935
 21
111.971069
 31
0.0
  0
LINE
  5
34B
330
23F
100
AcDbEntity
  8
1
  6
Continuous
100
AcDbLine
 10
226.6179349999999
 20
119.4710689999999
 30
0.0
 11
225.617935
 21
119.4710689999999
 31
0.0
  0
LINE
  5
34C
330
23F
100
AcDbEntity
  8
1
  6
Continuous
100
AcDbLine
 10
226.6179349999999
 20
111.471069
 30
0.0
 11
225.617935
 21
111.471069
 31
0.0
  0
LINE
  5
34D
330
23F
100
AcDbEntity
  8
1
  6
Continuous
100
AcDbLine
 10
223.117935
 20
109.471069
 30
0.0
 11
217.117935
 21
109.471069
 31
0.0
  0
LINE
  5
34E
330
23F
100
AcDbEntity
  8
1
  6
Continuous
100
AcDbLine
 10
111.4934689999999
 20
121.471085
 30
0.0
 11
111.4934689999999
 21
109.471085
 31
0.0
  0
LINE
  5
34F
330
23F
100
AcDbEntity
  8
1
  6
Continuous
100
AcDbLine
 10
119.4934689999999
 20
121.471085
 30
0.0
 11
119.4934689999999
 21
109.471085
 31
0.0
  0
LINE
  5
350
330
23F
100
AcDbEntity
  8
1
  6
Continuous
100
AcDbLine
 10
228.6179349999999
 20
200.471069
 30
0.0
 11
224.6179349999999
 21
200.471069
 31
0.0
  0
LINE
  5
351
330
23F
100
AcDbEntity
  8
1
  6
Continuous
100
AcDbLine
 10
227.617935
 20
190.4710689999998
 30
0.0
 11
223.617935
 21
190.4710689999998
 31
0.0
  0
LINE
  5
352
330
23F
100
AcDbEntity
  8
1
  6
Continuous
100
AcDbLine
 10
227.617935
 20
195.4710689999998
 30
0.0
 11
227.617935
 21
190.4710689999998
 31
0.0
  0
LINE
  5
353
330
23F
100
AcDbEntity
  8
1
  6
Continuous
100
AcDbLine
 10
225.617935
 20
190.4710689999998
 30
0.0
 11
225.617935
 21
109.471069
 31
0.0
  0
LINE
  5
354
330
23F
100
AcDbEntity
  8
1
  6
Continuous
100
AcDbLine
 10
226.6179349999999
 20
190.4710689999998
 30
0.0
 11
226.6179349999999
 21
181.471069
 31
0.0
  0
LINE
  5
355
330
23F
100
AcDbEntity
  8
1
  6
Continuous
100
AcDbLine
 10
224.6179349999999
 20
200.471069
 30
0.0
 11
224.6179349999999
 21
195.4710689999998
 31
0.0
  0
LINE
  5
356
330
23F
100
AcDbEntity
  8
1
  6
Continuous
100
AcDbLine
 10
223.617935
 20
195.4710689999998
 30
0.0
 11
228.6179349999999
 21
195.4710689999998
 31
0.0
  0
LINE
  5
357
330
23F
100
AcDbEntity
  8
4
  6
CENTER
100
AcDbLine
 10
348.0
 20
123.4710689999999
 30
0.0
 11
348.0
 21
107.471069
 31
0.0
  0
LINE
  5
358
330
23F
100
AcDbEntity
  8
4
  6
CENTER
100
AcDbLine
 10
115.4934689999999
 20
123.471085
 30
0.0
 11
115.4934689999999
 21
107.471085
 31
0.0
  0
LINE
  5
359
330
23F
100
AcDbEntity
  8
4
  6
CENTER
100
AcDbLine
 10
338.0
 20
195.4710689999998
 30
0.0
 11
374.0
 21
195.4710689999998
 31
0.0
  0
LINE
  5
35A
330
23F
100
AcDbEntity
  8
4
  6
CENTER
100
AcDbLine
 10
356.0
 20
213.4710689999999
 30
0.0
 11
356.0
 21
177.471069
 31
0.0
  0
LINE
  5
35B
330
23F
100
AcDbEntity
  8
4
  6
CENTER
100
AcDbLine
 10
339.0
 20
275.471069
 30
0.0
 11
357.0
 21
275.471069
 31
0.0
  0
LINE
  5
35C
330
23F
100
AcDbEntity
  8
4
  6
CENTER
100
AcDbLine
 10
348.0
 20
286.4710689999999
 30
0.0
 11
348.0
 21
266.471069
 31
0.0
  0
LINE
  5
35D
330
23F
100
AcDbEntity
  8
4
  6
CENTER
100
AcDbLine
 10
239.017929
 20
344.9421389999998
 30
0.0
 11
246.217941
 21
344.9421389999998
 31
0.0
  0
LINE
  5
35E
330
23F
100
AcDbEntity
  8
4
  6
CENTER
100
AcDbLine
 10
242.6179349999999
 20
348.542145
 30
0.0
 11
242.6179349999999
 21
341.3421329999998
 31
0.0
  0
LINE
  5
35F
330
23F
100
AcDbEntity
  8
4
  6
CENTER
100
AcDbLine
 10
232.017929
 20
348.9421389999998
 30
0.0
 11
239.217941
 21
348.9421389999998
 31
0.0
  0
LINE
  5
360
330
23F
100
AcDbEntity
  8
4
  6
CENTER
100
AcDbLine
 10
235.617935
 20
352.542145
 30
0.0
 11
235.617935
 21
345.3421329999998
 31
0.0
  0
LINE
  5
361
330
23F
100
AcDbEntity
  8
4
  6
CENTER
100
AcDbLine
 10
237.3679349999999
 20
55.0
 30
0.0
 11
247.8679349999999
 21
55.0
 31
0.0
  0
LINE
  5
362
330
23F
100
AcDbEntity
  8
4
  6
CENTER
100
AcDbLine
 10
242.6179349999999
 20
60.25
 30
0.0
 11
242.6179349999999
 21
49.75
 31
0.0
  0
LINE
  5
363
330
23F
100
AcDbEntity
  8
4
  6
CENTER
100
AcDbLine
 10
230.3679349999999
 20
51.0
 30
0.0
 11
240.8679349999999
 21
51.0
 31
0.0
  0
LINE
  5
364
330
23F
100
AcDbEntity
  8
4
  6
CENTER
100
AcDbLine
 10
235.617935
 20
56.25
 30
0.0
 11
235.617935
 21
45.75
 31
0.0
  0
LINE
  5
365
330
23F
100
AcDbEntity
  8
4
  6
CENTER
100
AcDbLine
 10
107.4934689999999
 20
275.471069
 30
0.0
 11
123.493469
 21
275.471069
 31
0.0
  0
LINE
  5
366
330
23F
100
AcDbEntity
  8
4
  6
CENTER
100
AcDbLine
 10
115.4934689999999
 20
283.4710689999998
 30
0.0
 11
115.4934689999999
 21
267.4710689999999
 31
0.0
  0
LINE
  5
367
330
23F
100
AcDbEntity
  8
4
  6
CENTER
100
AcDbLine
 10
105.4934689999999
 20
119.0710909999999
 30
0.0
 11
105.4934689999999
 21
111.871078
 31
0.0
  0
LINE
  5
368
330
23F
100
AcDbEntity
  8
4
  6
CENTER
100
AcDbLine
 10
125.493469
 20
119.0710909999999
 30
0.0
 11
125.493469
 21
111.871078
 31
0.0
  0
LINE
  5
369
330
23F
100
AcDbEntity
  8
4
  6
CENTER
100
AcDbLine
 10
338.0
 20
121.7210689999999
 30
0.0
 11
338.0
 21
109.2210689999999
 31
0.0
  0
LINE
  5
36A
330
23F
100
AcDbEntity
  8
4
  6
CENTER
100
AcDbLine
 10
331.7499999999999
 20
115.4710689999999
 30
0.0
 11
364.25
 21
115.4710689999999
 31
0.0
  0
LINE
  5
36B
330
23F
100
AcDbEntity
  8
4
  6
CENTER
100
AcDbLine
 10
358.0
 20
121.7210689999999
 30
0.0
 11
358.0
 21
109.2210689999999
 31
0.0
  0
LINE
  5
36C
330
23F
100
AcDbEntity
  8
1
  6
Continuous
100
AcDbLine
 10
226.6179349999999
 20
56.999992
 30
0.0
 11
227.117935
 21
56.49999199999999
 31
0.0
  0
LINE
  5
36D
330
23F
100
AcDbEntity
  8
1
  6
Continuous
100
AcDbLine
 10
226.6179349999999
 20
49.000011
 30
0.0
 11
227.117935
 21
49.500011
 31
0.0
  0
LINE
  5
36E
330
23F
100
AcDbEntity
  8
1
  6
Continuous
100
AcDbLine
 10
232.1179349999999
 20
56.999992
 30
0.0
 11
232.6179349999999
 21
56.49999199999999
 31
0.0
  0
LINE
  5
36F
330
23F
100
AcDbEntity
  8
1
  6
Continuous
100
AcDbLine
 10
232.1179349999999
 20
49.000011
 30
0.0
 11
232.6179349999999
 21
49.500011
 31
0.0
  0
LINE
  5
370
330
23F
100
AcDbEntity
  8
1
  6
Continuous
100
AcDbLine
 10
230.717941
 20
40.0
 30
0.0
 11
231.217941
 21
40.500004
 31
0.0
  0
LINE
  5
371
330
23F
100
AcDbEntity
  8
1
  6
Continuous
100
AcDbLine
 10
230.717941
 20
50.000004
 30
0.0
 11
231.217941
 21
49.500004
 31
0.0
  0
LINE
  5
372
330
23F
100
AcDbEntity
  8
1
  6
Continuous
100
AcDbLine
 10
230.717941
 20
359.9421389999998
 30
0.0
 11
231.217941
 21
359.4421389999998
 31
0.0
  0
LINE
  5
373
330
23F
100
AcDbEntity
  8
1
  6
Continuous
100
AcDbLine
 10
232.1179349999999
 20
279.471069
 30
0.0
 11
232.6179349999999
 21
278.971069
 31
0.0
  0
LINE
  5
374
330
23F
100
AcDbEntity
  8
1
  6
Continuous
100
AcDbLine
 10
232.1179349999999
 20
271.4710689999999
 30
0.0
 11
232.6179349999999
 21
271.9710689999998
 31
0.0
  0
LINE
  5
375
330
23F
100
AcDbEntity
  8
1
  6
Continuous
100
AcDbLine
 10
230.7179569999999
 20
190.4710689999998
 30
0.0
 11
231.217972
 21
190.9710689999998
 31
0.0
  0
LINE
  5
376
330
23F
100
AcDbEntity
  8
1
  6
Continuous
100
AcDbLine
 10
230.717972
 20
200.471069
 30
0.0
 11
231.217972
 21
199.971069
 31
0.0
  0
LINE
  5
377
330
23F
100
AcDbEntity
  8
1
  6
Continuous
100
AcDbLine
 10
226.6179349999999
 20
119.4710689999999
 30
0.0
 11
227.117935
 21
118.971069
 31
0.0
  0
LINE
  5
378
330
23F
100
AcDbEntity
  8
1
  6
Continuous
100
AcDbLine
 10
226.6179349999999
 20
111.471069
 30
0.0
 11
227.117935
 21
111.971069
 31
0.0
  0
LINE
  5
379
330
23F
100
AcDbEntity
  8
1
  6
Continuous
100
AcDbLine
 10
522.117645
 20
279.471069
 30
0.0
 11
521.617645
 21
278.971069
 31
0.0
  0
LINE
  5
37A
330
23F
100
AcDbEntity
  8
1
  6
Continuous
100
AcDbLine
 10
522.117645
 20
271.4710689999999
 30
0.0
 11
521.617645
 21
271.9710689999998
 31
0.0
  0
LINE
  5
37B
330
23F
100
AcDbEntity
  8
1
  6
Continuous
100
AcDbLine
 10
523.517609
 20
200.471069
 30
0.0
 11
523.0176089999998
 21
199.9710849999999
 31
0.0
  0
LINE
  5
37C
330
23F
100
AcDbEntity
  8
1
  6
Continuous
100
AcDbLine
 10
523.517609
 20
190.4710849999999
 30
0.0
 11
523.0176089999998
 21
190.9710849999999
 31
0.0
  0
LINE
  5
37D
330
23F
100
AcDbEntity
  8
1
  6
Continuous
100
AcDbLine
 10
527.617645
 20
119.471054
 30
0.0
 11
527.117645
 21
118.971069
 31
0.0
  0
LINE
  5
37E
330
23F
100
AcDbEntity
  8
1
  6
Continuous
100
AcDbLine
 10
527.617645
 20
111.471069
 30
0.0
 11
527.117645
 21
111.971069
 31
0.0
  0
LINE
  5
37F
330
23F
100
AcDbEntity
  8
1
  6
Continuous
100
AcDbLine
 10
220.51796
 20
197.8710629999999
 30
0.0
 11
220.51796
 21
193.071075
 31
0.0
  0
LINE
  5
380
330
23F
100
AcDbEntity
  8
1
  6
Continuous
100
AcDbLine
 10
533.7176209999999
 20
197.8710629999999
 30
0.0
 11
533.7176209999999
 21
193.071075
 31
0.0
  0
LINE
  5
381
330
23F
100
AcDbEntity
  8
1
  6
Continuous
100
AcDbLine
 10
219.9179379999999
 20
55.0
 30
0.0
 11
219.9179379999999
 21
51.0
 31
0.0
  0
LINE
  5
382
330
23F
100
AcDbEntity
  8
1
  6
Continuous
100
AcDbLine
 10
219.9179379999999
 20
344.9421389999998
 30
0.0
 11
219.9179379999999
 21
348.9421389999998
 31
0.0
  0
LINE
  5
383
330
23F
100
AcDbEntity
  8
1
  6
Continuous
100
AcDbLine
 10
225.417938
 20
277.8710629999998
 30
0.0
 11
225.417938
 21
273.071075
 31
0.0
  0
LINE
  5
384
330
23F
100
AcDbEntity
  8
1
  6
Continuous
100
AcDbLine
 10
528.817657
 20
277.8710629999998
 30
0.0
 11
528.817657
 21
273.071075
 31
0.0
  0
LINE
  5
385
330
23F
100
AcDbEntity
  8
4
  6
CENTER
100
AcDbLine
 10
113.4934689999999
 20
287.526581
 30
0.0
 11
113.4934689999999
 21
279.1376649999999
 31
0.0
  0
LINE
  5
386
330
23F
100
AcDbEntity
  8
4
  6
CENTER
100
AcDbLine
 10
117.4934689999999
 20
287.526581
 30
0.0
 11
117.4934689999999
 21
279.1376649999999
 31
0.0
  0
LINE
  5
387
330
23F
100
AcDbEntity
  8
1
  6
Continuous
100
AcDbLine
 10
232.1179349999999
 20
56.999992
 30
0.0
 11
232.1179349999999
 21
49.000011
 31
0.0
  0
LINE
  5
388
330
23F
100
AcDbEntity
  8
1
  6
Continuous
100
AcDbLine
 10
232.1179349999999
 20
279.471069
 30
0.0
 11
232.1179349999999
 21
271.4710689999999
 31
0.0
  0
LINE
  5
389
330
23F
100
AcDbEntity
  8
1
  6
Continuous
100
AcDbLine
 10
230.717972
 20
200.471069
 30
0.0
 11
230.717972
 21
190.4710689999998
 31
0.0
  0
LINE
  5
38A
330
23F
100
AcDbEntity
  8
1
  6
Continuous
100
AcDbLine
 10
226.6179349999999
 20
119.4710689999999
 30
0.0
 11
226.6179349999999
 21
111.471069
 31
0.0
  0
LINE
  5
38B
330
23F
100
AcDbEntity
  8
4
  6
CENTER
100
AcDbLine
 10
346.0
 20
286.4710689999999
 30
0.0
 11
346.0
 21
279.2980039999998
 31
0.0
  0
LINE
  5
38C
330
23F
100
AcDbEntity
  8
4
  6
CENTER
100
AcDbLine
 10
350.0
 20
286.4710689999999
 30
0.0
 11
350.0
 21
279.2980039999998
 31
0.0
  0
LINE
  5
38D
330
23F
100
AcDbEntity
  8
1
  6
Continuous
100
AcDbLine
 10
522.117645
 20
279.471069
 30
0.0
 11
522.117645
 21
271.4710689999999
 31
0.0
  0
LINE
  5
38E
330
23F
100
AcDbEntity
  8
1
  6
Continuous
100
AcDbLine
 10
523.517609
 20
200.471069
 30
0.0
 11
523.517609
 21
190.4710689999998
 31
0.0
  0
LINE
  5
38F
330
23F
100
AcDbEntity
  8
1
  6
Continuous
100
AcDbLine
 10
527.617645
 20
119.4710689999999
 30
0.0
 11
527.617645
 21
111.471069
 31
0.0
  0
LINE
  5
390
330
23F
100
AcDbEntity
  8
1
  6
Continuous
100
AcDbLine
 10
230.717941
 20
50.0
 30
0.0
 11
230.717941
 21
40.0
 31
0.0
  0
LINE
  5
391
330
23F
100
AcDbEntity
  8
1
  6
Continuous
100
AcDbLine
 10
349.75
 20
109.471069
 30
0.0
 11
360.0
 21
109.471069
 31
0.0
  0
LINE
  5
392
330
23F
100
AcDbEntity
  8
1
  6
Continuous
100
AcDbLine
 10
230.717941
 20
359.9421389999998
 30
0.0
 11
230.717941
 21
352.9421389999998
 31
0.0
  0
CIRCLE
  5
393
330
23F
100
AcDbEntity
  8
1
  6
Continuous
100
AcDbCircle
 10
348.0
 20
275.471069
 30
0.0
 40
4.0
  0
ARC
  5
394
330
23F
100
AcDbEntity
  8
1
  6
Continuous
100
AcDbCircle
 10
356.0
 20
195.4710689999998
 30
0.0
 40
14.0
100
AcDbArc
 50
179.9999909999999
 51
11.42117899999999
  0
CIRCLE
  5
395
330
23F
100
AcDbEntity
  8
1
  6
Continuous
100
AcDbCircle
 10
356.0
 20
195.4710689999998
 30
0.0
 40
5.0
  0
ARC
  5
396
330
23F
100
AcDbEntity
  8
1
  6
Continuous
100
AcDbCircle
 10
348.0
 20
115.4710689999999
 30
0.0
 40
6.0
100
AcDbArc
 50
179.9999909999999
 51
348.578814
  0
CIRCLE
  5
397
330
23F
100
AcDbEntity
  8
1
  6
Continuous
100
AcDbCircle
 10
356.0
 20
195.4710689999998
 30
0.0
 40
13.0
  0
CIRCLE
  5
398
330
23F
100
AcDbEntity
  8
1
  6
Continuous
100
AcDbCircle
 10
348.0
 20
115.4710689999999
 30
0.0
 40
4.0
  0
ARC
  5
399
330
23F
100
AcDbEntity
  8
1
  6
Continuous
100
AcDbCircle
 10
348.0
 20
279.471069
 30
0.0
 40
10.0
100
AcDbArc
 50
233.130097
 51
306.869902
  0
ARC
  5
39A
330
23F
100
AcDbEntity
  8
1
  6
Continuous
100
AcDbCircle
 10
348.0
 20
275.471069
 30
0.0
 40
6.25
100
AcDbArc
 50
163.739797
 51
196.2601989999998
  0
ARC
  5
39B
330
23F
100
AcDbEntity
  8
1
  6
Continuous
100
AcDbCircle
 10
348.0
 20
275.471069
 30
0.0
 40
6.25
100
AcDbArc
 50
343.739796
 51
16.260204
  0
ARC
  5
39C
330
23F
100
AcDbEntity
  8
1
  6
Continuous
100
AcDbCircle
 10
352.0
 20
115.4710689999999
 30
0.0
 40
10.0
100
AcDbArc
 50
359.999995
 51
36.869904
  0
ARC
  5
39D
330
23F
100
AcDbEntity
  8
1
  6
Continuous
100
AcDbCircle
 10
344.0
 20
115.4710689999999
 30
0.0
 40
10.0
100
AcDbArc
 50
143.130097
 51
216.869899
  0
ARC
  5
39E
330
23F
100
AcDbEntity
  8
1
  6
Continuous
100
AcDbCircle
 10
352.0
 20
115.4710689999999
 30
0.0
 40
10.0
100
AcDbArc
 50
323.1301029999999
 51
36.86989
  0
CIRCLE
  5
39F
330
23F
100
AcDbEntity
  8
1
  6
Continuous
100
AcDbCircle
 10
338.0
 20
115.4710689999999
 30
0.0
 40
1.6
  0
CIRCLE
  5
3A0
330
23F
100
AcDbEntity
  8
1
  6
Continuous
100
AcDbCircle
 10
358.0
 20
115.4710689999999
 30
0.0
 40
1.6
  0
CIRCLE
  5
3A1
330
23F
100
AcDbEntity
  8
1
  6
Continuous
100
AcDbCircle
 10
338.0
 20
115.4710689999999
 30
0.0
 40
3.25
  0
CIRCLE
  5
3A2
330
23F
100
AcDbEntity
  8
1
  6
Continuous
100
AcDbCircle
 10
358.0
 20
115.4710689999999
 30
0.0
 40
3.25
  0
ARC
  5
3A3
330
23F
100
AcDbEntity
  8
1
  6
Continuous
100
AcDbCircle
 10
528.117645
 20
205.4710689999998
 30
0.0
 40
2.0
100
AcDbArc
 50
75.52248799999998
 51
104.477511
  0
ARC
  5
3A4
330
23F
100
AcDbEntity
  8
1
  6
Continuous
100
AcDbCircle
 10
528.117645
 20
185.471069
 30
0.0
 40
2.0
100
AcDbArc
 50
75.52248799999998
 51
104.477511
  0
ARC
  5
3A5
330
23F
100
AcDbEntity
  8
1
  6
Continuous
100
AcDbCircle
 10
528.117645
 20
205.4710689999998
 30
0.0
 40
2.0
100
AcDbArc
 50
255.522489
 51
284.4775119999998
  0
ARC
  5
3A6
330
23F
100
AcDbEntity
  8
1
  6
Continuous
100
AcDbCircle
 10
528.117645
 20
185.471069
 30
0.0
 40
2.0
100
AcDbArc
 50
255.522489
 51
284.4775119999998
  0
ARC
  5
3A7
330
23F
100
AcDbEntity
  8
1
  6
Continuous
100
AcDbCircle
 10
237.617935
 20
346.9421389999998
 30
0.0
 40
10.0
100
AcDbArc
 50
323.1301029999999
 51
36.869904
  0
ARC
  5
3A8
330
23F
100
AcDbEntity
  8
1
  6
Continuous
100
AcDbCircle
 10
226.1179349999999
 20
344.9421389999998
 30
0.0
 40
2.0
100
AcDbArc
 50
255.522489
 51
284.4775119999998
  0
CIRCLE
  5
3A9
330
23F
100
AcDbEntity
  8
1
  6
Continuous
100
AcDbCircle
 10
242.6179349999999
 20
344.9421389999998
 30
0.0
 40
1.6
  0
CIRCLE
  5
3AA
330
23F
100
AcDbEntity
  8
1
  6
Continuous
100
AcDbCircle
 10
235.617935
 20
348.9421389999998
 30
0.0
 40
1.6
  0
ARC
  5
3AB
330
23F
100
AcDbEntity
  8
1
  6
Continuous
100
AcDbCircle
 10
221.117935
 20
342.9421389999999
 30
0.0
 40
2.0
100
AcDbArc
 50
269.9999969999999
 51
341.804567
  0
ARC
  5
3AC
330
23F
100
AcDbEntity
  8
1
  6
Continuous
100
AcDbCircle
 10
219.117935
 20
340.9421389999998
 30
0.0
 40
2.0
100
AcDbArc
 50
89.99999599999998
 51
180.000005
  0
ARC
  5
3AD
330
23F
100
AcDbEntity
  8
1
  6
Continuous
100
AcDbCircle
 10
219.117935
 20
352.9421389999998
 30
0.0
 40
2.0
100
AcDbArc
 50
180.000009
 51
269.9999969999999
  0
ARC
  5
3AE
330
23F
100
AcDbEntity
  8
1
  6
Continuous
100
AcDbCircle
 10
225.617935
 20
340.9421389999998
 30
0.0
 40
2.0
100
AcDbArc
 50
180.000009
 51
244.329367
  0
ARC
  5
3AF
330
23F
100
AcDbEntity
  8
1
  6
Continuous
100
AcDbCircle
 10
237.617935
 20
53.0
 30
0.0
 40
10.0
100
AcDbArc
 50
323.1301029999999
 51
36.869904
  0
CIRCLE
  5
3B0
330
23F
100
AcDbEntity
  8
1
  6
Continuous
100
AcDbCircle
 10
242.6179349999999
 20
55.0
 30
0.0
 40
1.6
  0
CIRCLE
  5
3B1
330
23F
100
AcDbEntity
  8
1
  6
Continuous
100
AcDbCircle
 10
235.617935
 20
51.0
 30
0.0
 40
1.6
  0
ARC
  5
3B2
330
23F
100
AcDbEntity
  8
1
  6
Continuous
100
AcDbCircle
 10
219.117935
 20
59.0
 30
0.0
 40
2.0
100
AcDbArc
 50
179.9999909999999
 51
270.000001
  0
ARC
  5
3B3
330
23F
100
AcDbEntity
  8
1
  6
Continuous
100
AcDbCircle
 10
219.117935
 20
47.0
 30
0.0
 40
2.0
100
AcDbArc
 50
89.99999599999998
 51
180.000005
  0
ARC
  5
3B4
330
23F
100
AcDbEntity
  8
1
  6
Continuous
100
AcDbCircle
 10
225.617935
 20
59.0
 30
0.0
 40
2.0
100
AcDbArc
 50
104.9999929999999
 51
180.000005
  0
ARC
  5
3B5
330
23F
100
AcDbEntity
  8
1
  6
Continuous
100
AcDbCircle
 10
226.6179349999999
 20
59.0
 30
0.0
 40
2.0
100
AcDbArc
 50
359.999995
 51
64.33010300000001
  0
CIRCLE
  5
3B6
330
23F
100
AcDbEntity
  8
1
  6
Continuous
100
AcDbCircle
 10
242.6179349999999
 20
55.0
 30
0.0
 40
3.25
  0
ARC
  5
3B7
330
23F
100
AcDbEntity
  8
1
  6
Continuous
100
AcDbCircle
 10
235.617935
 20
51.0
 30
0.0
 40
3.25
100
AcDbArc
 50
202.6198599999999
 51
157.3801399999998
  0
ARC
  5
3B8
330
23F
100
AcDbEntity
  8
1
  6
Continuous
100
AcDbCircle
 10
221.117935
 20
57.0
 30
0.0
 40
2.0
100
AcDbArc
 50
359.999995
 51
89.99999599999998
  0
ARC
  5
3B9
330
23F
100
AcDbEntity
  8
1
  6
Continuous
100
AcDbCircle
 10
221.117935
 20
49.0
 30
0.0
 40
2.0
100
AcDbArc
 50
269.9999969999999
 51
0.000009
  0
ARC
  5
3BA
330
23F
100
AcDbEntity
  8
1
  6
Continuous
100
AcDbCircle
 10
107.4934689999999
 20
195.4710849999999
 30
0.0
 40
14.0
100
AcDbArc
 50
359.999995
 51
191.421188
  0
CIRCLE
  5
3BB
330
23F
100
AcDbEntity
  8
1
  6
Continuous
100
AcDbCircle
 10
107.4934689999999
 20
195.4710849999999
 30
0.0
 40
5.0
  0
CIRCLE
  5
3BC
330
23F
100
AcDbEntity
  8
1
  6
Continuous
100
AcDbCircle
 10
107.4934689999999
 20
195.4710849999999
 30
0.0
 40
13.0
  0
ARC
  5
3BD
330
23F
100
AcDbEntity
  8
1
  6
Continuous
100
AcDbCircle
 10
115.4934689999999
 20
275.471069
 30
0.0
 40
6.25
100
AcDbArc
 50
343.739796
 51
184.83903
  0
ARC
  5
3BE
330
23F
100
AcDbEntity
  8
1
  6
Continuous
100
AcDbCircle
 10
119.4934689999999
 20
115.471085
 30
0.0
 40
10.0
100
AcDbArc
 50
359.999995
 51
36.869904
  0
ARC
  5
3BF
330
23F
100
AcDbEntity
  8
1
  6
Continuous
100
AcDbCircle
 10
111.4934689999999
 20
115.471085
 30
0.0
 40
10.0
100
AcDbArc
 50
143.130097
 51
216.869899
  0
ARC
  5
3C0
330
23F
100
AcDbEntity
  8
1
  6
Continuous
100
AcDbCircle
 10
119.4934689999999
 20
115.471085
 30
0.0
 40
10.0
100
AcDbArc
 50
323.1301029999999
 51
36.86989
  0
CIRCLE
  5
3C1
330
23F
100
AcDbEntity
  8
1
  6
Continuous
100
AcDbCircle
 10
105.4934689999999
 20
115.471085
 30
0.0
 40
1.6
  0
CIRCLE
  5
3C2
330
23F
100
AcDbEntity
  8
1
  6
Continuous
100
AcDbCircle
 10
125.493469
 20
115.471085
 30
0.0
 40
1.6
  0
ARC
  5
3C3
330
23F
100
AcDbEntity
  8
1
  6
Continuous
100
AcDbCircle
 10
226.1179349999999
 20
205.4710689999998
 30
0.0
 40
2.0
100
AcDbArc
 50
75.52248799999998
 51
104.477511
  0
ARC
  5
3C4
330
23F
100
AcDbEntity
  8
1
  6
Continuous
100
AcDbCircle
 10
226.1179349999999
 20
185.471069
 30
0.0
 40
2.0
100
AcDbArc
 50
75.52248799999998
 51
104.477511
  0
ARC
  5
3C5
330
23F
100
AcDbEntity
  8
1
  6
Continuous
100
AcDbCircle
 10
226.1179349999999
 20
205.4710689999998
 30
0.0
 40
2.0
100
AcDbArc
 50
255.522489
 51
284.4775119999998
  0
ARC
  5
3C6
330
23F
100
AcDbEntity
  8
1
  6
Continuous
100
AcDbCircle
 10
226.1179349999999
 20
185.471069
 30
0.0
 40
2.0
100
AcDbArc
 50
255.522489
 51
284.4775119999998
  0
CIRCLE
  5
3C7
330
23F
100
AcDbEntity
  8
1
  6
Continuous
100
AcDbCircle
 10
115.4934689999999
 20
275.471069
 30
0.0
 40
2.399999999999999
  0
CIRCLE
  5
3C8
330
23F
100
AcDbEntity
  8
1
  6
Continuous
100
AcDbCircle
 10
107.4934689999999
 20
195.4710849999999
 30
0.0
 40
2.399999999999999
  0
CIRCLE
  5
3C9
330
23F
100
AcDbEntity
  8
1
  6
Continuous
100
AcDbCircle
 10
115.4934689999999
 20
115.471085
 30
0.0
 40
2.0
  0
ARC
  5
3CA
330
23F
100
AcDbEntity
  8
1
  6
Continuous
100
AcDbCircle
 10
523.117645
 20
282.4710689999998
 30
0.0
 40
2.0
100
AcDbArc
 50
359.999995
 51
89.99999599999998
  0
ARC
  5
3CB
330
23F
100
AcDbEntity
  8
1
  6
Continuous
100
AcDbCircle
 10
231.1179349999999
 20
282.4710689999998
 30
0.0
 40
2.0
100
AcDbArc
 50
89.99999599999998
 51
180.000005
  0
ARC
  5
3CC
330
23F
100
AcDbEntity
  8
1
  6
Continuous
100
AcDbCircle
 10
226.6179349999999
 20
340.9421389999998
 30
0.0
 40
2.0
100
AcDbArc
 50
285.000001
 51
0.000005
  0
ARC
  5
3CD
330
23F
100
AcDbEntity
  8
1
  6
Continuous
100
AcDbCircle
 10
115.4934689999999
 20
275.471069
 30
0.0
 40
6.0
100
AcDbArc
 50
0.0
 51
168.578809
  0
ARC
  5
3CE
330
23F
100
AcDbEntity
  8
1
  6
Continuous
100
AcDbCircle
 10
225.617935
 20
339.638885
 30
0.0
 40
1.0
100
AcDbArc
 50
179.9999909999999
 51
284.999998
  0
ARC
  5
3CF
330
23F
100
AcDbEntity
  8
1
  6
Continuous
100
AcDbCircle
 10
226.6179349999999
 20
339.638885
 30
0.0
 40
1.0
100
AcDbArc
 50
255.0
 51
330.04362
  0
ARC
  5
3D0
330
23F
100
AcDbEntity
  8
1
  6
Continuous
100
AcDbCircle
 10
226.6179349999999
 20
60.30320699999999
 30
0.0
 40
1.0
100
AcDbArc
 50
359.999995
 51
105.0
  0
ARC
  5
3D1
330
23F
100
AcDbEntity
  8
1
  6
Continuous
100
AcDbCircle
 10
225.617935
 20
60.30323
 30
0.0
 40
1.0
100
AcDbArc
 50
74.999999
 51
150.041279
  0
ARC
  5
3D2
330
23F
100
AcDbEntity
  8
1
  6
Continuous
100
AcDbCircle
 10
115.4934689999999
 20
115.471085
 30
0.0
 40
6.25
100
AcDbArc
 50
73.739795
 51
106.260204
  0
ARC
  5
3D3
330
23F
100
AcDbEntity
  8
1
  6
Continuous
100
AcDbCircle
 10
115.4934689999999
 20
115.471085
 30
0.0
 40
6.25
100
AcDbArc
 50
253.739796
 51
286.2602049999999
  0
ARC
  5
3D4
330
23F
100
AcDbEntity
  8
1
  6
Continuous
100
AcDbCircle
 10
348.0
 20
115.4710689999999
 30
0.0
 40
6.25
100
AcDbArc
 50
163.739797
 51
4.839171999999998
  0
TEXT
  5
3D5
330
23F
100
AcDbEntity
  8
6
  6
Continuous
100
AcDbText
 10
27.97945
 20
10.0487
 30
0.0
 40
1.399999999999999
  1
6
 41
1.069393
100
AcDbText
  0
TEXT
  5
3D6
330
23F
100
AcDbEntity
  8
1
  6
Continuous
100
AcDbText
 10
17.97945
 20
10.0487
 30
0.0
 40
1.399999999999999
  1
1
 41
1.069393
100
AcDbText
  0
TEXT
  5
3D7
330
23F
100
AcDbEntity
  8
1
  6
Continuous
100
AcDbText
 10
9.99995
 20
10.0
 30
0.0
 40
1.399999999999999
  1
LAYER
 41
1.009912999999997
100
AcDbText
  0
TEXT
  5
3D8
330
23F
100
AcDbEntity
  8
2
  6
Continuous
100
AcDbText
 10
19.97944999999998
 20
10.0487
 30
0.0
 40
1.399999999999999
  1
2
 41
1.069393
100
AcDbText
  0
TEXT
  5
3D9
330
23F
100
AcDbEntity
  8
3
  6
DASHED
100
AcDbText
 10
21.97945
 20
10.0487
 30
0.0
 40
1.399999999999999
  1
3
 41
1.069393
100
AcDbText
  0
TEXT
  5
3DA
330
23F
100
AcDbEntity
  8
4
  6
CENTER
100
AcDbText
 10
23.97944999999999
 20
10.0487
 30
0.0
 40
1.399999999999999
  1
4
 41
1.069393
100
AcDbText
  0
TEXT
  5
3DB
330
23F
100
AcDbEntity
  8
5
  6
PHANTOM
100
AcDbText
 10
25.97945
 20
10.0487
 30
0.0
 40
1.399999999999999
  1
5
 41
1.069393
100
AcDbText
  0
TEXT
  5
3DC
330
23F
100
AcDbEntity
  8
7
  6
Continuous
100
AcDbText
 10
10.00005
 20
26.0
 30
0.0
 40
3.0
  1
CODE No.5148
 41
1.003962999999999
100
AcDbText
  0
TEXT
  5
3DD
330
23F
100
AcDbEntity
  8
7
  6
Continuous
100
AcDbText
 10
10.00005
 20
18.0
 30
0.0
 40
3.0
  1
TYPE No.TM-89-R
 41
1.003152
100
AcDbText
  0
TEXT
  5
3DE
330
23F
100
AcDbEntity
  8
7
  6
Continuous
100
AcDbText
 10
29.97944999999999
 20
10.0487
 30
0.0
 40
1.399999999999999
  1
7
 41
1.069393
100
AcDbText
  0
LINE
  5
3DF
330
23F
100
AcDbEntity
  8
4
  6
CENTER
100
AcDbLine
 10
356.0
 20
115.471085
 30
0.0
 11
372.0
 21
115.471085
 31
0.0
  0
LINE
  5
3E0
330
23F
100
AcDbEntity
  8
4
  6
CENTER
100
AcDbLine
 10
364.0
 20
107.471085
 30
0.0
 11
364.0
 21
123.471085
 31
0.0
  0
LINE
  5
3E1
330
23F
100
AcDbEntity
  8
4
  6
CENTER
100
AcDbLine
 10
412.568532
 20
263.35331
 30
0.0
 11
401.254823
 21
252.0396009999998
 31
0.0
  0
LINE
  5
3E2
330
23F
100
AcDbEntity
  8
4
  6
CENTER
100
AcDbLine
 10
412.568532
 20
252.0396009999998
 30
0.0
 11
401.254823
 21
263.35331
 31
0.0
  0
LINE
  5
3E3
330
23F
100
AcDbEntity
  8
4
  6
CENTER
100
AcDbLine
 10
443.9999849999998
 20
203.4710689999998
 30
0.0
 11
427.999985
 21
203.4710689999998
 31
0.0
  0
LINE
  5
3E4
330
23F
100
AcDbEntity
  8
4
  6
CENTER
100
AcDbLine
 10
435.999985
 20
195.4710689999998
 30
0.0
 11
435.999985
 21
211.4710689999999
 31
0.0
  0
LINE
  5
3E5
330
23F
100
AcDbEntity
  8
4
  6
CENTER
100
AcDbLine
 10
412.568532
 20
138.9025379999999
 30
0.0
 11
423.88224
 21
150.2162459999999
 31
0.0
  0
LINE
  5
3E6
330
23F
100
AcDbEntity
  8
4
  6
CENTER
100
AcDbLine
 10
423.88224
 20
138.9025379999999
 30
0.0
 11
412.568532
 21
150.2162459999999
 31
0.0
  0
ARC
  5
3E7
330
23F
100
AcDbEntity
  8
5
  6
PHANTOM
100
AcDbCircle
 10
56.58179200000001
 20
257.6964859999999
 30
0.0
 40
6.0
100
AcDbArc
 50
44.999995
 51
213.5788139999999
  0
CIRCLE
  5
3E8
330
23F
100
AcDbEntity
  8
5
  6
PHANTOM
100
AcDbCircle
 10
56.58179200000001
 20
257.6964859999999
 30
0.0
 40
2.399999999999999
  0
LINE
  5
3E9
330
23F
100
AcDbEntity
  8
4
  6
CENTER
100
AcDbLine
 10
50.92493799999999
 20
263.35334
 30
0.0
 11
62.23864599999998
 21
252.0396319999999
 31
0.0
  0
LINE
  5
3EA
330
23F
100
AcDbEntity
  8
4
  6
CENTER
100
AcDbLine
 10
50.92493799999999
 20
252.0396319999999
 30
0.0
 11
62.23864599999998
 21
263.35334
 31
0.0
  0
LINE
  5
3EB
330
23F
100
AcDbEntity
  8
5
  6
PHANTOM
100
AcDbLine
 10
117.3929639999999
 20
205.370595
 30
0.0
 11
60.824432
 21
261.9391259999998
 31
0.0
  0
LINE
  5
3EC
330
23F
100
AcDbEntity
  8
5
  6
PHANTOM
100
AcDbLine
 10
95.82971399999999
 20
187.727959
 30
0.0
 11
51.583038
 21
254.378017
 31
0.0
  0
LINE
  5
3ED
330
23F
100
AcDbEntity
  8
5
  6
PHANTOM
100
AcDbLine
 10
104.7211759999999
 20
181.748352
 30
0.0
 11
26.305344
 21
197.5899349999999
 31
0.0
  0
LINE
  5
3EE
330
23F
100
AcDbEntity
  8
5
  6
PHANTOM
100
AcDbLine
 10
107.4934689999999
 20
209.4711
 30
0.0
 11
27.49348400000001
 21
209.4711
 31
0.0
  0
LINE
  5
3EF
330
23F
100
AcDbEntity
  8
4
  6
CENTER
100
AcDbLine
 10
19.49348399999999
 20
203.4711
 30
0.0
 11
35.493484
 21
203.4711
 31
0.0
  0
LINE
  5
3F0
330
23F
100
AcDbEntity
  8
4
  6
CENTER
100
AcDbLine
 10
27.49348400000001
 20
195.4710999999998
 30
0.0
 11
27.49348400000001
 21
211.4711
 31
0.0
  0
CIRCLE
  5
3F1
330
23F
100
AcDbEntity
  8
5
  6
PHANTOM
100
AcDbCircle
 10
27.49348400000001
 20
203.4711
 30
0.0
 40
2.399999999999999
  0
ARC
  5
3F2
330
23F
100
AcDbEntity
  8
5
  6
PHANTOM
100
AcDbCircle
 10
27.49348400000001
 20
203.4711
 30
0.0
 40
6.0
100
AcDbArc
 50
89.99999499999999
 51
258.578814
  0
LINE
  5
3F3
330
23F
100
AcDbEntity
  8
5
  6
PHANTOM
100
AcDbLine
 10
97.593974
 20
205.370595
 30
0.0
 11
41.025443
 21
148.8020629999998
 31
0.0
  0
LINE
  5
3F4
330
23F
100
AcDbEntity
  8
5
  6
PHANTOM
100
AcDbLine
 10
115.23661
 20
183.8073449999999
 30
0.0
 11
48.58655200000001
 21
139.5606689999999
 31
0.0
  0
ARC
  5
3F5
330
23F
100
AcDbEntity
  8
5
  6
PHANTOM
100
AcDbCircle
 10
45.26808299999999
 20
144.5594219999998
 30
0.0
 40
6.0
100
AcDbArc
 50
134.9999949999999
 51
303.578814
  0
CIRCLE
  5
3F6
330
23F
100
AcDbEntity
  8
5
  6
PHANTOM
100
AcDbCircle
 10
45.26808299999999
 20
144.5594219999998
 30
0.0
 40
2.399999999999999
  0
LINE
  5
3F7
330
23F
100
AcDbEntity
  8
4
  6
CENTER
100
AcDbLine
 10
50.92493799999999
 20
138.902568
 30
0.0
 11
39.61122899999999
 21
150.2162769999999
 31
0.0
  0
LINE
  5
3F8
330
23F
100
AcDbEntity
  8
4
  6
CENTER
100
AcDbLine
 10
39.61122899999999
 20
138.902568
 30
0.0
 11
50.92493799999999
 21
150.2162769999999
 31
0.0
  0
LINE
  5
3F9
330
23F
100
AcDbEntity
  8
5
  6
PHANTOM
100
AcDbLine
 10
121.2162169999998
 20
192.6988069999999
 30
0.0
 11
105.374634
 21
114.282974
 31
0.0
  0
LINE
  5
3FA
330
23F
100
AcDbEntity
  8
5
  6
PHANTOM
100
AcDbLine
 10
93.49346899999996
 20
195.4710999999998
 30
0.0
 11
93.49346899999996
 21
115.471115
 31
0.0
  0
ARC
  5
3FB
330
23F
100
AcDbEntity
  8
5
  6
PHANTOM
100
AcDbCircle
 10
99.49346900000001
 20
115.471115
 30
0.0
 40
6.0
100
AcDbArc
 50
179.9999949999999
 51
348.578814
  0
LINE
  5
3FC
330
23F
100
AcDbEntity
  8
4
  6
CENTER
100
AcDbLine
 10
107.4934689999999
 20
115.471115
 30
0.0
 11
91.49346900000001
 21
115.471115
 31
0.0
  0
LINE
  5
3FD
330
23F
100
AcDbEntity
  8
4
  6
CENTER
100
AcDbLine
 10
99.49346900000001
 20
107.4711149999999
 30
0.0
 11
99.49346900000001
 21
123.471115
 31
0.0
  0
CIRCLE
  5
3FE
330
23F
100
AcDbEntity
  8
5
  6
PHANTOM
100
AcDbCircle
 10
99.49346900000001
 20
115.471115
 30
0.0
 40
2.399999999999999
  0
LINE
  5
3FF
330
23F
100
AcDbEntity
  8
5
  6
PHANTOM
100
AcDbLine
 10
54.460471
 20
268.303072
 30
0.0
 11
59.586996
 21
263.176548
 31
0.0
  0
LINE
  5
400
330
23F
100
AcDbEntity
  8
5
  6
PHANTOM
100
AcDbLine
 10
45.97519000000001
 20
259.8177909999999
 30
0.0
 11
54.460471
 21
268.303072
 31
0.0
  0
ARC
  5
401
330
23F
100
AcDbEntity
  8
5
  6
PHANTOM
100
AcDbCircle
 10
56.58179200000001
 20
257.6964709999999
 30
0.0
 40
6.25
100
AcDbArc
 50
28.739796
 51
229.8390299999998
  0
LINE
  5
402
330
23F
100
AcDbEntity
  8
5
  6
PHANTOM
100
AcDbLine
 10
45.97519000000001
 20
259.8177909999999
 30
0.0
 11
51.101714
 21
254.6912669999999
 31
0.0
  0
LINE
  5
403
330
23F
100
AcDbEntity
  8
4
  6
CENTER
100
AcDbLine
 10
46.643044
 20
264.8067909999999
 30
0.0
 11
52.574904
 21
258.874932
 31
0.0
  0
LINE
  5
404
330
23F
100
AcDbEntity
  8
4
  6
CENTER
100
AcDbLine
 10
49.471471
 20
267.635218
 30
0.0
 11
55.40333100000001
 21
261.7033589999999
 31
0.0
  0
LINE
  5
405
330
23F
100
AcDbEntity
  8
5
  6
PHANTOM
100
AcDbLine
 10
18.493484
 20
209.4710849999999
 30
0.0
 11
25.74348399999999
 21
209.4710849999999
 31
0.0
  0
LINE
  5
406
330
23F
100
AcDbEntity
  8
5
  6
PHANTOM
100
AcDbLine
 10
18.493484
 20
197.4710849999999
 30
0.0
 11
18.493484
 21
209.4710849999999
 31
0.0
  0
ARC
  5
407
330
23F
100
AcDbEntity
  8
5
  6
PHANTOM
100
AcDbCircle
 10
27.49348400000001
 20
203.4710849999999
 30
0.0
 40
6.25
100
AcDbArc
 50
73.739796
 51
274.83903
  0
LINE
  5
408
330
23F
100
AcDbEntity
  8
5
  6
PHANTOM
100
AcDbLine
 10
18.493484
 20
197.4710849999999
 30
0.0
 11
25.74348399999999
 21
197.4710849999999
 31
0.0
  0
LINE
  5
409
330
23F
100
AcDbEntity
  8
4
  6
CENTER
100
AcDbLine
 10
15.437973
 20
201.4710849999999
 30
0.0
 11
23.826889
 21
201.4710849999999
 31
0.0
  0
LINE
  5
40A
330
23F
100
AcDbEntity
  8
4
  6
CENTER
100
AcDbLine
 10
15.437973
 20
205.4710849999999
 30
0.0
 11
23.826889
 21
205.4710849999999
 31
0.0
  0
LINE
  5
40B
330
23F
100
AcDbEntity
  8
5
  6
PHANTOM
100
AcDbLine
 10
34.661482
 20
142.438087
 30
0.0
 11
39.788006
 21
147.564611
 31
0.0
  0
LINE
  5
40C
330
23F
100
AcDbEntity
  8
5
  6
PHANTOM
100
AcDbLine
 10
43.146763
 20
133.952805
 30
0.0
 11
34.661482
 21
142.438087
 31
0.0
  0
ARC
  5
40D
330
23F
100
AcDbEntity
  8
5
  6
PHANTOM
100
AcDbCircle
 10
45.26808299999999
 20
144.559407
 30
0.0
 40
6.25
100
AcDbArc
 50
118.7397959999999
 51
319.8390299999999
  0
LINE
  5
40E
330
23F
100
AcDbEntity
  8
5
  6
PHANTOM
100
AcDbLine
 10
43.146763
 20
133.952805
 30
0.0
 11
48.27328699999998
 21
139.07933
 31
0.0
  0
LINE
  5
40F
330
23F
100
AcDbEntity
  8
4
  6
CENTER
100
AcDbLine
 10
38.157763
 20
134.6206599999999
 30
0.0
 11
44.089622
 21
140.5525189999998
 31
0.0
  0
LINE
  5
410
330
23F
100
AcDbEntity
  8
4
  6
CENTER
100
AcDbLine
 10
35.32933599999999
 20
137.449087
 30
0.0
 11
41.261195
 21
143.3809459999999
 31
0.0
  0
LINE
  5
411
330
23F
100
AcDbEntity
  8
5
  6
PHANTOM
100
AcDbLine
 10
93.49346899999996
 20
106.4711
 30
0.0
 11
93.49346899999996
 21
113.7211
 31
0.0
  0
LINE
  5
412
330
23F
100
AcDbEntity
  8
5
  6
PHANTOM
100
AcDbLine
 10
105.4934689999999
 20
106.4711
 30
0.0
 11
93.49346899999996
 21
106.4711
 31
0.0
  0
ARC
  5
413
330
23F
100
AcDbEntity
  8
5
  6
PHANTOM
100
AcDbCircle
 10
99.49346900000001
 20
115.4711
 30
0.0
 40
6.25
100
AcDbArc
 50
163.7397959999999
 51
4.83903
  0
LINE
  5
414
330
23F
100
AcDbEntity
  8
5
  6
PHANTOM
100
AcDbLine
 10
105.4934689999999
 20
106.4711
 30
0.0
 11
105.4934689999999
 21
113.7211
 31
0.0
  0
LINE
  5
415
330
23F
100
AcDbEntity
  8
4
  6
CENTER
100
AcDbLine
 10
101.493469
 20
103.4155879999999
 30
0.0
 11
101.493469
 21
111.8045039999999
 31
0.0
  0
LINE
  5
416
330
23F
100
AcDbEntity
  8
4
  6
CENTER
100
AcDbLine
 10
97.49346899999999
 20
103.4155879999999
 30
0.0
 11
97.49346899999999
 21
111.8045039999999
 31
0.0
  0
LINE
  5
417
330
23F
100
AcDbEntity
  8
5
  6
PHANTOM
100
AcDbLine
 10
409.033009
 20
268.3030679999999
 30
0.0
 11
417.51829
 21
259.817786
 31
0.0
  0
LINE
  5
418
330
23F
100
AcDbEntity
  8
4
  6
CENTER
100
AcDbLine
 10
416.1040759999998
 20
264.060427
 30
0.0
 11
411.0319529999999
 21
258.988304
 31
0.0
  0
LINE
  5
419
330
23F
100
AcDbEntity
  8
5
  6
PHANTOM
100
AcDbLine
 10
407.6187949999998
 20
266.8888539999999
 30
0.0
 11
416.1040759999998
 21
258.403573
 31
0.0
  0
LINE
  5
41A
330
23F
100
AcDbEntity
  8
5
  6
PHANTOM
100
AcDbLine
 10
417.51829
 20
259.817786
 30
0.0
 11
408.3259019999998
 21
250.6253979999999
 31
0.0
  0
CIRCLE
  5
41B
330
23F
100
AcDbEntity
  8
5
  6
PHANTOM
100
AcDbCircle
 10
406.911688
 20
257.6964659999998
 30
0.0
 40
4.0
  0
LINE
  5
41C
330
23F
100
AcDbEntity
  8
4
  6
CENTER
100
AcDbLine
 10
413.275649
 20
266.8888539999999
 30
0.0
 11
408.2035259999998
 21
261.816731
 31
0.0
  0
LINE
  5
41D
330
23F
100
AcDbEntity
  8
5
  6
PHANTOM
100
AcDbLine
 10
349.6360389999999
 20
208.9060979999999
 30
0.0
 11
409.033009
 21
268.3030679999999
 31
0.0
  0
ARC
  5
41E
330
23F
100
AcDbEntity
  8
5
  6
PHANTOM
100
AcDbCircle
 10
406.911688
 20
257.6964659999998
 30
0.0
 40
6.25
100
AcDbArc
 50
118.739797
 51
151.260199
  0
ARC
  5
41F
330
23F
100
AcDbEntity
  8
5
  6
PHANTOM
100
AcDbCircle
 10
409.740115
 20
260.524893
 30
0.0
 40
10.0
100
AcDbArc
 50
188.130097
 51
261.869902
  0
ARC
  5
420
330
23F
100
AcDbEntity
  8
5
  6
PHANTOM
100
AcDbCircle
 10
406.911688
 20
257.6964659999998
 30
0.0
 40
6.25
100
AcDbArc
 50
298.739796
 51
331.2602039999998
  0
LINE
  5
421
330
23F
100
AcDbEntity
  8
5
  6
PHANTOM
100
AcDbLine
 10
367.6637549999999
 20
187.7279289999999
 30
0.0
 11
410.9424859999998
 21
252.9199779999999
 31
0.0
  0
LINE
  5
422
330
23F
100
AcDbEntity
  8
5
  6
PHANTOM
100
AcDbLine
 10
445.0
 20
209.4710689999998
 30
0.0
 11
445.0
 21
197.471069
 31
0.0
  0
LINE
  5
423
330
23F
100
AcDbEntity
  8
4
  6
CENTER
100
AcDbLine
 10
447.0
 20
201.471069
 30
0.0
 11
439.8269349999998
 21
201.471069
 31
0.0
  0
LINE
  5
424
330
23F
100
AcDbEntity
  8
5
  6
PHANTOM
100
AcDbLine
 10
443.0
 20
209.4710689999998
 30
0.0
 11
443.0
 21
197.471069
 31
0.0
  0
LINE
  5
425
330
23F
100
AcDbEntity
  8
5
  6
PHANTOM
100
AcDbLine
 10
445.0
 20
197.471069
 30
0.0
 11
432.0
 21
197.471069
 31
0.0
  0
CIRCLE
  5
426
330
23F
100
AcDbEntity
  8
5
  6
PHANTOM
100
AcDbCircle
 10
436.0
 20
203.4710689999998
 30
0.0
 40
4.0
  0
LINE
  5
427
330
23F
100
AcDbEntity
  8
4
  6
CENTER
100
AcDbLine
 10
447.0
 20
205.4710689999998
 30
0.0
 11
439.8269349999998
 21
205.4710689999998
 31
0.0
  0
LINE
  5
428
330
23F
100
AcDbEntity
  8
5
  6
PHANTOM
100
AcDbLine
 10
361.0
 20
209.4710689999998
 30
0.0
 11
445.0
 21
209.4710689999998
 31
0.0
  0
ARC
  5
429
330
23F
100
AcDbEntity
  8
5
  6
PHANTOM
100
AcDbCircle
 10
436.0
 20
203.4710689999998
 30
0.0
 40
6.25
100
AcDbArc
 50
73.73979699999998
 51
106.260199
  0
ARC
  5
42A
330
23F
100
AcDbEntity
  8
5
  6
PHANTOM
100
AcDbCircle
 10
440.0
 20
203.4710689999998
 30
0.0
 40
10.0
100
AcDbArc
 50
143.130097
 51
216.869902
  0
ARC
  5
42B
330
23F
100
AcDbEntity
  8
5
  6
PHANTOM
100
AcDbCircle
 10
436.0
 20
203.4710689999998
 30
0.0
 40
6.25
100
AcDbArc
 50
253.739796
 51
286.260204
  0
LINE
  5
42C
330
23F
100
AcDbEntity
  8
5
  6
PHANTOM
100
AcDbLine
 10
358.7722929999998
 20
181.7483219999998
 30
0.0
 11
435.472717
 21
197.243378
 31
0.0
  0
LINE
  5
42D
330
23F
100
AcDbEntity
  8
5
  6
PHANTOM
100
AcDbLine
 10
428.831998
 20
142.438061
 30
0.0
 11
420.346717
 21
133.9527789999999
 31
0.0
  0
LINE
  5
42E
330
23F
100
AcDbEntity
  8
4
  6
CENTER
100
AcDbLine
 10
424.5893579999998
 20
135.3669929999998
 30
0.0
 11
419.5172349999998
 21
140.4391159999998
 31
0.0
  0
LINE
  5
42F
330
23F
100
AcDbEntity
  8
5
  6
PHANTOM
100
AcDbLine
 10
427.417785
 20
143.8522739999999
 30
0.0
 11
418.9325039999998
 21
135.3669929999998
 31
0.0
  0
LINE
  5
430
330
23F
100
AcDbEntity
  8
5
  6
PHANTOM
100
AcDbLine
 10
420.346717
 20
133.9527789999999
 30
0.0
 11
411.154329
 21
143.1451679999999
 31
0.0
  0
CIRCLE
  5
431
330
23F
100
AcDbEntity
  8
5
  6
PHANTOM
100
AcDbCircle
 10
418.2253969999998
 20
144.559381
 30
0.0
 40
4.0
  0
LINE
  5
432
330
23F
100
AcDbEntity
  8
4
  6
CENTER
100
AcDbLine
 10
427.417785
 20
138.1954199999998
 30
0.0
 11
422.345662
 21
143.2675429999999
 31
0.0
  0
LINE
  5
433
330
23F
100
AcDbEntity
  8
5
  6
PHANTOM
100
AcDbLine
 10
369.435029
 20
201.8350299999999
 30
0.0
 11
428.831998
 21
142.438061
 31
0.0
  0
ARC
  5
434
330
23F
100
AcDbEntity
  8
5
  6
PHANTOM
100
AcDbCircle
 10
418.2253969999998
 20
144.559381
 30
0.0
 40
6.25
100
AcDbArc
 50
28.73979699999999
 51
61.26019900000001
  0
ARC
  5
435
330
23F
100
AcDbEntity
  8
5
  6
PHANTOM
100
AcDbCircle
 10
421.0538239999998
 20
141.7309539999999
 30
0.0
 40
10.0
100
AcDbArc
 50
98.130097
 51
171.869902
  0
ARC
  5
436
330
23F
100
AcDbEntity
  8
5
  6
PHANTOM
100
AcDbCircle
 10
418.2253969999998
 20
144.559381
 30
0.0
 40
6.25
100
AcDbArc
 50
208.739796
 51
241.2602039999999
  0
LINE
  5
437
330
23F
100
AcDbEntity
  8
5
  6
PHANTOM
100
AcDbLine
 10
348.2568589999999
 20
183.8073139999999
 30
0.0
 11
413.4489089999998
 21
140.5285829999999
 31
0.0
  0
LINE
  5
438
330
23F
100
AcDbEntity
  8
5
  6
PHANTOM
100
AcDbLine
 10
370.0
 20
106.471069
 30
0.0
 11
358.0
 21
106.471069
 31
0.0
  0
LINE
  5
439
330
23F
100
AcDbEntity
  8
4
  6
CENTER
100
AcDbLine
 10
362.0
 20
104.471069
 30
0.0
 11
362.0
 21
111.644135
 31
0.0
  0
LINE
  5
43A
330
23F
100
AcDbEntity
  8
5
  6
PHANTOM
100
AcDbLine
 10
370.0
 20
108.471069
 30
0.0
 11
358.0
 21
108.471069
 31
0.0
  0
LINE
  5
43B
330
23F
100
AcDbEntity
  8
5
  6
PHANTOM
100
AcDbLine
 10
358.0
 20
106.471069
 30
0.0
 11
358.0
 21
119.4710689999999
 31
0.0
  0
CIRCLE
  5
43C
330
23F
100
AcDbEntity
  8
5
  6
PHANTOM
100
AcDbCircle
 10
364.0
 20
115.4710689999999
 30
0.0
 40
4.0
  0
LINE
  5
43D
330
23F
100
AcDbEntity
  8
4
  6
CENTER
100
AcDbLine
 10
366.0
 20
104.471069
 30
0.0
 11
366.0
 21
111.644135
 31
0.0
  0
LINE
  5
43E
330
23F
100
AcDbEntity
  8
5
  6
PHANTOM
100
AcDbLine
 10
370.0
 20
190.4710689999998
 30
0.0
 11
370.0
 21
106.471069
 31
0.0
  0
ARC
  5
43F
330
23F
100
AcDbEntity
  8
5
  6
PHANTOM
100
AcDbCircle
 10
364.0
 20
115.4710689999999
 30
0.0
 40
6.25
100
AcDbArc
 50
343.739797
 51
16.260199
  0
ARC
  5
440
330
23F
100
AcDbEntity
  8
5
  6
PHANTOM
100
AcDbCircle
 10
364.0
 20
111.471069
 30
0.0
 40
10.0
100
AcDbArc
 50
53.130097
 51
126.8699019999999
  0
ARC
  5
441
330
23F
100
AcDbEntity
  8
1
  6
Continuous
100
AcDbCircle
 10
364.0
 20
115.4710689999999
 30
0.0
 40
6.25
100
AcDbArc
 50
163.7397959999999
 51
196.2602039999999
  0
LINE
  5
442
330
23F
100
AcDbEntity
  8
5
  6
PHANTOM
100
AcDbLine
 10
342.2772519999999
 20
192.698776
 30
0.0
 11
357.772308
 21
115.9983519999999
 31
0.0
  0
ENDSEC
  0
SECTION
  2
OBJECTS
  0
DICTIONARY
  5
22D
330
0
100
AcDbDictionary
281
     1
  3
ACAD_CIP_PREVIOUS_PRODUCT_INFO
350
4A8
  3
ACAD_COLOR
350
48A
  3
ACAD_DETAILVIEWSTYLE
350
4A3
  3
ACAD_GROUP
350
22E
  3
ACAD_LAYOUT
350
23A
  3
ACAD_MATERIAL
350
458
  3
ACAD_MLEADERSTYLE
350
49F
  3
ACAD_MLINESTYLE
350
237
  3
ACAD_PLOTSETTINGS
350
239
  3
ACAD_PLOTSTYLENAME
350
456
  3
ACAD_SCALELIST
350
48D
  3
ACAD_SECTIONVIEWSTYLE
350
4A1
  3
ACAD_TABLESTYLE
350
48B
  3
ACAD_VISUALSTYLE
350
471
  3
ACDB_RECOMPOSE_DATA
350
4C6
  3
AcDbVariableDictionary
350
4B9
  3
DWGPROPS
350
4C7
  0
DICTIONARY
  5
4A9
330
231
100
AcDbDictionary
280
     1
281
     1
  3
ADSK_XREC_LAYER_RECONCILED
360
4AA
  0
DICTIONARY
  5
4AB
330
247
100
AcDbDictionary
280
     1
281
     1
  3
ADSK_XREC_LAYER_RECONCILED
360
4AC
  0
DICTIONARY
  5
4AD
330
248
100
AcDbDictionary
280
     1
281
     1
  3
ADSK_XREC_LAYER_RECONCILED
360
4AE
  0
DICTIONARY
  5
4AF
330
249
100
AcDbDictionary
280
     1
281
     1
  3
ADSK_XREC_LAYER_RECONCILED
360
4B0
  0
DICTIONARY
  5
4B1
330
24A
100
AcDbDictionary
280
     1
281
     1
  3
ADSK_XREC_LAYER_RECONCILED
360
4B2
  0
DICTIONARY
  5
4B3
330
24B
100
AcDbDictionary
280
     1
281
     1
  3
ADSK_XREC_LAYER_RECONCILED
360
4B4
  0
DICTIONARY
  5
4B5
330
24C
100
AcDbDictionary
280
     1
281
     1
  3
ADSK_XREC_LAYER_RECONCILED
360
4B6
  0
DICTIONARY
  5
4B7
330
24D
100
AcDbDictionary
280
     1
281
     1
  3
ADSK_XREC_LAYER_RECONCILED
360
4B8
  0
DICTIONARY
  5
451
330
23F
100
AcDbDictionary
281
     1
  3
ACAD_LAYOUTSELFREF
350
452
  0
DICTIONARY
  5
44F
330
23B
100
AcDbDictionary
281
     1
  3
ACAD_LAYOUTSELFREF
350
450
  0
XRECORD
  5
4A8
102
{ACAD_REACTORS
330
22D
102
}
330
22D
100
AcDbXrecord
280
     1
300
ACDLT
300
2014
300
ACDLT_F_S
  0
DICTIONARY
  5
48A
102
{ACAD_REACTORS
330
22D
102
}
330
22D
100
AcDbDictionary
281
     1
  0
DICTIONARY
  5
4A3
102
{ACAD_REACTORS
330
22D
102
}
330
22D
100
AcDbDictionary
281
     1
  3
Imperial24
350
4A4
  0
DICTIONARY
  5
22E
102
{ACAD_REACTORS
330
22D
102
}
330
22D
100
AcDbDictionary
281
     1
  0
DICTIONARY
  5
23A
102
{ACAD_REACTORS
330
22D
102
}
330
22D
100
AcDbDictionary
281
     1
  3
Model
350
4A5
  3
レイアウト1
350
4A6
  0
DICTIONARY
  5
458
102
{ACAD_REACTORS
330
22D
102
}
330
22D
100
AcDbDictionary
281
     1
  3
ByBlock
350
461
  3
ByLayer
350
459
  3
Global
350
469
  0
DICTIONARY
  5
49F
102
{ACAD_REACTORS
330
22D
102
}
330
22D
100
AcDbDictionary
281
     1
  3
Standard
350
4A0
  0
DICTIONARY
  5
237
102
{ACAD_REACTORS
330
22D
102
}
330
22D
100
AcDbDictionary
281
     1
  3
STANDARD
350
238
  0
DICTIONARY
  5
239
102
{ACAD_REACTORS
330
22D
102
}
330
22D
100
AcDbDictionary
281
     1
  0
ACDBDICTIONARYWDFLT
  5
456
102
{ACAD_REACTORS
330
22D
102
}
330
22D
100
AcDbDictionary
281
     1
  3
Normal
350
457
100
AcDbDictionaryWithDefault
340
457
  0
DICTIONARY
  5
48D
102
{ACAD_REACTORS
330
22D
102
}
330
22D
100
AcDbDictionary
281
     1
  3
A0
350
48E
  3
A1
350
48F
  3
A2
350
490
  3
A3
350
491
  3
A4
350
492
  3
A5
350
493
  3
A6
350
494
  3
A7
350
495
  3
A8
350
496
  3
A9
350
497
  3
B0
350
498
  3
B1
350
499
  3
B2
350
49A
  3
B3
350
49B
  3
B4
350
49C
  3
B5
350
49D
  3
B6
350
49E
  0
DICTIONARY
  5
4A1
102
{ACAD_REACTORS
330
22D
102
}
330
22D
100
AcDbDictionary
281
     1
  3
Imperial24
350
4A2
  0
DICTIONARY
  5
48B
102
{ACAD_REACTORS
330
22D
102
}
330
22D
100
AcDbDictionary
281
     1
  3
Standard
350
48C
  0
DICTIONARY
  5
471
102
{ACAD_REACTORS
330
22D
102
}
330
22D
100
AcDbDictionary
281
     1
  3
2dWireframe
350
477
  3
Basic
350
476
  3
Brighten
350
47D
  3
ColorChange
350
481
  3
Conceptual
350
47A
  3
Dim
350
47C
  3
EdgeColorOff
350
489
  3
Facepattern
350
480
  3
Flat
350
472
  3
FlatWithEdges
350
473
  3
Gouraud
350
474
  3
GouraudWithEdges
350
475
  3
Hidden
350
479
  3
JitterOff
350
487
  3
Linepattern
350
47F
  3
OverhangOff
350
488
  3
Realistic
350
47B
  3
Shaded
350
486
  3
Shaded with edges
350
485
  3
Shades of Gray
350
482
  3
Sketchy
350
483
  3
Thicken
350
47E
  3
Wireframe
350
478
  3
X-Ray
350
484
  0
XRECORD
  5
4C6
102
{ACAD_REACTORS
330
22D
102
}
330
22D
100
AcDbXrecord
280
     1
 90
        1
330
48C
  0
DICTIONARY
  5
4B9
102
{ACAD_REACTORS
330
22D
102
}
330
22D
100
AcDbDictionary
281
     1
  3
CANNOSCALE
350
4BE
  3
CMLEADERSTYLE
350
4BB
  3
CTABLESTYLE
350
4BA
  3
CVIEWDETAILSTYLE
350
4BC
  3
CVIEWSECTIONSTYLE
350
4BD
  3
DIMASSOC
350
4C1
  3
INDEXCTL
350
4C0
  3
SORTENTS
350
4BF
  3
XCLIPFRAME
350
4C2
  0
XRECORD
  5
4C7
102
{ACAD_REACTORS
330
22D
102
}
330
22D
100
AcDbXrecord
280
     1
  1
DWGPROPS COOKIE
  2

  3

  4

  6

  7

  8
Yoshitsune
  9

300
=
301
=
302
=
303
=
304
=
305
=
306
=
307
=
308
=
309
=
 40
0.0000147106481481
 41
2451069.70444294
 42
2457192.62290838
  1

 90
        0
  0
XRECORD
  5
4AA
102
{ACAD_REACTORS
330
4A9
102
}
330
4A9
100
AcDbXrecord
280
     1
290
     1
  0
XRECORD
  5
4AC
102
{ACAD_REACTORS
330
4AB
102
}
330
4AB
100
AcDbXrecord
280
     1
290
     1
  0
XRECORD
  5
4AE
102
{ACAD_REACTORS
330
4AD
102
}
330
4AD
100
AcDbXrecord
280
     1
290
     1
  0
XRECORD
  5
4B0
102
{ACAD_REACTORS
330
4AF
102
}
330
4AF
100
AcDbXrecord
280
     1
290
     1
  0
XRECORD
  5
4B2
102
{ACAD_REACTORS
330
4B1
102
}
330
4B1
100
AcDbXrecord
280
     1
290
     1
  0
XRECORD
  5
4B4
102
{ACAD_REACTORS
330
4B3
102
}
330
4B3
100
AcDbXrecord
280
     1
290
     1
  0
XRECORD
  5
4B6
102
{ACAD_REACTORS
330
4B5
102
}
330
4B5
100
AcDbXrecord
280
     1
290
     1
  0
XRECORD
  5
4B8
102
{ACAD_REACTORS
330
4B7
102
}
330
4B7
100
AcDbXrecord
280
     1
290
     1
  0
XRECORD
  5
452
102
{ACAD_REACTORS
330
451
102
}
330
451
100
AcDbXrecord
280
     1
340
23F
  0
XRECORD
  5
450
102
{ACAD_REACTORS
330
44F
102
}
330
44F
100
AcDbXrecord
280
     1
340
23B
  0
ACDBDETAILVIEWSTYLE
  5
4A4
102
{ACAD_XDICTIONARY
360
4FF
102
}
102
{ACAD_REACTORS
330
4A3
102
}
330
4A3
100
AcDbModelDocViewStyle
 70
     0
  3
Imperial24
290
     0
100
AcDbDetailViewStyle
 70
     0
 71
     0
 90
        3
 71
     1
340
232
 40
0.24
340
0
 40
0.24
300

 40
0.36
280
     3
 71
     2
340
236
 90
       25
 71
     3
340
232
 40
0.24
 90
        1
 40
0.75
 90
        1
300
%<\AcVar ViewType \f "%tc1">% %<\AcVar ViewDetailId>%\PSCALE %<\AcVar ViewScale \f "%sn">%
 71
     4
340
236
 90
       25
340
236
 90
       25
280
     0
  0
LAYOUT
  5
4A5
102
{ACAD_XDICTIONARY
360
501
102
}
102
{ACAD_REACTORS
330
23A
102
}
330
23A
100
AcDbPlotSettings
  1

  2
Canon LBP9100C
  4

  6

 40
0.0
 41
0.0
 42
0.0
 43
0.0
 44
0.0
 45
0.0
 46
0.0
 47
0.0
 48
0.0
 49
0.0
140
0.0
141
0.0
142
1.0
143
1.0
 70
  1712
 72
     0
 73
     0
 74
     0
  7

 75
     0
147
1.0
148
0.0
149
0.0
100
AcDbLayout
  1
Model
 70
     1
 71
     0
 10
0.0
 20
0.0
 11
12.0
 21
9.0
 12
0.0
 22
0.0
 32
0.0
 14
0.0
 24
0.0
 34
0.0
 15
0.0
 25
0.0
 35
0.0
146
0.0
 13
0.0
 23
0.0
 33
0.0
 16
1.0
 26
0.0
 36
0.0
 17
0.0
 27
1.0
 37
0.0
 76
     0
330
23F
331
44E
  0
LAYOUT
  5
4A6
102
{ACAD_XDICTIONARY
360
503
102
}
102
{ACAD_REACTORS
330
23A
102
}
330
23A
100
AcDbPlotSettings
  1

  2
Canon LBP9100C
  4

  6

 40
0.0
 41
0.0
 42
0.0
 43
0.0
 44
0.0
 45
0.0
 46
0.0
 47
0.0
 48
0.0
 49
0.0
140
0.0
141
0.0
142
1.0
143
1.0
 70
   688
 72
     0
 73
     0
 74
     5
  7

 75
    16
147
1.0
148
0.0
149
0.0
100
AcDbLayout
  1
レイアウト1
 70
     0
 71
     1
 10
0.0
 20
0.0
 11
420.0
 21
297.0
 12
0.0
 22
0.0
 32
0.0
 14
1.000000000000000E+20
 24
1.000000000000000E+20
 34
1.000000000000000E+20
 15
-1.000000000000000E+20
 25
-1.000000000000000E+20
 35
-1.000000000000000E+20
146
0.0
 13
0.0
 23
0.0
 33
0.0
 16
1.0
 26
0.0
 36
0.0
 17
0.0
 27
1.0
 37
0.0
 76
     0
330
23B
  0
MATERIAL
  5
461
102
{ACAD_XDICTIONARY
360
462
102
}
102
{ACAD_REACTORS
330
458
102
}
330
458
100
AcDbMaterial
  1
ByBlock
 72
     0
 43
0.0208333333333333
 43
0.0
 43
0.0
 43
0.0
 43
0.0
 43
0.0208333333333333
 43
0.0
 43
0.0
 43
0.0
 43
0.0
 43
1.0
 43
0.0
 43
0.0
 43
0.0
 43
0.0
 43
1.0
 77
     0
 47
0.0208333333333333
 47
0.0
 47
0.0
 47
0.0
 47
0.0
 47
0.0208333333333333
 47
0.0
 47
0.0
 47
0.0
 47
0.0
 47
1.0
 47
0.0
 47
0.0
 47
0.0
 47
0.0
 47
1.0
171
     0
 49
0.0208333333333333
 49
0.0
 49
0.0
 49
0.0
 49
0.0
 49
0.0208333333333333
 49
0.0
 49
0.0
 49
0.0
 49
0.0
 49
1.0
 49
0.0
 49
0.0
 49
0.0
 49
0.0
 49
1.0
175
     0
142
0.0208333333333333
142
0.0
142
0.0
142
0.0
142
0.0
142
0.0208333333333333
142
0.0
142
0.0
142
0.0
142
0.0
142
1.0
142
0.0
142
0.0
142
0.0
142
0.0
142
1.0
179
     0
144
0.0208333333333333
144
0.0
144
0.0
144
0.0
144
0.0
144
0.0208333333333333
144
0.0
144
0.0
144
0.0
144
0.0
144
1.0
144
0.0
144
0.0
144
0.0
144
0.0
144
1.0
147
0.0208333333333333
147
0.0
147
0.0
147
0.0
147
0.0
147
0.0208333333333333
147
0.0
147
0.0
147
0.0
147
0.0
147
1.0
147
0.0
147
0.0
147
0.0
147
0.0
147
1.0
  0
MATERIAL
  5
459
102
{ACAD_XDICTIONARY
360
45A
102
}
102
{ACAD_REACTORS
330
458
102
}
330
458
100
AcDbMaterial
  1
ByLayer
 72
     0
 43
0.0208333333333333
 43
0.0
 43
0.0
 43
0.0
 43
0.0
 43
0.0208333333333333
 43
0.0
 43
0.0
 43
0.0
 43
0.0
 43
1.0
 43
0.0
 43
0.0
 43
0.0
 43
0.0
 43
1.0
 77
     0
 47
0.0208333333333333
 47
0.0
 47
0.0
 47
0.0
 47
0.0
 47
0.0208333333333333
 47
0.0
 47
0.0
 47
0.0
 47
0.0
 47
1.0
 47
0.0
 47
0.0
 47
0.0
 47
0.0
 47
1.0
171
     0
 49
0.0208333333333333
 49
0.0
 49
0.0
 49
0.0
 49
0.0
 49
0.0208333333333333
 49
0.0
 49
0.0
 49
0.0
 49
0.0
 49
1.0
 49
0.0
 49
0.0
 49
0.0
 49
0.0
 49
1.0
175
     0
142
0.0208333333333333
142
0.0
142
0.0
142
0.0
142
0.0
142
0.0208333333333333
142
0.0
142
0.0
142
0.0
142
0.0
142
1.0
142
0.0
142
0.0
142
0.0
142
0.0
142
1.0
179
     0
144
0.0208333333333333
144
0.0
144
0.0
144
0.0
144
0.0
144
0.0208333333333333
144
0.0
144
0.0
144
0.0
144
0.0
144
1.0
144
0.0
144
0.0
144
0.0
144
0.0
144
1.0
147
0.0208333333333333
147
0.0
147
0.0
147
0.0
147
0.0
147
0.0208333333333333
147
0.0
147
0.0
147
0.0
147
0.0
147
1.0
147
0.0
147
0.0
147
0.0
147
0.0
147
1.0
  0
MATERIAL
  5
469
102
{ACAD_XDICTIONARY
360
46A
102
}
102
{ACAD_REACTORS
330
458
102
}
330
458
100
AcDbMaterial
  1
Global
 72
     0
 43
0.0208333333333333
 43
0.0
 43
0.0
 43
0.0
 43
0.0
 43
0.0208333333333333
 43
0.0
 43
0.0
 43
0.0
 43
0.0
 43
1.0
 43
0.0
 43
0.0
 43
0.0
 43
0.0
 43
1.0
 77
     0
 47
0.0208333333333333
 47
0.0
 47
0.0
 47
0.0
 47
0.0
 47
0.0208333333333333
 47
0.0
 47
0.0
 47
0.0
 47
0.0
 47
1.0
 47
0.0
 47
0.0
 47
0.0
 47
0.0
 47
1.0
171
     0
 49
0.0208333333333333
 49
0.0
 49
0.0
 49
0.0
 49
0.0
 49
0.0208333333333333
 49
0.0
 49
0.0
 49
0.0
 49
0.0
 49
1.0
 49
0.0
 49
0.0
 49
0.0
 49
0.0
 49
1.0
175
     0
142
0.0208333333333333
142
0.0
142
0.0
142
0.0
142
0.0
142
0.0208333333333333
142
0.0
142
0.0
142
0.0
142
0.0
142
1.0
142
0.0
142
0.0
142
0.0
142
0.0
142
1.0
179
     0
144
0.0208333333333333
144
0.0
144
0.0
144
0.0
144
0.0
144
0.0208333333333333
144
0.0
144
0.0
144
0.0
144
0.0
144
1.0
144
0.0
144
0.0
144
0.0
144
0.0
144
1.0
147
0.0208333333333333
147
0.0
147
0.0
147
0.0
147
0.0
147
0.0208333333333333
147
0.0
147
0.0
147
0.0
147
0.0
147
1.0
147
0.0
147
0.0
147
0.0
147
0.0
147
1.0
  0
MLEADERSTYLE
  5
4A0
102
{ACAD_REACTORS
330
49F
102
}
330
49F
100
AcDbMLeaderStyle
170
     2
171
     1
172
     0
 90
        2
 40
0.0
 41
0.0
173
     1
 91
-1056964608
340
234
 92
       -2
290
     1
 42
0.09
291
     1
 43
0.36
  3
Standard
 44
0.18
300

342
232
174
     1
178
     6
175
     1
176
     0
 93
-1056964608
 45
0.18
292
     0
297
     0
 46
0.18
 94
-1056964608
 47
1.0
 49
1.0
140
1.0
293
     1
141
0.0
294
     1
177
     0
142
1.0
295
     0
296
     0
143
0.125
1001
ACAD_MLEADERVER
1070
     2
  0
MLINESTYLE
  5
238
102
{ACAD_REACTORS
330
237
102
}
330
237
100
AcDbMlineStyle
  2
STANDARD
 70
     0
  3

 62
   256
 51
90.0
 52
90.0
 71
     2
 49
0.5
 62
   256
  6
BYLAYER
 49
-0.5
 62
   256
  6
BYLAYER
  0
ACDBPLACEHOLDER
  5
457
102
{ACAD_REACTORS
330
456
102
}
330
456
  0
SCALE
  5
48E
102
{ACAD_REACTORS
330
48D
102
}
330
48D
100
AcDbScale
 70
     0
300
1:1
140
1.0
141
1.0
290
     1
  0
SCALE
  5
48F
102
{ACAD_REACTORS
330
48D
102
}
330
48D
100
AcDbScale
 70
     0
300
1/128" = 1'-0"
140
0.0078125
141
12.0
290
     0
  0
SCALE
  5
490
102
{ACAD_REACTORS
330
48D
102
}
330
48D
100
AcDbScale
 70
     0
300
1/64" = 1'-0"
140
0.015625
141
12.0
290
     0
  0
SCALE
  5
491
102
{ACAD_REACTORS
330
48D
102
}
330
48D
100
AcDbScale
 70
     0
300
1/32" = 1'-0"
140
0.03125
141
12.0
290
     0
  0
SCALE
  5
492
102
{ACAD_REACTORS
330
48D
102
}
330
48D
100
AcDbScale
 70
     0
300
1/16" = 1'-0"
140
0.0625
141
12.0
290
     0
  0
SCALE
  5
493
102
{ACAD_REACTORS
330
48D
102
}
330
48D
100
AcDbScale
 70
     0
300
3/32" = 1'-0"
140
0.09375
141
12.0
290
     0
  0
SCALE
  5
494
102
{ACAD_REACTORS
330
48D
102
}
330
48D
100
AcDbScale
 70
     0
300
1/8" = 1'-0"
140
0.125
141
12.0
290
     0
  0
SCALE
  5
495
102
{ACAD_REACTORS
330
48D
102
}
330
48D
100
AcDbScale
 70
     0
300
3/16" = 1'-0"
140
0.1875
141
12.0
290
     0
  0
SCALE
  5
496
102
{ACAD_REACTORS
330
48D
102
}
330
48D
100
AcDbScale
 70
     0
300
1/4" = 1'-0"
140
0.25
141
12.0
290
     0
  0
SCALE
  5
497
102
{ACAD_REACTORS
330
48D
102
}
330
48D
100
AcDbScale
 70
     0
300
3/8" = 1'-0"
140
0.375
141
12.0
290
     0
  0
SCALE
  5
498
102
{ACAD_REACTORS
330
48D
102
}
330
48D
100
AcDbScale
 70
     0
300
1/2" = 1'-0"
140
0.5
141
12.0
290
     0
  0
SCALE
  5
499
102
{ACAD_REACTORS
330
48D
102
}
330
48D
100
AcDbScale
 70
     0
300
3/4" = 1'-0"
140
0.75
141
12.0
290
     0
  0
SCALE
  5
49A
102
{ACAD_REACTORS
330
48D
102
}
330
48D
100
AcDbScale
 70
     0
300
1" = 1'-0"
140
1.0
141
12.0
290
     0
  0
SCALE
  5
49B
102
{ACAD_REACTORS
330
48D
102
}
330
48D
100
AcDbScale
 70
     0
300
1-1/2" = 1'-0"
140
1.5
141
12.0
290
     0
  0
SCALE
  5
49C
102
{ACAD_REACTORS
330
48D
102
}
330
48D
100
AcDbScale
 70
     0
300
3" = 1'-0"
140
3.0
141
12.0
290
     0
  0
SCALE
  5
49D
102
{ACAD_REACTORS
330
48D
102
}
330
48D
100
AcDbScale
 70
     0
300
6" = 1'-0"
140
6.0
141
12.0
290
     0
  0
SCALE
  5
49E
102
{ACAD_REACTORS
330
48D
102
}
330
48D
100
AcDbScale
 70
     0
300
1'-0" = 1'-0"
140
12.0
141
12.0
290
     0
  0
ACDBSECTIONVIEWSTYLE
  5
4A2
102
{ACAD_XDICTIONARY
360
4FD
102
}
102
{ACAD_REACTORS
330
4A1
102
}
330
4A1
100
AcDbModelDocViewStyle
 70
     0
  3
Imperial24
290
     0
100
AcDbSectionViewStyle
 70
     0
 71
     0
 90
       78
 71
     1
340
232
 40
0.24
340
0
340
0
 40
0.24
300
I, O, Q, S, X, Z
 40
0.48
 90
        3
 40
0.18
 90
        1
 71
     2
340
236
 90
       25
340
236
 90
       50
 40
0.24
 40
0.0
 40
0.24
 71
     3
340
232
 40
0.24
 90
        1
 40
0.75
 90
        1
300
%<\AcVar ViewType \f "%tc1">% %<\AcVar ViewSectionStartId>%-%<\AcVar ViewSectionEndId>%\PSCALE %<\AcVar ViewScale \f "%sn">%
 71
     4
300
ANSI31
 40
1.0
 90
        0
290
     0
290
     0
 90
        6
 40
0.0
 40
1.570796326794896
 40
0.2617993877991494
 40
1.308996938995747
 40
-0.2617993877991494
 40
1.832595714594046
  0
TABLESTYLE
  5
48C
102
{ACAD_XDICTIONARY
360
4C4
102
}
102
{ACAD_REACTORS
330
48B
102
}
330
48B
100
AcDbTableStyle
  3
Standard
 70
     0
 71
     0
 40
0.06
 41
0.06
280
     0
281
     0
  7
STANDARD
140
0.18
170
     2
 62
     0
 63
     7
283
     0
274
    -2
284
     1
 64
     0
275
    -2
285
     1
 65
     0
276
    -2
286
     1
 66
     0
277
    -2
287
     1
 67
     0
278
    -2
288
     1
 68
     0
279
    -2
289
     1
 69
     0
  7
STANDARD
140
0.25
170
     5
 62
     0
 63
     7
283
     0
274
    -2
284
     1
 64
     0
275
    -2
285
     1
 65
     0
276
    -2
286
     1
 66
     0
277
    -2
287
     1
 67
     0
278
    -2
288
     1
 68
     0
279
    -2
289
     1
 69
     0
  7
STANDARD
140
0.18
170
     5
 62
     0
 63
     7
283
     0
274
    -2
284
     1
 64
     0
275
    -2
285
     1
 65
     0
276
    -2
286
     1
 66
     0
277
    -2
287
     1
 67
     0
278
    -2
288
     1
 68
     0
279
    -2
289
     1
 69
     0
  0
VISUALSTYLE
  5
477
102
{ACAD_XDICTIONARY
360
4D5
102
}
102
{ACAD_REACTORS
330
471
102
}
330
471
100
AcDbVisualStyle
  2
2dWireframe
 70
     4
 71
     0
 72
     2
 73
     0
 90
        0
 40
-0.6
 41
-30.0
 62
     5
 63
     7
 74
     1
 91
        4
 64
     7
 65
   257
 75
     1
175
     1
 42
1.0
 92
        0
 66
   257
 43
1.0
 76
     1
 77
     6
 78
     2
 67
     7
 79
     5
170
     0
171
     0
290
     0
174
     0
 93
        1
 44
0.0
173
     0
291
     0
 45
0.0
1001
ACAD
1000
AcDbSavedByObjectVersion
1070
     0
  0
VISUALSTYLE
  5
476
102
{ACAD_XDICTIONARY
360
4D3
102
}
102
{ACAD_REACTORS
330
471
102
}
330
471
100
AcDbVisualStyle
  2
Basic
 70
     7
 71
     1
 72
     0
 73
     1
 90
        0
 40
-0.6
 41
-30.0
 62
     5
 63
     7
 74
     0
 91
        4
 64
     7
 65
   257
 75
     1
175
     1
 42
1.0
 92
        8
 66
     7
 43
1.0
 76
     1
 77
     6
 78
     2
 67
     7
 79
     5
170
     0
171
     0
290
     0
174
     0
 93
        1
 44
0.0
173
     0
291
     1
 45
0.0
1001
ACAD
1000
AcDbSavedByObjectVersion
1070
     0
  0
VISUALSTYLE
  5
47D
102
{ACAD_XDICTIONARY
360
4E1
102
}
102
{ACAD_REACTORS
330
471
102
}
330
471
100
AcDbVisualStyle
  2
Brighten
 70
    12
 71
     2
 72
     2
 73
     0
 90
        0
 40
-0.6
 41
-30.0
 62
     5
 63
     7
 74
     1
 91
        4
 64
     7
 65
   257
 75
     1
175
     1
 42
1.0
 92
        8
 66
     7
 43
1.0
 76
     1
 77
     6
 78
     2
 67
     7
 79
     5
170
     0
171
     0
290
     0
174
     0
 93
        1
 44
50.0
173
     0
291
     1
 45
0.0
1001
ACAD
1000
AcDbSavedByObjectVersion
1070
     0
  0
VISUALSTYLE
  5
481
102
{ACAD_XDICTIONARY
360
4E9
102
}
102
{ACAD_REACTORS
330
471
102
}
330
471
100
AcDbVisualStyle
  2
ColorChange
 70
    16
 71
     2
 72
     2
 73
     3
 90
        0
 40
-0.6
 41
-30.0
 62
     5
 63
     8
 74
     1
 91
        4
 64
     7
 65
   257
 75
     1
175
     1
 42
1.0
 92
        8
 66
     8
 43
1.0
 76
     1
 77
     6
 78
     2
 67
     7
 79
     5
170
     0
171
     0
290
     0
174
     0
 93
        1
 44
0.0
173
     0
291
     1
 45
0.0
1001
ACAD
1000
AcDbSavedByObjectVersion
1070
     0
  0
VISUALSTYLE
  5
47A
102
{ACAD_XDICTIONARY
360
4DB
102
}
102
{ACAD_REACTORS
330
471
102
}
330
471
100
AcDbVisualStyle
  2
Conceptual
 70
     9
 71
     3
 72
     2
 73
     0
 90
        0
 40
-0.6
 41
-30.0
 62
     5
 63
     7
 74
     2
 91
        2
 64
     7
 65
   257
 75
     1
175
     1
 42
179.0
 92
        8
 66
     7
 43
1.0
 76
     1
 77
     6
 78
     2
 67
     7
 79
     3
170
     0
171
     0
290
     0
174
     0
 93
        1
 44
0.0
173
     0
291
     0
 45
0.0
1001
ACAD
1000
AcDbSavedByObjectVersion
1070
     0
  0
VISUALSTYLE
  5
47C
102
{ACAD_XDICTIONARY
360
4DF
102
}
102
{ACAD_REACTORS
330
471
102
}
330
471
100
AcDbVisualStyle
  2
Dim
 70
    11
 71
     2
 72
     2
 73
     0
 90
        0
 40
-0.6
 41
-30.0
 62
     5
 63
     7
 74
     1
 91
        4
 64
     7
 65
   257
 75
     1
175
     1
 42
1.0
 92
        8
 66
     7
 43
1.0
 76
     1
 77
     6
 78
     2
 67
     7
 79
     5
170
     0
171
     0
290
     0
174
     0
 93
        1
 44
-50.0
173
     0
291
     1
 45
0.0
1001
ACAD
1000
AcDbSavedByObjectVersion
1070
     0
  0
VISUALSTYLE
  5
489
102
{ACAD_XDICTIONARY
360
4F9
102
}
102
{ACAD_REACTORS
330
471
102
}
330
471
100
AcDbVisualStyle
  2
EdgeColorOff
 70
    22
 71
     2
 72
     2
 73
     0
 90
        0
 40
-0.6
 41
-30.0
 62
     5
 63
     7
 74
     1
 91
        4
 64
     7
 65
   257
 75
     1
175
     1
 42
1.0
 92
        8
 66
     7
 43
1.0
 76
     1
 77
     6
 78
     2
 67
     7
 79
     5
170
     0
171
     0
290
     0
174
     0
 93
        1
 44
0.0
173
     0
291
     1
 45
0.0
1001
ACAD
1000
AcDbSavedByObjectVersion
1070
     0
  0
VISUALSTYLE
  5
480
102
{ACAD_XDICTIONARY
360
4E7
102
}
102
{ACAD_REACTORS
330
471
102
}
330
471
100
AcDbVisualStyle
  2
Facepattern
 70
    15
 71
     2
 72
     2
 73
     0
 90
        0
 40
-0.6
 41
-30.0
 62
     5
 63
     7
 74
     1
 91
        4
 64
     7
 65
   257
 75
     1
175
     1
 42
1.0
 92
        8
 66
     7
 43
1.0
 76
     1
 77
     6
 78
     2
 67
     7
 79
     5
170
     0
171
     0
290
     0
174
     0
 93
        1
 44
0.0
173
     0
291
     1
 45
0.0
1001
ACAD
1000
AcDbSavedByObjectVersion
1070
     0
  0
VISUALSTYLE
  5
472
102
{ACAD_XDICTIONARY
360
4CB
102
}
102
{ACAD_REACTORS
330
471
102
}
330
471
100
AcDbVisualStyle
  2
Flat
 70
     0
 71
     2
 72
     1
 73
     1
 90
        2
 40
-0.6
 41
30.0
 62
     5
 63
     7
 74
     0
 91
        0
 64
     7
 65
   257
 75
     1
175
     1
 42
1.0
 92
        8
 66
     7
 43
1.0
 76
     1
 77
     6
 78
     2
 67
     7
 79
     5
170
     0
171
     0
290
     0
174
     0
 93
       13
 44
0.0
173
     0
291
     1
 45
0.0
1001
ACAD
1000
AcDbSavedByObjectVersion
1070
     0
  0
VISUALSTYLE
  5
473
102
{ACAD_XDICTIONARY
360
4CD
102
}
102
{ACAD_REACTORS
330
471
102
}
330
471
100
AcDbVisualStyle
  2
FlatWithEdges
 70
     1
 71
     2
 72
     1
 73
     1
 90
        2
 40
-0.6
 41
30.0
 62
     5
 63
     7
 74
     1
 91
        0
 64
     7
 65
   257
 75
     1
175
     1
 42
1.0
 92
        0
 66
   257
 43
1.0
 76
     1
 77
     6
 78
     2
 67
     7
 79
     5
170
     0
171
     0
290
     0
174
     0
 93
       13
 44
0.0
173
     0
291
     1
 45
0.0
1001
ACAD
1000
AcDbSavedByObjectVersion
1070
     0
  0
VISUALSTYLE
  5
474
102
{ACAD_XDICTIONARY
360
4CF
102
}
102
{ACAD_REACTORS
330
471
102
}
330
471
100
AcDbVisualStyle
  2
Gouraud
 70
     2
 71
     2
 72
     2
 73
     1
 90
        2
 40
-0.6
 41
30.0
 62
     5
 63
     7
 74
     0
 91
        0
 64
     7
 65
   257
 75
     1
175
     1
 42
1.0
 92
        0
 66
     7
 43
1.0
 76
     1
 77
     6
 78
     2
 67
     7
 79
     5
170
     0
171
     0
290
     0
174
     0
 93
       13
 44
0.0
173
     0
291
     1
 45
0.0
1001
ACAD
1000
AcDbSavedByObjectVersion
1070
     0
  0
VISUALSTYLE
  5
475
102
{ACAD_XDICTIONARY
360
4D1
102
}
102
{ACAD_REACTORS
330
471
102
}
330
471
100
AcDbVisualStyle
  2
GouraudWithEdges
 70
     3
 71
     2
 72
     2
 73
     1
 90
        2
 40
-0.6
 41
30.0
 62
     5
 63
     7
 74
     1
 91
        0
 64
     7
 65
   257
 75
     1
175
     1
 42
1.0
 92
        0
 66
   257
 43
1.0
 76
     1
 77
     6
 78
     2
 67
     7
 79
     5
170
     0
171
     0
290
     0
174
     0
 93
       13
 44
0.0
173
     0
291
     1
 45
0.0
1001
ACAD
1000
AcDbSavedByObjectVersion
1070
     0
  0
VISUALSTYLE
  5
479
102
{ACAD_XDICTIONARY
360
4D9
102
}
102
{ACAD_REACTORS
330
471
102
}
330
471
100
AcDbVisualStyle
  2
Hidden
 70
     6
 71
     1
 72
     2
 73
     2
 90
        0
 40
-0.6
 41
-30.0
 62
     5
 63
     7
 74
     2
 91
        2
 64
     7
 65
   257
 75
     2
175
     1
 42
40.0
 92
        0
 66
   257
 43
1.0
 76
     1
 77
     6
 78
     2
 67
     7
 79
     3
170
     0
171
     0
290
     0
174
     0
 93
        1
 44
0.0
173
     0
291
     0
 45
0.0
1001
ACAD
1000
AcDbSavedByObjectVersion
1070
     0
  0
VISUALSTYLE
  5
487
102
{ACAD_XDICTIONARY
360
4F5
102
}
102
{ACAD_REACTORS
330
471
102
}
330
471
100
AcDbVisualStyle
  2
JitterOff
 70
    20
 71
     2
 72
     2
 73
     0
 90
        0
 40
-0.6
 41
-30.0
 62
     5
 63
     7
 74
     1
 91
        4
 64
     7
 65
   257
 75
     1
175
     1
 42
1.0
 92
       10
 66
     7
 43
1.0
 76
     1
 77
     6
 78
     2
 67
     7
 79
     5
170
     0
171
     0
290
     0
174
     0
 93
        1
 44
0.0
173
     0
291
     1
 45
0.0
1001
ACAD
1000
AcDbSavedByObjectVersion
1070
     0
  0
VISUALSTYLE
  5
47F
102
{ACAD_XDICTIONARY
360
4E5
102
}
102
{ACAD_REACTORS
330
471
102
}
330
471
100
AcDbVisualStyle
  2
Linepattern
 70
    14
 71
     2
 72
     2
 73
     0
 90
        0
 40
-0.6
 41
-30.0
 62
     5
 63
     7
 74
     1
 91
        4
 64
     7
 65
   257
 75
     7
175
     7
 42
1.0
 92
        8
 66
     7
 43
1.0
 76
     1
 77
     6
 78
     2
 67
     7
 79
     5
170
     0
171
     0
290
     0
174
     0
 93
        1
 44
0.0
173
     0
291
     1
 45
0.0
1001
ACAD
1000
AcDbSavedByObjectVersion
1070
     0
  0
VISUALSTYLE
  5
488
102
{ACAD_XDICTIONARY
360
4F7
102
}
102
{ACAD_REACTORS
330
471
102
}
330
471
100
AcDbVisualStyle
  2
OverhangOff
 70
    21
 71
     2
 72
     2
 73
     0
 90
        0
 40
-0.6
 41
-30.0
 62
     5
 63
     7
 74
     1
 91
        4
 64
     7
 65
   257
 75
     1
175
     1
 42
1.0
 92
        9
 66
     7
 43
1.0
 76
     1
 77
     6
 78
     2
 67
     7
 79
     5
170
     0
171
     0
290
     0
174
     0
 93
        1
 44
0.0
173
     0
291
     1
 45
0.0
1001
ACAD
1000
AcDbSavedByObjectVersion
1070
     0
  0
VISUALSTYLE
  5
47B
102
{ACAD_XDICTIONARY
360
4DD
102
}
102
{ACAD_REACTORS
330
471
102
}
330
471
100
AcDbVisualStyle
  2
Realistic
 70
     8
 71
     2
 72
     3
 73
     0
 90
        2
 40
-0.6
 41
30.0
 62
     5
 63
     7
 74
     0
 91
        0
 64
     7
 65
   257
 75
     1
175
     1
 42
1.0
 92
        8
 66
   257
 43
1.0
 76
     1
 77
     6
 78
     2
 67
     7
 79
     3
170
     0
171
     0
290
     0
174
     0
 93
       13
 44
0.0
173
     0
291
     0
 45
0.0
1001
ACAD
1000
AcDbSavedByObjectVersion
1070
     0
  0
VISUALSTYLE
  5
486
102
{ACAD_XDICTIONARY
360
4F3
102
}
102
{ACAD_REACTORS
330
471
102
}
330
471
100
AcDbVisualStyle
  2
Shaded
 70
    27
 71
     2
 72
     2
 73
     1
 90
        2
 40
-0.6
 41
30.0
 62
     5
 63
     7
 74
     0
 91
        4
 64
     7
 65
   257
 75
     1
175
     1
 42
1.0
 92
        8
 66
   257
 43
1.0
 76
     1
 77
     6
 78
     2
 67
     8
 79
     3
170
     0
171
     0
290
     0
174
     0
 93
        5
 44
0.0
173
     0
291
     0
 45
0.0
1001
ACAD
1000
AcDbSavedByObjectVersion
1070
     0
  0
VISUALSTYLE
  5
485
102
{ACAD_XDICTIONARY
360
4F1
102
}
102
{ACAD_REACTORS
330
471
102
}
330
471
100
AcDbVisualStyle
  2
Shaded with edges
 70
    26
 71
     2
 72
     2
 73
     1
 90
        2
 40
-0.6
 41
30.0
 62
     5
 63
     7
 74
     1
 91
       10
 64
     7
 65
   257
 75
     2
175
     1
 42
1.0
 92
        8
 66
   257
 43
1.0
 76
     1
 77
     6
 78
     2
 67
     7
 79
     3
170
     0
171
     0
290
     0
174
     0
 93
        5
 44
0.0
173
     0
291
     0
 45
0.0
1001
ACAD
1000
AcDbSavedByObjectVersion
1070
     0
  0
VISUALSTYLE
  5
482
102
{ACAD_XDICTIONARY
360
4EB
102
}
102
{ACAD_REACTORS
330
471
102
}
330
471
100
AcDbVisualStyle
  2
Shades of Gray
 70
    23
 71
     2
 72
     2
 73
     3
 90
        0
 40
-0.6
 41
-30.0
 62
     5
 63
     7
 74
     2
 91
        2
 64
     7
 65
     7
 75
     1
175
     1
 42
40.0
 92
        8
 66
     7
 43
1.0
 76
     1
 77
     6
 78
     2
 67
     7
 79
     3
170
     0
171
     0
290
     0
174
     0
 93
        1
 44
0.0
173
     0
291
     0
 45
0.0
1001
ACAD
1000
AcDbSavedByObjectVersion
1070
     0
  0
VISUALSTYLE
  5
483
102
{ACAD_XDICTIONARY
360
4ED
102
}
102
{ACAD_REACTORS
330
471
102
}
330
471
100
AcDbVisualStyle
  2
Sketchy
 70
    24
 71
     1
 72
     2
 73
     2
 90
        0
 40
-0.6
 41
-30.0
 62
     5
 63
     7
 74
     2
 91
        2
 64
     7
 65
     7
 75
     1
175
     1
 42
40.0
 92
       11
 66
     7
 43
1.0
 76
     1
 77
     6
 78
     2
 67
     7
 79
     6
170
     0
171
     0
290
     0
174
     0
 93
        1
 44
0.0
173
     0
291
     0
 45
0.0
1001
ACAD
1000
AcDbSavedByObjectVersion
1070
     0
  0
VISUALSTYLE
  5
47E
102
{ACAD_XDICTIONARY
360
4E3
102
}
102
{ACAD_REACTORS
330
471
102
}
330
471
100
AcDbVisualStyle
  2
Thicken
 70
    13
 71
     2
 72
     2
 73
     0
 90
        0
 40
-0.6
 41
-30.0
 62
     5
 63
     7
 74
     1
 91
        4
 64
     7
 65
   257
 75
     1
175
     1
 42
1.0
 92
       12
 66
     7
 43
1.0
 76
     1
 77
     6
 78
     2
 67
     7
 79
     5
170
     0
171
     0
290
     0
174
     0
 93
        1
 44
0.0
173
     0
291
     1
 45
0.0
1001
ACAD
1000
AcDbSavedByObjectVersion
1070
     0
  0
VISUALSTYLE
  5
478
102
{ACAD_XDICTIONARY
360
4D7
102
}
102
{ACAD_REACTORS
330
471
102
}
330
471
100
AcDbVisualStyle
  2
Wireframe
 70
     5
 71
     0
 72
     2
 73
     0
 90
        0
 40
-0.6
 41
-30.0
 62
     5
 63
     7
 74
     1
 91
        4
 64
     7
 65
   257
 75
     1
175
     1
 42
1.0
 92
        0
 66
   257
 43
1.0
 76
     1
 77
     6
 78
     2
 67
     7
 79
     3
170
     0
171
     0
290
     0
174
     0
 93
        1
 44
0.0
173
     0
291
     0
 45
0.0
1001
ACAD
1000
AcDbSavedByObjectVersion
1070
     0
  0
VISUALSTYLE
  5
484
102
{ACAD_XDICTIONARY
360
4EF
102
}
102
{ACAD_REACTORS
330
471
102
}
330
471
100
AcDbVisualStyle
  2
X-Ray
 70
    25
 71
     2
 72
     2
 73
     1
 90
        1
 40
0.5
 41
-30.0
 62
     5
 63
     7
 74
     1
 91
        0
 64
     7
 65
   257
 75
     1
175
     1
 42
1.0
 92
        8
 66
     7
 43
1.0
 76
     1
 77
     6
 78
     2
 67
     7
 79
     3
170
     0
171
     0
290
     0
174
     0
 93
       13
 44
0.0
173
     0
291
     0
 45
0.0
1001
ACAD
1000
AcDbSavedByObjectVersion
1070
     0
  0
DICTIONARYVAR
  5
4BE
102
{ACAD_REACTORS
330
4B9
102
}
330
4B9
100
DictionaryVariables
280
     0
  1
1:1
  0
DICTIONARYVAR
  5
4BB
102
{ACAD_REACTORS
330
4B9
102
}
330
4B9
100
DictionaryVariables
280
     0
  1
STANDARD
  0
DICTIONARYVAR
  5
4BA
102
{ACAD_REACTORS
330
4B9
102
}
330
4B9
100
DictionaryVariables
280
     0
  1
STANDARD
  0
DICTIONARYVAR
  5
4BC
102
{ACAD_REACTORS
330
4B9
102
}
330
4B9
100
DictionaryVariables
280
     0
  1
Imperial24
  0
DICTIONARYVAR
  5
4BD
102
{ACAD_REACTORS
330
4B9
102
}
330
4B9
100
DictionaryVariables
280
     0
  1
Imperial24
  0
DICTIONARYVAR
  5
4C1
102
{ACAD_REACTORS
330
4B9
102
}
330
4B9
100
DictionaryVariables
280
     0
  1
1
  0
DICTIONARYVAR
  5
4C0
102
{ACAD_REACTORS
330
4B9
102
}
330
4B9
100
DictionaryVariables
280
     0
  1
0
  0
DICTIONARYVAR
  5
4BF
102
{ACAD_REACTORS
330
4B9
102
}
330
4B9
100
DictionaryVariables
280
     0
  1
127
  0
DICTIONARYVAR
  5
4C2
102
{ACAD_REACTORS
330
4B9
102
}
330
4B9
100
DictionaryVariables
280
     0
  1
2
  0
DICTIONARY
  5
4FF
330
4A4
100
AcDbDictionary
280
     1
281
     1
  3
ACAD_XREC_ROUNDTRIP
360
500
  0
DICTIONARY
  5
501
330
4A5
100
AcDbDictionary
280
     1
281
     1
  3
ACAD_XREC_ROUNDTRIP
360
502
  0
DICTIONARY
  5
503
330
4A6
100
AcDbDictionary
280
     1
281
     1
  3
ACAD_XREC_ROUNDTRIP
360
504
  0
DICTIONARY
  5
462
330
461
100
AcDbDictionary
280
     1
281
     1
  3
ACAD_XREC_ROUNDTRIP
360
4C9
  3
BUMPTILE
360
464
  3
DIFFUSETILE
360
463
  3
OPACITYTILE
360
467
  3
REFLECTIONTILE
360
466
  3
REFRACTIONTILE
360
468
  3
SPECULARTILE
360
465
  0
DICTIONARY
  5
45A
330
459
100
AcDbDictionary
280
     1
281
     1
  3
ACAD_XREC_ROUNDTRIP
360
4C8
  3
BUMPTILE
360
45C
  3
DIFFUSETILE
360
45B
  3
OPACITYTILE
360
45F
  3
REFLECTIONTILE
360
45E
  3
REFRACTIONTILE
360
460
  3
SPECULARTILE
360
45D
  0
DICTIONARY
  5
46A
330
469
100
AcDbDictionary
280
     1
281
     1
  3
ACAD_XREC_ROUNDTRIP
360
4CA
  3
BUMPTILE
360
46C
  3
DIFFUSETILE
360
46B
  3
OPACITYTILE
360
46F
  3
REFLECTIONTILE
360
46E
  3
REFRACTIONTILE
360
470
  3
SPECULARTILE
360
46D
  0
DICTIONARY
  5
4FD
330
4A2
100
AcDbDictionary
280
     1
281
     1
  3
ACAD_XREC_ROUNDTRIP
360
4FE
  0
DICTIONARY
  5
4C4
330
48C
100
AcDbDictionary
280
     1
281
     1
  3
ACAD_ROUNDTRIP_2008_TABLESTYLE_CELLSTYLEMAP
360
4C5
  3
ACAD_XREC_ROUNDTRIP
360
4FB
  0
DICTIONARY
  5
4D5
330
477
100
AcDbDictionary
280
     1
281
     1
  3
ACAD_XREC_ROUNDTRIP
360
4D6
  0
DICTIONARY
  5
4D3
330
476
100
AcDbDictionary
280
     1
281
     1
  3
ACAD_XREC_ROUNDTRIP
360
4D4
  0
DICTIONARY
  5
4E1
330
47D
100
AcDbDictionary
280
     1
281
     1
  3
ACAD_XREC_ROUNDTRIP
360
4E2
  0
DICTIONARY
  5
4E9
330
481
100
AcDbDictionary
280
     1
281
     1
  3
ACAD_XREC_ROUNDTRIP
360
4EA
  0
DICTIONARY
  5
4DB
330
47A
100
AcDbDictionary
280
     1
281
     1
  3
ACAD_XREC_ROUNDTRIP
360
4DC
  0
DICTIONARY
  5
4DF
330
47C
100
AcDbDictionary
280
     1
281
     1
  3
ACAD_XREC_ROUNDTRIP
360
4E0
  0
DICTIONARY
  5
4F9
330
489
100
AcDbDictionary
280
     1
281
     1
  3
ACAD_XREC_ROUNDTRIP
360
4FA
  0
DICTIONARY
  5
4E7
330
480
100
AcDbDictionary
280
     1
281
     1
  3
ACAD_XREC_ROUNDTRIP
360
4E8
  0
DICTIONARY
  5
4CB
330
472
100
AcDbDictionary
280
     1
281
     1
  3
ACAD_XREC_ROUNDTRIP
360
4CC
  0
DICTIONARY
  5
4CD
330
473
100
AcDbDictionary
280
     1
281
     1
  3
ACAD_XREC_ROUNDTRIP
360
4CE
  0
DICTIONARY
  5
4CF
330
474
100
AcDbDictionary
280
     1
281
     1
  3
ACAD_XREC_ROUNDTRIP
360
4D0
  0
DICTIONARY
  5
4D1
330
475
100
AcDbDictionary
280
     1
281
     1
  3
ACAD_XREC_ROUNDTRIP
360
4D2
  0
DICTIONARY
  5
4D9
330
479
100
AcDbDictionary
280
     1
281
     1
  3
ACAD_XREC_ROUNDTRIP
360
4DA
  0
DICTIONARY
  5
4F5
330
487
100
AcDbDictionary
280
     1
281
     1
  3
ACAD_XREC_ROUNDTRIP
360
4F6
  0
DICTIONARY
  5
4E5
330
47F
100
AcDbDictionary
280
     1
281
     1
  3
ACAD_XREC_ROUNDTRIP
360
4E6
  0
DICTIONARY
  5
4F7
330
488
100
AcDbDictionary
280
     1
281
     1
  3
ACAD_XREC_ROUNDTRIP
360
4F8
  0
DICTIONARY
  5
4DD
330
47B
100
AcDbDictionary
280
     1
281
     1
  3
ACAD_XREC_ROUNDTRIP
360
4DE
  0
DICTIONARY
  5
4F3
330
486
100
AcDbDictionary
280
     1
281
     1
  3
ACAD_XREC_ROUNDTRIP
360
4F4
  0
DICTIONARY
  5
4F1
330
485
100
AcDbDictionary
280
     1
281
     1
  3
ACAD_XREC_ROUNDTRIP
360
4F2
  0
DICTIONARY
  5
4EB
330
482
100
AcDbDictionary
280
     1
281
     1
  3
ACAD_XREC_ROUNDTRIP
360
4EC
  0
DICTIONARY
  5
4ED
330
483
100
AcDbDictionary
280
     1
281
     1
  3
ACAD_XREC_ROUNDTRIP
360
4EE
  0
DICTIONARY
  5
4E3
330
47E
100
AcDbDictionary
280
     1
281
     1
  3
ACAD_XREC_ROUNDTRIP
360
4E4
  0
DICTIONARY
  5
4D7
330
478
100
AcDbDictionary
280
     1
281
     1
  3
ACAD_XREC_ROUNDTRIP
360
4D8
  0
DICTIONARY
  5
4EF
330
484
100
AcDbDictionary
280
     1
281
     1
  3
ACAD_XREC_ROUNDTRIP
360
4F0
  0
XRECORD
  5
500
102
{ACAD_REACTORS
330
4FF
102
}
330
4FF
100
AcDbXrecord
280
     1
102
DISPLAYNAME
  1
Imperial24
102
FLAGS
 90
        0
  0
XRECORD
  5
502
102
{ACAD_REACTORS
330
501
102
}
330
501
100
AcDbXrecord
280
     1
102
SHADEPLOT
 70
     0
102
SHADEPLOTRESLEVEL
 70
     2
102
SHADEPLOTCUSTOMDPI
 70
   300
  0
XRECORD
  5
504
102
{ACAD_REACTORS
330
503
102
}
330
503
100
AcDbXrecord
280
     1
102
SHADEPLOT
 70
     0
102
SHADEPLOTRESLEVEL
 70
     2
102
SHADEPLOTCUSTOMDPI
 70
   300
  0
XRECORD
  5
4C9
102
{ACAD_REACTORS
330
462
102
}
330
462
100
AcDbXrecord
280
     1
102
MATERIAL
148
0.0
149
0.0
149
0.0
 93
        0
 94
      127
282
     0
 72
     0
 77
     0
171
     0
175
     0
179
     0
273
     0
  0
XRECORD
  5
464
102
{ACAD_REACTORS
330
462
102
}
330
462
100
AcDbXrecord
280
     1
270
     1
271
     1
  0
XRECORD
  5
463
102
{ACAD_REACTORS
330
462
102
}
330
462
100
AcDbXrecord
280
     1
270
     1
271
     1
  0
XRECORD
  5
467
102
{ACAD_REACTORS
330
462
102
}
330
462
100
AcDbXrecord
280
     1
270
     1
271
     1
  0
XRECORD
  5
466
102
{ACAD_REACTORS
330
462
102
}
330
462
100
AcDbXrecord
280
     1
270
     1
271
     1
  0
XRECORD
  5
468
102
{ACAD_REACTORS
330
462
102
}
330
462
100
AcDbXrecord
280
     1
270
     1
271
     1
  0
XRECORD
  5
465
102
{ACAD_REACTORS
330
462
102
}
330
462
100
AcDbXrecord
280
     1
270
     1
271
     1
  0
XRECORD
  5
4C8
102
{ACAD_REACTORS
330
45A
102
}
330
45A
100
AcDbXrecord
280
     1
102
MATERIAL
148
0.0
149
0.0
149
0.0
 93
        0
 94
      127
282
     0
 72
     0
 77
     0
171
     0
175
     0
179
     0
273
     0
  0
XRECORD
  5
45C
102
{ACAD_REACTORS
330
45A
102
}
330
45A
100
AcDbXrecord
280
     1
270
     1
271
     1
  0
XRECORD
  5
45B
102
{ACAD_REACTORS
330
45A
102
}
330
45A
100
AcDbXrecord
280
     1
270
     1
271
     1
  0
XRECORD
  5
45F
102
{ACAD_REACTORS
330
45A
102
}
330
45A
100
AcDbXrecord
280
     1
270
     1
271
     1
  0
XRECORD
  5
45E
102
{ACAD_REACTORS
330
45A
102
}
330
45A
100
AcDbXrecord
280
     1
270
     1
271
     1
  0
XRECORD
  5
460
102
{ACAD_REACTORS
330
45A
102
}
330
45A
100
AcDbXrecord
280
     1
270
     1
271
     1
  0
XRECORD
  5
45D
102
{ACAD_REACTORS
330
45A
102
}
330
45A
100
AcDbXrecord
280
     1
270
     1
271
     1
  0
XRECORD
  5
4CA
102
{ACAD_REACTORS
330
46A
102
}
330
46A
100
AcDbXrecord
280
     1
102
MATERIAL
148
0.0
149
0.0
149
0.0
 93
        0
 94
      127
282
     0
 72
     0
 77
     0
171
     0
175
     0
179
     0
273
     0
  0
XRECORD
  5
46C
102
{ACAD_REACTORS
330
46A
102
}
330
46A
100
AcDbXrecord
280
     1
270
     1
271
     1
  0
XRECORD
  5
46B
102
{ACAD_REACTORS
330
46A
102
}
330
46A
100
AcDbXrecord
280
     1
270
     1
271
     1
  0
XRECORD
  5
46F
102
{ACAD_REACTORS
330
46A
102
}
330
46A
100
AcDbXrecord
280
     1
270
     1
271
     1
  0
XRECORD
  5
46E
102
{ACAD_REACTORS
330
46A
102
}
330
46A
100
AcDbXrecord
280
     1
270
     1
271
     1
  0
XRECORD
  5
470
102
{ACAD_REACTORS
330
46A
102
}
330
46A
100
AcDbXrecord
280
     1
270
     1
271
     1
  0
XRECORD
  5
46D
102
{ACAD_REACTORS
330
46A
102
}
330
46A
100
AcDbXrecord
280
     1
270
     1
271
     1
  0
XRECORD
  5
4FE
102
{ACAD_REACTORS
330
4FD
102
}
330
4FD
100
AcDbXrecord
280
     1
102
DISPLAYNAME
  1
Imperial24
102
FLAGS
 90
        0
  0
CELLSTYLEMAP
  5
4C5
102
{ACAD_REACTORS
330
4C4
102
}
330
4C4
100
AcDbCellStyleMap
 90
        3
300
CELLSTYLE
  1
TABLEFORMAT_BEGIN
 90
        5
170
     1
 91
        0
 92
    32768
 62
   257
 93
        1
300
CONTENTFORMAT
  1
CONTENTFORMAT_BEGIN
 90
        0
 91
        0
 92
      512
 93
        0
300

 40
0.0
140
1.0
 94
        5
 62
     0
340
232
144
0.25
309
CONTENTFORMAT_END
171
     0
 94
        0
309
TABLEFORMAT_END
  1
CELLSTYLE_BEGIN
 90
        1
 91
        1
300
_TITLE
309
CELLSTYLE_END
300
CELLSTYLE
  1
TABLEFORMAT_BEGIN
 90
        5
170
     1
 91
        0
 92
        0
 62
   257
 93
        1
300
CONTENTFORMAT
  1
CONTENTFORMAT_BEGIN
 90
        0
 91
        0
 92
      512
 93
        0
300

 40
0.0
140
1.0
 94
        5
 62
     0
340
232
144
0.18
309
CONTENTFORMAT_END
171
     0
 94
        0
309
TABLEFORMAT_END
  1
CELLSTYLE_BEGIN
 90
        2
 91
        1
300
_HEADER
309
CELLSTYLE_END
300
CELLSTYLE
  1
TABLEFORMAT_BEGIN
 90
        5
170
     1
 91
        0
 92
        0
 62
   257
 93
        1
300
CONTENTFORMAT
  1
CONTENTFORMAT_BEGIN
 90
        0
 91
        0
 92
      512
 93
        0
300

 40
0.0
140
1.0
 94
        2
 62
     0
340
232
144
0.18
309
CONTENTFORMAT_END
171
     0
 94
        0
309
TABLEFORMAT_END
  1
CELLSTYLE_BEGIN
 90
        3
 91
        2
300
_DATA
309
CELLSTYLE_END
  0
XRECORD
  5
4FB
102
{ACAD_REACTORS
330
4C4
102
}
330
4C4
100
AcDbXrecord
280
     1
102
ACAD_ROUNDTRIP_PRE2007_TABLESTYLE
 90
      512
 91
        0
  1

 92
      512
 93
        0
  2

 94
      512
 95
        0
  3

  0
XRECORD
  5
4D6
102
{ACAD_REACTORS
330
4D5
102
}
330
4D5
100
AcDbXrecord
280
     1
102
RTVSPost2010Prop28
280
     1
102
RTVSPost2010PropOp28
 70
     1
102
RTVSPost2010Prop29
280
     1
102
RTVSPost2010PropOp29
 70
     1
102
RTVSPost2010Prop30
280
     0
102
RTVSPost2010PropOp30
 70
     1
102
RTVSPost2010Prop31
280
     0
102
RTVSPost2010PropOp31
 70
     1
102
RTVSPost2010Prop32
280
     0
102
RTVSPost2010PropOp32
 70
     1
102
RTVSPost2010Prop33
280
     0
102
RTVSPost2010PropOp33
 70
     1
102
RTVSPost2010Prop34
280
     0
102
RTVSPost2010PropOp34
 70
     1
102
RTVSPost2010Prop35
280
     0
102
RTVSPost2010PropOp35
 70
     1
102
RTVSPost2010Prop36
280
     0
102
RTVSPost2010PropOp36
 70
     1
102
RTVSPost2010Prop37
 90
       50
102
RTVSPost2010PropOp37
 70
     1
102
RTVSPost2010Prop38
140
0.0
102
RTVSPost2010PropOp38
 70
     1
102
RTVSPost2010Prop39
140
1.0
102
RTVSPost2010PropOp39
 70
     1
102
RTVSPost2010Prop40
 90
        0
102
RTVSPost2010PropOp40
 70
     1
102
RTVSPost2010Prop41ColorIndex
 90
       18
102
RTVSPost2010Prop41ColorRGB
 90
        0
102
RTVSPost2010PropOp41
 70
     1
102
RTVSPost2010Prop42
 90
       50
102
RTVSPost2010PropOp42
 70
     1
102
RTVSPost2010Prop43
 90
        3
102
RTVSPost2010PropOp43
 70
     1
102
RTVSPost2010Prop44ColorIndex
 90
        5
102
RTVSPost2010Prop44ColorRGB
 90
      255
102
RTVSPost2010PropOp44
 70
     1
102
RTVSPost2010Prop45
280
     0
102
RTVSPost2010PropOp45
 70
     1
102
RTVSPost2010Prop46
 90
       50
102
RTVSPost2010PropOp46
 70
     1
102
RTVSPost2010Prop47
 90
       50
102
RTVSPost2010PropOp47
 70
     1
102
RTVSPost2010Prop48
 90
       50
102
RTVSPost2010PropOp48
 70
     1
102
RTVSPost2010Prop49
280
     0
102
RTVSPost2010PropOp49
 70
     1
102
RTVSPost2010Prop50
 90
       50
102
RTVSPost2010PropOp50
 70
     1
102
RTVSPost2010Prop51ColorIndex
 90
      256
102
RTVSPost2010Prop51ColorRGB
 90
-16777216
102
RTVSPost2010PropOp51
 70
     0
102
RTVSPost2010Prop52
140
1.0
102
RTVSPost2010PropOp52
 70
     0
102
RTVSPost2010Prop53
 90
        2
102
RTVSPost2010PropOp53
 70
     1
102
RTVSPost2010Prop54
  1
strokes_ogs.tif
102
RTVSPost2010PropOp54
 70
     1
102
RTVSPost2010Prop55
280
     0
102
RTVSPost2010PropOp55
 70
     1
102
RTVSPost2010Prop56
140
1.0
102
RTVSPost2010PropOp56
 70
     1
102
RTVSPost2010Prop57
140
1.0
102
RTVSPost2010PropOp57
 70
     1
102
RTVSPropertyOp0
 70
     1
102
RTVSPropertyOp1
 70
     1
102
RTVSPropertyOp2
 70
     1
102
RTVSPropertyOp3
 70
     1
102
RTVSPropertyOp4
 70
     1
102
RTVSPropertyOp5
 70
     1
102
RTVSPropertyOp6
 70
     1
102
RTVSPropertyOp7
 70
     1
102
RTVSPropertyOp8
 70
     1
102
RTVSPropertyOp9
 70
     1
102
RTVSPropertyOp10
 70
     1
102
RTVSPropertyOp11
 70
     1
102
RTVSPropertyOp12
 70
     1
102
RTVSPropertyOp13
 70
     1
102
RTVSPropertyOp14
 70
     1
102
RTVSPropertyOp15
 70
     1
102
RTVSPropertyOp16
 70
     1
102
RTVSPropertyOp17
 70
     1
102
RTVSPropertyOp18
 70
     1
102
RTVSPropertyOp19
 70
     1
102
RTVSPropertyOp20
 70
     1
102
RTVSPropertyOp21
 70
     1
102
RTVSPropertyOp22
 70
     1
102
RTVSPropertyOp23
 70
     1
102
RTVSPropertyOp24
 70
     1
102
RTVSPropertyOp25
 70
     1
102
RTVSPropertyOp26
 70
     1
102
RTVSPropertyOp27
 70
     1
102
RTVSPropertyOp28
 70
     1
102
RTVSPropertyOp29
 70
     1
102
RTVSPropertyOp30
 70
     1
102
RTVSPropertyOp31
 70
     1
102
RTVSPropertyOp32
 70
     1
102
RTVSPropertyOp33
 70
     1
102
RTVSPropertyOp34
 70
     1
102
RTVSPropertyOp35
 70
     1
102
RTVSPropertyOp36
 70
     1
102
RTVSPropertyOp37
 70
     1
102
RTVSPropertyOp38
 70
     1
102
RTVSPropertyOp39
 70
     1
102
RTVSPropertyOp40
 70
     1
102
RTVSPropertyOp41
 70
     1
102
RTVSPropertyOp42
 70
     1
102
RTVSPropertyOp43
 70
     1
102
RTVSPropertyOp44
 70
     1
102
RTVSPropertyOp45
 70
     1
102
RTVSPropertyOp46
 70
     1
102
RTVSPropertyOp47
 70
     1
102
RTVSPropertyOp48
 70
     1
102
RTVSPropertyOp49
 70
     1
102
RTVSPropertyOp50
 70
     1
102
RTVSPropertyOp51
 70
     0
102
RTVSPropertyOp52
 70
     0
102
RTVSPropertyOp53
 70
     1
102
RTVSPropertyOp54
 70
     1
102
RTVSPropertyOp55
 70
     1
102
RTVSPropertyOp56
 70
     1
102
RTVSPropertyOp57
 70
     1
102
RTVSPropertyOp58
 70
     1
102
RTVSPropertyOp59
 70
     1
102
RTVSPropertyOp60
 70
     1
102
RTVSPropertyOp61
 70
     1
102
RTVSPropertyOp62
 70
     1
  0
XRECORD
  5
4D4
102
{ACAD_REACTORS
330
4D3
102
}
330
4D3
100
AcDbXrecord
280
     1
102
RTVSPost2010Prop28
280
     0
102
RTVSPost2010PropOp28
 70
     1
102
RTVSPost2010Prop29
280
     1
102
RTVSPost2010PropOp29
 70
     1
102
RTVSPost2010Prop30
280
     1
102
RTVSPost2010PropOp30
 70
     1
102
RTVSPost2010Prop31
280
     0
102
RTVSPost2010PropOp31
 70
     1
102
RTVSPost2010Prop32
280
     0
102
RTVSPost2010PropOp32
 70
     1
102
RTVSPost2010Prop33
280
     0
102
RTVSPost2010PropOp33
 70
     1
102
RTVSPost2010Prop34
280
     0
102
RTVSPost2010PropOp34
 70
     1
102
RTVSPost2010Prop35
280
     0
102
RTVSPost2010PropOp35
 70
     1
102
RTVSPost2010Prop36
280
     0
102
RTVSPost2010PropOp36
 70
     1
102
RTVSPost2010Prop37
 90
       50
102
RTVSPost2010PropOp37
 70
     1
102
RTVSPost2010Prop38
140
0.0
102
RTVSPost2010PropOp38
 70
     1
102
RTVSPost2010Prop39
140
1.0
102
RTVSPost2010PropOp39
 70
     1
102
RTVSPost2010Prop40
 90
        0
102
RTVSPost2010PropOp40
 70
     1
102
RTVSPost2010Prop41ColorIndex
 90
       18
102
RTVSPost2010Prop41ColorRGB
 90
        0
102
RTVSPost2010PropOp41
 70
     1
102
RTVSPost2010Prop42
 90
       50
102
RTVSPost2010PropOp42
 70
     1
102
RTVSPost2010Prop43
 90
        3
102
RTVSPost2010PropOp43
 70
     1
102
RTVSPost2010Prop44ColorIndex
 90
        5
102
RTVSPost2010Prop44ColorRGB
 90
      255
102
RTVSPost2010PropOp44
 70
     1
102
RTVSPost2010Prop45
280
     0
102
RTVSPost2010PropOp45
 70
     1
102
RTVSPost2010Prop46
 90
       50
102
RTVSPost2010PropOp46
 70
     1
102
RTVSPost2010Prop47
 90
       50
102
RTVSPost2010PropOp47
 70
     1
102
RTVSPost2010Prop48
 90
       50
102
RTVSPost2010PropOp48
 70
     1
102
RTVSPost2010Prop49
280
     0
102
RTVSPost2010PropOp49
 70
     1
102
RTVSPost2010Prop50
 90
       50
102
RTVSPost2010PropOp50
 70
     1
102
RTVSPost2010Prop51ColorIndex
 90
      256
102
RTVSPost2010Prop51ColorRGB
 90
-16777216
102
RTVSPost2010PropOp51
 70
     0
102
RTVSPost2010Prop52
140
1.0
102
RTVSPost2010PropOp52
 70
     0
102
RTVSPost2010Prop53
 90
        2
102
RTVSPost2010PropOp53
 70
     1
102
RTVSPost2010Prop54
  1
strokes_ogs.tif
102
RTVSPost2010PropOp54
 70
     1
102
RTVSPost2010Prop55
280
     0
102
RTVSPost2010PropOp55
 70
     1
102
RTVSPost2010Prop56
140
1.0
102
RTVSPost2010PropOp56
 70
     1
102
RTVSPost2010Prop57
140
1.0
102
RTVSPost2010PropOp57
 70
     1
102
RTVSPropertyOp0
 70
     1
102
RTVSPropertyOp1
 70
     1
102
RTVSPropertyOp2
 70
     1
102
RTVSPropertyOp3
 70
     1
102
RTVSPropertyOp4
 70
     1
102
RTVSPropertyOp5
 70
     1
102
RTVSPropertyOp6
 70
     1
102
RTVSPropertyOp7
 70
     1
102
RTVSPropertyOp8
 70
     1
102
RTVSPropertyOp9
 70
     1
102
RTVSPropertyOp10
 70
     1
102
RTVSPropertyOp11
 70
     1
102
RTVSPropertyOp12
 70
     1
102
RTVSPropertyOp13
 70
     1
102
RTVSPropertyOp14
 70
     1
102
RTVSPropertyOp15
 70
     1
102
RTVSPropertyOp16
 70
     1
102
RTVSPropertyOp17
 70
     1
102
RTVSPropertyOp18
 70
     1
102
RTVSPropertyOp19
 70
     1
102
RTVSPropertyOp20
 70
     1
102
RTVSPropertyOp21
 70
     1
102
RTVSPropertyOp22
 70
     1
102
RTVSPropertyOp23
 70
     1
102
RTVSPropertyOp24
 70
     1
102
RTVSPropertyOp25
 70
     1
102
RTVSPropertyOp26
 70
     1
102
RTVSPropertyOp27
 70
     1
102
RTVSPropertyOp28
 70
     1
102
RTVSPropertyOp29
 70
     1
102
RTVSPropertyOp30
 70
     1
102
RTVSPropertyOp31
 70
     1
102
RTVSPropertyOp32
 70
     1
102
RTVSPropertyOp33
 70
     1
102
RTVSPropertyOp34
 70
     1
102
RTVSPropertyOp35
 70
     1
102
RTVSPropertyOp36
 70
     1
102
RTVSPropertyOp37
 70
     1
102
RTVSPropertyOp38
 70
     1
102
RTVSPropertyOp39
 70
     1
102
RTVSPropertyOp40
 70
     1
102
RTVSPropertyOp41
 70
     1
102
RTVSPropertyOp42
 70
     1
102
RTVSPropertyOp43
 70
     1
102
RTVSPropertyOp44
 70
     1
102
RTVSPropertyOp45
 70
     1
102
RTVSPropertyOp46
 70
     1
102
RTVSPropertyOp47
 70
     1
102
RTVSPropertyOp48
 70
     1
102
RTVSPropertyOp49
 70
     1
102
RTVSPropertyOp50
 70
     1
102
RTVSPropertyOp51
 70
     0
102
RTVSPropertyOp52
 70
     0
102
RTVSPropertyOp53
 70
     1
102
RTVSPropertyOp54
 70
     1
102
RTVSPropertyOp55
 70
     1
102
RTVSPropertyOp56
 70
     1
102
RTVSPropertyOp57
 70
     1
102
RTVSPropertyOp58
 70
     1
102
RTVSPropertyOp59
 70
     1
102
RTVSPropertyOp60
 70
     1
102
RTVSPropertyOp61
 70
     1
102
RTVSPropertyOp62
 70
     1
  0
XRECORD
  5
4E2
102
{ACAD_REACTORS
330
4E1
102
}
330
4E1
100
AcDbXrecord
280
     1
102
RTVSPost2010Prop28
280
     0
102
RTVSPost2010PropOp28
 70
     1
102
RTVSPost2010Prop29
280
     1
102
RTVSPost2010PropOp29
 70
     1
102
RTVSPost2010Prop30
280
     1
102
RTVSPost2010PropOp30
 70
     1
102
RTVSPost2010Prop31
280
     0
102
RTVSPost2010PropOp31
 70
     1
102
RTVSPost2010Prop32
280
     0
102
RTVSPost2010PropOp32
 70
     1
102
RTVSPost2010Prop33
280
     0
102
RTVSPost2010PropOp33
 70
     1
102
RTVSPost2010Prop34
280
     0
102
RTVSPost2010PropOp34
 70
     1
102
RTVSPost2010Prop35
280
     0
102
RTVSPost2010PropOp35
 70
     1
102
RTVSPost2010Prop36
280
     0
102
RTVSPost2010PropOp36
 70
     1
102
RTVSPost2010Prop37
 90
       50
102
RTVSPost2010PropOp37
 70
     1
102
RTVSPost2010Prop38
140
0.0
102
RTVSPost2010PropOp38
 70
     1
102
RTVSPost2010Prop39
140
1.0
102
RTVSPost2010PropOp39
 70
     1
102
RTVSPost2010Prop40
 90
        0
102
RTVSPost2010PropOp40
 70
     1
102
RTVSPost2010Prop41ColorIndex
 90
       18
102
RTVSPost2010Prop41ColorRGB
 90
        0
102
RTVSPost2010PropOp41
 70
     1
102
RTVSPost2010Prop42
 90
       50
102
RTVSPost2010PropOp42
 70
     1
102
RTVSPost2010Prop43
 90
        3
102
RTVSPost2010PropOp43
 70
     1
102
RTVSPost2010Prop44ColorIndex
 90
        5
102
RTVSPost2010Prop44ColorRGB
 90
      255
102
RTVSPost2010PropOp44
 70
     1
102
RTVSPost2010Prop45
280
     0
102
RTVSPost2010PropOp45
 70
     1
102
RTVSPost2010Prop46
 90
       50
102
RTVSPost2010PropOp46
 70
     1
102
RTVSPost2010Prop47
 90
       50
102
RTVSPost2010PropOp47
 70
     1
102
RTVSPost2010Prop48
 90
       50
102
RTVSPost2010PropOp48
 70
     1
102
RTVSPost2010Prop49
280
     0
102
RTVSPost2010PropOp49
 70
     1
102
RTVSPost2010Prop50
 90
       50
102
RTVSPost2010PropOp50
 70
     1
102
RTVSPost2010Prop51ColorIndex
 90
      256
102
RTVSPost2010Prop51ColorRGB
 90
-16777216
102
RTVSPost2010PropOp51
 70
     0
102
RTVSPost2010Prop52
140
1.0
102
RTVSPost2010PropOp52
 70
     0
102
RTVSPost2010Prop53
 90
        2
102
RTVSPost2010PropOp53
 70
     1
102
RTVSPost2010Prop54
  1
strokes_ogs.tif
102
RTVSPost2010PropOp54
 70
     1
102
RTVSPost2010Prop55
280
     0
102
RTVSPost2010PropOp55
 70
     1
102
RTVSPost2010Prop56
140
1.0
102
RTVSPost2010PropOp56
 70
     1
102
RTVSPost2010Prop57
140
1.0
102
RTVSPost2010PropOp57
 70
     1
102
RTVSPropertyOp0
 70
     1
102
RTVSPropertyOp1
 70
     1
102
RTVSPropertyOp2
 70
     1
102
RTVSPropertyOp3
 70
     1
102
RTVSPropertyOp4
 70
     1
102
RTVSPropertyOp5
 70
     1
102
RTVSPropertyOp6
 70
     1
102
RTVSPropertyOp7
 70
     1
102
RTVSPropertyOp8
 70
     1
102
RTVSPropertyOp9
 70
     1
102
RTVSPropertyOp10
 70
     1
102
RTVSPropertyOp11
 70
     1
102
RTVSPropertyOp12
 70
     1
102
RTVSPropertyOp13
 70
     1
102
RTVSPropertyOp14
 70
     1
102
RTVSPropertyOp15
 70
     1
102
RTVSPropertyOp16
 70
     1
102
RTVSPropertyOp17
 70
     1
102
RTVSPropertyOp18
 70
     1
102
RTVSPropertyOp19
 70
     1
102
RTVSPropertyOp20
 70
     1
102
RTVSPropertyOp21
 70
     1
102
RTVSPropertyOp22
 70
     1
102
RTVSPropertyOp23
 70
     1
102
RTVSPropertyOp24
 70
     1
102
RTVSPropertyOp25
 70
     1
102
RTVSPropertyOp26
 70
     1
102
RTVSPropertyOp27
 70
     1
102
RTVSPropertyOp28
 70
     1
102
RTVSPropertyOp29
 70
     1
102
RTVSPropertyOp30
 70
     1
102
RTVSPropertyOp31
 70
     1
102
RTVSPropertyOp32
 70
     1
102
RTVSPropertyOp33
 70
     1
102
RTVSPropertyOp34
 70
     1
102
RTVSPropertyOp35
 70
     1
102
RTVSPropertyOp36
 70
     1
102
RTVSPropertyOp37
 70
     1
102
RTVSPropertyOp38
 70
     1
102
RTVSPropertyOp39
 70
     1
102
RTVSPropertyOp40
 70
     1
102
RTVSPropertyOp41
 70
     1
102
RTVSPropertyOp42
 70
     1
102
RTVSPropertyOp43
 70
     1
102
RTVSPropertyOp44
 70
     1
102
RTVSPropertyOp45
 70
     1
102
RTVSPropertyOp46
 70
     1
102
RTVSPropertyOp47
 70
     1
102
RTVSPropertyOp48
 70
     1
102
RTVSPropertyOp49
 70
     1
102
RTVSPropertyOp50
 70
     1
102
RTVSPropertyOp51
 70
     0
102
RTVSPropertyOp52
 70
     0
102
RTVSPropertyOp53
 70
     1
102
RTVSPropertyOp54
 70
     1
102
RTVSPropertyOp55
 70
     1
102
RTVSPropertyOp56
 70
     1
102
RTVSPropertyOp57
 70
     1
102
RTVSPropertyOp58
 70
     1
102
RTVSPropertyOp59
 70
     1
102
RTVSPropertyOp60
 70
     1
102
RTVSPropertyOp61
 70
     1
102
RTVSPropertyOp62
 70
     1
  0
XRECORD
  5
4EA
102
{ACAD_REACTORS
330
4E9
102
}
330
4E9
100
AcDbXrecord
280
     1
102
RTVSPost2010Prop28
280
     0
102
RTVSPost2010PropOp28
 70
     1
102
RTVSPost2010Prop29
280
     1
102
RTVSPost2010PropOp29
 70
     1
102
RTVSPost2010Prop30
280
     1
102
RTVSPost2010PropOp30
 70
     1
102
RTVSPost2010Prop31
280
     0
102
RTVSPost2010PropOp31
 70
     1
102
RTVSPost2010Prop32
280
     0
102
RTVSPost2010PropOp32
 70
     1
102
RTVSPost2010Prop33
280
     0
102
RTVSPost2010PropOp33
 70
     1
102
RTVSPost2010Prop34
280
     0
102
RTVSPost2010PropOp34
 70
     1
102
RTVSPost2010Prop35
280
     0
102
RTVSPost2010PropOp35
 70
     1
102
RTVSPost2010Prop36
280
     0
102
RTVSPost2010PropOp36
 70
     1
102
RTVSPost2010Prop37
 90
       50
102
RTVSPost2010PropOp37
 70
     1
102
RTVSPost2010Prop38
140
0.0
102
RTVSPost2010PropOp38
 70
     1
102
RTVSPost2010Prop39
140
1.0
102
RTVSPost2010PropOp39
 70
     1
102
RTVSPost2010Prop40
 90
        0
102
RTVSPost2010PropOp40
 70
     1
102
RTVSPost2010Prop41ColorIndex
 90
       18
102
RTVSPost2010Prop41ColorRGB
 90
        0
102
RTVSPost2010PropOp41
 70
     1
102
RTVSPost2010Prop42
 90
       50
102
RTVSPost2010PropOp42
 70
     1
102
RTVSPost2010Prop43
 90
        3
102
RTVSPost2010PropOp43
 70
     1
102
RTVSPost2010Prop44ColorIndex
 90
        5
102
RTVSPost2010Prop44ColorRGB
 90
      255
102
RTVSPost2010PropOp44
 70
     1
102
RTVSPost2010Prop45
280
     0
102
RTVSPost2010PropOp45
 70
     1
102
RTVSPost2010Prop46
 90
       50
102
RTVSPost2010PropOp46
 70
     1
102
RTVSPost2010Prop47
 90
       50
102
RTVSPost2010PropOp47
 70
     1
102
RTVSPost2010Prop48
 90
       50
102
RTVSPost2010PropOp48
 70
     1
102
RTVSPost2010Prop49
280
     0
102
RTVSPost2010PropOp49
 70
     1
102
RTVSPost2010Prop50
 90
       50
102
RTVSPost2010PropOp50
 70
     1
102
RTVSPost2010Prop51ColorIndex
 90
      256
102
RTVSPost2010Prop51ColorRGB
 90
-16777216
102
RTVSPost2010PropOp51
 70
     0
102
RTVSPost2010Prop52
140
1.0
102
RTVSPost2010PropOp52
 70
     0
102
RTVSPost2010Prop53
 90
        2
102
RTVSPost2010PropOp53
 70
     1
102
RTVSPost2010Prop54
  1
strokes_ogs.tif
102
RTVSPost2010PropOp54
 70
     1
102
RTVSPost2010Prop55
280
     0
102
RTVSPost2010PropOp55
 70
     1
102
RTVSPost2010Prop56
140
1.0
102
RTVSPost2010PropOp56
 70
     1
102
RTVSPost2010Prop57
140
1.0
102
RTVSPost2010PropOp57
 70
     1
102
RTVSPropertyOp0
 70
     1
102
RTVSPropertyOp1
 70
     1
102
RTVSPropertyOp2
 70
     1
102
RTVSPropertyOp3
 70
     1
102
RTVSPropertyOp4
 70
     1
102
RTVSPropertyOp5
 70
     1
102
RTVSPropertyOp6
 70
     1
102
RTVSPropertyOp7
 70
     1
102
RTVSPropertyOp8
 70
     1
102
RTVSPropertyOp9
 70
     1
102
RTVSPropertyOp10
 70
     1
102
RTVSPropertyOp11
 70
     1
102
RTVSPropertyOp12
 70
     1
102
RTVSPropertyOp13
 70
     1
102
RTVSPropertyOp14
 70
     1
102
RTVSPropertyOp15
 70
     1
102
RTVSPropertyOp16
 70
     1
102
RTVSPropertyOp17
 70
     1
102
RTVSPropertyOp18
 70
     1
102
RTVSPropertyOp19
 70
     1
102
RTVSPropertyOp20
 70
     1
102
RTVSPropertyOp21
 70
     1
102
RTVSPropertyOp22
 70
     1
102
RTVSPropertyOp23
 70
     1
102
RTVSPropertyOp24
 70
     1
102
RTVSPropertyOp25
 70
     1
102
RTVSPropertyOp26
 70
     1
102
RTVSPropertyOp27
 70
     1
102
RTVSPropertyOp28
 70
     1
102
RTVSPropertyOp29
 70
     1
102
RTVSPropertyOp30
 70
     1
102
RTVSPropertyOp31
 70
     1
102
RTVSPropertyOp32
 70
     1
102
RTVSPropertyOp33
 70
     1
102
RTVSPropertyOp34
 70
     1
102
RTVSPropertyOp35
 70
     1
102
RTVSPropertyOp36
 70
     1
102
RTVSPropertyOp37
 70
     1
102
RTVSPropertyOp38
 70
     1
102
RTVSPropertyOp39
 70
     1
102
RTVSPropertyOp40
 70
     1
102
RTVSPropertyOp41
 70
     1
102
RTVSPropertyOp42
 70
     1
102
RTVSPropertyOp43
 70
     1
102
RTVSPropertyOp44
 70
     1
102
RTVSPropertyOp45
 70
     1
102
RTVSPropertyOp46
 70
     1
102
RTVSPropertyOp47
 70
     1
102
RTVSPropertyOp48
 70
     1
102
RTVSPropertyOp49
 70
     1
102
RTVSPropertyOp50
 70
     1
102
RTVSPropertyOp51
 70
     0
102
RTVSPropertyOp52
 70
     0
102
RTVSPropertyOp53
 70
     1
102
RTVSPropertyOp54
 70
     1
102
RTVSPropertyOp55
 70
     1
102
RTVSPropertyOp56
 70
     1
102
RTVSPropertyOp57
 70
     1
102
RTVSPropertyOp58
 70
     1
102
RTVSPropertyOp59
 70
     1
102
RTVSPropertyOp60
 70
     1
102
RTVSPropertyOp61
 70
     1
102
RTVSPropertyOp62
 70
     1
  0
XRECORD
  5
4DC
102
{ACAD_REACTORS
330
4DB
102
}
330
4DB
100
AcDbXrecord
280
     1
102
RTVSPost2010Prop28
280
     0
102
RTVSPost2010PropOp28
 70
     1
102
RTVSPost2010Prop29
280
     1
102
RTVSPost2010PropOp29
 70
     1
102
RTVSPost2010Prop30
280
     1
102
RTVSPost2010PropOp30
 70
     1
102
RTVSPost2010Prop31
280
     0
102
RTVSPost2010PropOp31
 70
     1
102
RTVSPost2010Prop32
280
     0
102
RTVSPost2010PropOp32
 70
     1
102
RTVSPost2010Prop33
280
     0
102
RTVSPost2010PropOp33
 70
     1
102
RTVSPost2010Prop34
280
     0
102
RTVSPost2010PropOp34
 70
     1
102
RTVSPost2010Prop35
280
     0
102
RTVSPost2010PropOp35
 70
     1
102
RTVSPost2010Prop36
280
     0
102
RTVSPost2010PropOp36
 70
     1
102
RTVSPost2010Prop37
 90
       50
102
RTVSPost2010PropOp37
 70
     1
102
RTVSPost2010Prop38
140
0.0
102
RTVSPost2010PropOp38
 70
     1
102
RTVSPost2010Prop39
140
1.0
102
RTVSPost2010PropOp39
 70
     1
102
RTVSPost2010Prop40
 90
        0
102
RTVSPost2010PropOp40
 70
     1
102
RTVSPost2010Prop41ColorIndex
 90
       18
102
RTVSPost2010Prop41ColorRGB
 90
        0
102
RTVSPost2010PropOp41
 70
     1
102
RTVSPost2010Prop42
 90
       50
102
RTVSPost2010PropOp42
 70
     1
102
RTVSPost2010Prop43
 90
        3
102
RTVSPost2010PropOp43
 70
     1
102
RTVSPost2010Prop44ColorIndex
 90
        5
102
RTVSPost2010Prop44ColorRGB
 90
      255
102
RTVSPost2010PropOp44
 70
     1
102
RTVSPost2010Prop45
280
     0
102
RTVSPost2010PropOp45
 70
     1
102
RTVSPost2010Prop46
 90
       50
102
RTVSPost2010PropOp46
 70
     1
102
RTVSPost2010Prop47
 90
       50
102
RTVSPost2010PropOp47
 70
     1
102
RTVSPost2010Prop48
 90
       50
102
RTVSPost2010PropOp48
 70
     1
102
RTVSPost2010Prop49
280
     0
102
RTVSPost2010PropOp49
 70
     1
102
RTVSPost2010Prop50
 90
       50
102
RTVSPost2010PropOp50
 70
     1
102
RTVSPost2010Prop51ColorIndex
 90
      256
102
RTVSPost2010Prop51ColorRGB
 90
-16777216
102
RTVSPost2010PropOp51
 70
     0
102
RTVSPost2010Prop52
140
1.0
102
RTVSPost2010PropOp52
 70
     0
102
RTVSPost2010Prop53
 90
        2
102
RTVSPost2010PropOp53
 70
     1
102
RTVSPost2010Prop54
  1
strokes_ogs.tif
102
RTVSPost2010PropOp54
 70
     1
102
RTVSPost2010Prop55
280
     0
102
RTVSPost2010PropOp55
 70
     1
102
RTVSPost2010Prop56
140
1.0
102
RTVSPost2010PropOp56
 70
     1
102
RTVSPost2010Prop57
140
1.0
102
RTVSPost2010PropOp57
 70
     1
102
RTVSPropertyOp0
 70
     1
102
RTVSPropertyOp1
 70
     1
102
RTVSPropertyOp2
 70
     1
102
RTVSPropertyOp3
 70
     1
102
RTVSPropertyOp4
 70
     1
102
RTVSPropertyOp5
 70
     1
102
RTVSPropertyOp6
 70
     1
102
RTVSPropertyOp7
 70
     1
102
RTVSPropertyOp8
 70
     1
102
RTVSPropertyOp9
 70
     1
102
RTVSPropertyOp10
 70
     1
102
RTVSPropertyOp11
 70
     1
102
RTVSPropertyOp12
 70
     1
102
RTVSPropertyOp13
 70
     1
102
RTVSPropertyOp14
 70
     1
102
RTVSPropertyOp15
 70
     1
102
RTVSPropertyOp16
 70
     1
102
RTVSPropertyOp17
 70
     1
102
RTVSPropertyOp18
 70
     1
102
RTVSPropertyOp19
 70
     1
102
RTVSPropertyOp20
 70
     1
102
RTVSPropertyOp21
 70
     1
102
RTVSPropertyOp22
 70
     1
102
RTVSPropertyOp23
 70
     1
102
RTVSPropertyOp24
 70
     1
102
RTVSPropertyOp25
 70
     1
102
RTVSPropertyOp26
 70
     1
102
RTVSPropertyOp27
 70
     1
102
RTVSPropertyOp28
 70
     1
102
RTVSPropertyOp29
 70
     1
102
RTVSPropertyOp30
 70
     1
102
RTVSPropertyOp31
 70
     1
102
RTVSPropertyOp32
 70
     1
102
RTVSPropertyOp33
 70
     1
102
RTVSPropertyOp34
 70
     1
102
RTVSPropertyOp35
 70
     1
102
RTVSPropertyOp36
 70
     1
102
RTVSPropertyOp37
 70
     1
102
RTVSPropertyOp38
 70
     1
102
RTVSPropertyOp39
 70
     1
102
RTVSPropertyOp40
 70
     1
102
RTVSPropertyOp41
 70
     1
102
RTVSPropertyOp42
 70
     1
102
RTVSPropertyOp43
 70
     1
102
RTVSPropertyOp44
 70
     1
102
RTVSPropertyOp45
 70
     1
102
RTVSPropertyOp46
 70
     1
102
RTVSPropertyOp47
 70
     1
102
RTVSPropertyOp48
 70
     1
102
RTVSPropertyOp49
 70
     1
102
RTVSPropertyOp50
 70
     1
102
RTVSPropertyOp51
 70
     0
102
RTVSPropertyOp52
 70
     0
102
RTVSPropertyOp53
 70
     1
102
RTVSPropertyOp54
 70
     1
102
RTVSPropertyOp55
 70
     1
102
RTVSPropertyOp56
 70
     1
102
RTVSPropertyOp57
 70
     1
102
RTVSPropertyOp58
 70
     1
102
RTVSPropertyOp59
 70
     1
102
RTVSPropertyOp60
 70
     1
102
RTVSPropertyOp61
 70
     1
102
RTVSPropertyOp62
 70
     1
  0
XRECORD
  5
4E0
102
{ACAD_REACTORS
330
4DF
102
}
330
4DF
100
AcDbXrecord
280
     1
102
RTVSPost2010Prop28
280
     0
102
RTVSPost2010PropOp28
 70
     1
102
RTVSPost2010Prop29
280
     1
102
RTVSPost2010PropOp29
 70
     1
102
RTVSPost2010Prop30
280
     1
102
RTVSPost2010PropOp30
 70
     1
102
RTVSPost2010Prop31
280
     0
102
RTVSPost2010PropOp31
 70
     1
102
RTVSPost2010Prop32
280
     0
102
RTVSPost2010PropOp32
 70
     1
102
RTVSPost2010Prop33
280
     0
102
RTVSPost2010PropOp33
 70
     1
102
RTVSPost2010Prop34
280
     0
102
RTVSPost2010PropOp34
 70
     1
102
RTVSPost2010Prop35
280
     0
102
RTVSPost2010PropOp35
 70
     1
102
RTVSPost2010Prop36
280
     0
102
RTVSPost2010PropOp36
 70
     1
102
RTVSPost2010Prop37
 90
       50
102
RTVSPost2010PropOp37
 70
     1
102
RTVSPost2010Prop38
140
0.0
102
RTVSPost2010PropOp38
 70
     1
102
RTVSPost2010Prop39
140
1.0
102
RTVSPost2010PropOp39
 70
     1
102
RTVSPost2010Prop40
 90
        0
102
RTVSPost2010PropOp40
 70
     1
102
RTVSPost2010Prop41ColorIndex
 90
       18
102
RTVSPost2010Prop41ColorRGB
 90
        0
102
RTVSPost2010PropOp41
 70
     1
102
RTVSPost2010Prop42
 90
       50
102
RTVSPost2010PropOp42
 70
     1
102
RTVSPost2010Prop43
 90
        3
102
RTVSPost2010PropOp43
 70
     1
102
RTVSPost2010Prop44ColorIndex
 90
        5
102
RTVSPost2010Prop44ColorRGB
 90
      255
102
RTVSPost2010PropOp44
 70
     1
102
RTVSPost2010Prop45
280
     0
102
RTVSPost2010PropOp45
 70
     1
102
RTVSPost2010Prop46
 90
       50
102
RTVSPost2010PropOp46
 70
     1
102
RTVSPost2010Prop47
 90
       50
102
RTVSPost2010PropOp47
 70
     1
102
RTVSPost2010Prop48
 90
       50
102
RTVSPost2010PropOp48
 70
     1
102
RTVSPost2010Prop49
280
     0
102
RTVSPost2010PropOp49
 70
     1
102
RTVSPost2010Prop50
 90
       50
102
RTVSPost2010PropOp50
 70
     1
102
RTVSPost2010Prop51ColorIndex
 90
      256
102
RTVSPost2010Prop51ColorRGB
 90
-16777216
102
RTVSPost2010PropOp51
 70
     0
102
RTVSPost2010Prop52
140
1.0
102
RTVSPost2010PropOp52
 70
     0
102
RTVSPost2010Prop53
 90
        2
102
RTVSPost2010PropOp53
 70
     1
102
RTVSPost2010Prop54
  1
strokes_ogs.tif
102
RTVSPost2010PropOp54
 70
     1
102
RTVSPost2010Prop55
280
     0
102
RTVSPost2010PropOp55
 70
     1
102
RTVSPost2010Prop56
140
1.0
102
RTVSPost2010PropOp56
 70
     1
102
RTVSPost2010Prop57
140
1.0
102
RTVSPost2010PropOp57
 70
     1
102
RTVSPropertyOp0
 70
     1
102
RTVSPropertyOp1
 70
     1
102
RTVSPropertyOp2
 70
     1
102
RTVSPropertyOp3
 70
     1
102
RTVSPropertyOp4
 70
     1
102
RTVSPropertyOp5
 70
     1
102
RTVSPropertyOp6
 70
     1
102
RTVSPropertyOp7
 70
     1
102
RTVSPropertyOp8
 70
     1
102
RTVSPropertyOp9
 70
     1
102
RTVSPropertyOp10
 70
     1
102
RTVSPropertyOp11
 70
     1
102
RTVSPropertyOp12
 70
     1
102
RTVSPropertyOp13
 70
     1
102
RTVSPropertyOp14
 70
     1
102
RTVSPropertyOp15
 70
     1
102
RTVSPropertyOp16
 70
     1
102
RTVSPropertyOp17
 70
     1
102
RTVSPropertyOp18
 70
     1
102
RTVSPropertyOp19
 70
     1
102
RTVSPropertyOp20
 70
     1
102
RTVSPropertyOp21
 70
     1
102
RTVSPropertyOp22
 70
     1
102
RTVSPropertyOp23
 70
     1
102
RTVSPropertyOp24
 70
     1
102
RTVSPropertyOp25
 70
     1
102
RTVSPropertyOp26
 70
     1
102
RTVSPropertyOp27
 70
     1
102
RTVSPropertyOp28
 70
     1
102
RTVSPropertyOp29
 70
     1
102
RTVSPropertyOp30
 70
     1
102
RTVSPropertyOp31
 70
     1
102
RTVSPropertyOp32
 70
     1
102
RTVSPropertyOp33
 70
     1
102
RTVSPropertyOp34
 70
     1
102
RTVSPropertyOp35
 70
     1
102
RTVSPropertyOp36
 70
     1
102
RTVSPropertyOp37
 70
     1
102
RTVSPropertyOp38
 70
     1
102
RTVSPropertyOp39
 70
     1
102
RTVSPropertyOp40
 70
     1
102
RTVSPropertyOp41
 70
     1
102
RTVSPropertyOp42
 70
     1
102
RTVSPropertyOp43
 70
     1
102
RTVSPropertyOp44
 70
     1
102
RTVSPropertyOp45
 70
     1
102
RTVSPropertyOp46
 70
     1
102
RTVSPropertyOp47
 70
     1
102
RTVSPropertyOp48
 70
     1
102
RTVSPropertyOp49
 70
     1
102
RTVSPropertyOp50
 70
     1
102
RTVSPropertyOp51
 70
     0
102
RTVSPropertyOp52
 70
     0
102
RTVSPropertyOp53
 70
     1
102
RTVSPropertyOp54
 70
     1
102
RTVSPropertyOp55
 70
     1
102
RTVSPropertyOp56
 70
     1
102
RTVSPropertyOp57
 70
     1
102
RTVSPropertyOp58
 70
     1
102
RTVSPropertyOp59
 70
     1
102
RTVSPropertyOp60
 70
     1
102
RTVSPropertyOp61
 70
     1
102
RTVSPropertyOp62
 70
     1
  0
XRECORD
  5
4FA
102
{ACAD_REACTORS
330
4F9
102
}
330
4F9
100
AcDbXrecord
280
     1
102
RTVSPost2010Prop28
280
     0
102
RTVSPost2010PropOp28
 70
     1
102
RTVSPost2010Prop29
280
     1
102
RTVSPost2010PropOp29
 70
     1
102
RTVSPost2010Prop30
280
     1
102
RTVSPost2010PropOp30
 70
     1
102
RTVSPost2010Prop31
280
     0
102
RTVSPost2010PropOp31
 70
     1
102
RTVSPost2010Prop32
280
     0
102
RTVSPost2010PropOp32
 70
     1
102
RTVSPost2010Prop33
280
     0
102
RTVSPost2010PropOp33
 70
     1
102
RTVSPost2010Prop34
280
     0
102
RTVSPost2010PropOp34
 70
     1
102
RTVSPost2010Prop35
280
     0
102
RTVSPost2010PropOp35
 70
     1
102
RTVSPost2010Prop36
280
     0
102
RTVSPost2010PropOp36
 70
     1
102
RTVSPost2010Prop37
 90
       50
102
RTVSPost2010PropOp37
 70
     0
102
RTVSPost2010Prop38
140
0.0
102
RTVSPost2010PropOp38
 70
     0
102
RTVSPost2010Prop39
140
1.0
102
RTVSPost2010PropOp39
 70
     0
102
RTVSPost2010Prop40
 90
        0
102
RTVSPost2010PropOp40
 70
     0
102
RTVSPost2010Prop41ColorIndex
 90
       18
102
RTVSPost2010Prop41ColorRGB
 90
        0
102
RTVSPost2010PropOp41
 70
     0
102
RTVSPost2010Prop42
 90
       50
102
RTVSPost2010PropOp42
 70
     0
102
RTVSPost2010Prop43
 90
        3
102
RTVSPost2010PropOp43
 70
     0
102
RTVSPost2010Prop44ColorIndex
 90
        5
102
RTVSPost2010Prop44ColorRGB
 90
      255
102
RTVSPost2010PropOp44
 70
     0
102
RTVSPost2010Prop45
280
     0
102
RTVSPost2010PropOp45
 70
     1
102
RTVSPost2010Prop46
 90
       50
102
RTVSPost2010PropOp46
 70
     0
102
RTVSPost2010Prop47
 90
       50
102
RTVSPost2010PropOp47
 70
     0
102
RTVSPost2010Prop48
 90
       50
102
RTVSPost2010PropOp48
 70
     0
102
RTVSPost2010Prop49
280
     0
102
RTVSPost2010PropOp49
 70
     1
102
RTVSPost2010Prop50
 90
       50
102
RTVSPost2010PropOp50
 70
     0
102
RTVSPost2010Prop51ColorIndex
 90
      256
102
RTVSPost2010Prop51ColorRGB
 90
-16777216
102
RTVSPost2010PropOp51
 70
     0
102
RTVSPost2010Prop52
140
1.0
102
RTVSPost2010PropOp52
 70
     0
102
RTVSPost2010Prop53
 90
        2
102
RTVSPost2010PropOp53
 70
     0
102
RTVSPost2010Prop54
  1
strokes_ogs.tif
102
RTVSPost2010PropOp54
 70
     0
102
RTVSPost2010Prop55
280
     0
102
RTVSPost2010PropOp55
 70
     1
102
RTVSPost2010Prop56
140
1.0
102
RTVSPost2010PropOp56
 70
     0
102
RTVSPost2010Prop57
140
1.0
102
RTVSPost2010PropOp57
 70
     0
102
RTVSPropertyOp0
 70
     0
102
RTVSPropertyOp1
 70
     0
102
RTVSPropertyOp2
 70
     0
102
RTVSPropertyOp3
 70
     0
102
RTVSPropertyOp4
 70
     0
102
RTVSPropertyOp5
 70
     0
102
RTVSPropertyOp6
 70
     0
102
RTVSPropertyOp7
 70
     0
102
RTVSPropertyOp8
 70
     0
102
RTVSPropertyOp9
 70
     0
102
RTVSPropertyOp10
 70
     0
102
RTVSPropertyOp11
 70
     0
102
RTVSPropertyOp12
 70
     0
102
RTVSPropertyOp13
 70
     0
102
RTVSPropertyOp14
 70
     2
102
RTVSPropertyOp15
 70
     0
102
RTVSPropertyOp16
 70
     0
102
RTVSPropertyOp17
 70
     0
102
RTVSPropertyOp18
 70
     0
102
RTVSPropertyOp19
 70
     0
102
RTVSPropertyOp20
 70
     0
102
RTVSPropertyOp21
 70
     0
102
RTVSPropertyOp22
 70
     0
102
RTVSPropertyOp23
 70
     0
102
RTVSPropertyOp24
 70
     0
102
RTVSPropertyOp25
 70
     0
102
RTVSPropertyOp26
 70
     0
102
RTVSPropertyOp27
 70
     0
102
RTVSPropertyOp28
 70
     1
102
RTVSPropertyOp29
 70
     1
102
RTVSPropertyOp30
 70
     1
102
RTVSPropertyOp31
 70
     1
102
RTVSPropertyOp32
 70
     1
102
RTVSPropertyOp33
 70
     1
102
RTVSPropertyOp34
 70
     1
102
RTVSPropertyOp35
 70
     1
102
RTVSPropertyOp36
 70
     1
102
RTVSPropertyOp37
 70
     0
102
RTVSPropertyOp38
 70
     0
102
RTVSPropertyOp39
 70
     0
102
RTVSPropertyOp40
 70
     0
102
RTVSPropertyOp41
 70
     0
102
RTVSPropertyOp42
 70
     0
102
RTVSPropertyOp43
 70
     0
102
RTVSPropertyOp44
 70
     0
102
RTVSPropertyOp45
 70
     1
102
RTVSPropertyOp46
 70
     0
102
RTVSPropertyOp47
 70
     0
102
RTVSPropertyOp48
 70
     0
102
RTVSPropertyOp49
 70
     1
102
RTVSPropertyOp50
 70
     0
102
RTVSPropertyOp51
 70
     0
102
RTVSPropertyOp52
 70
     0
102
RTVSPropertyOp53
 70
     0
102
RTVSPropertyOp54
 70
     0
102
RTVSPropertyOp55
 70
     1
102
RTVSPropertyOp56
 70
     0
102
RTVSPropertyOp57
 70
     0
102
RTVSPropertyOp58
 70
     0
102
RTVSPropertyOp59
 70
     0
102
RTVSPropertyOp60
 70
     0
102
RTVSPropertyOp61
 70
     0
102
RTVSPropertyOp62
 70
     0
  0
XRECORD
  5
4E8
102
{ACAD_REACTORS
330
4E7
102
}
330
4E7
100
AcDbXrecord
280
     1
102
RTVSPost2010Prop28
280
     0
102
RTVSPost2010PropOp28
 70
     1
102
RTVSPost2010Prop29
280
     1
102
RTVSPost2010PropOp29
 70
     1
102
RTVSPost2010Prop30
280
     1
102
RTVSPost2010PropOp30
 70
     1
102
RTVSPost2010Prop31
280
     0
102
RTVSPost2010PropOp31
 70
     1
102
RTVSPost2010Prop32
280
     0
102
RTVSPost2010PropOp32
 70
     1
102
RTVSPost2010Prop33
280
     0
102
RTVSPost2010PropOp33
 70
     1
102
RTVSPost2010Prop34
280
     0
102
RTVSPost2010PropOp34
 70
     1
102
RTVSPost2010Prop35
280
     0
102
RTVSPost2010PropOp35
 70
     1
102
RTVSPost2010Prop36
280
     0
102
RTVSPost2010PropOp36
 70
     1
102
RTVSPost2010Prop37
 90
       50
102
RTVSPost2010PropOp37
 70
     1
102
RTVSPost2010Prop38
140
0.0
102
RTVSPost2010PropOp38
 70
     1
102
RTVSPost2010Prop39
140
1.0
102
RTVSPost2010PropOp39
 70
     1
102
RTVSPost2010Prop40
 90
        0
102
RTVSPost2010PropOp40
 70
     1
102
RTVSPost2010Prop41ColorIndex
 90
       18
102
RTVSPost2010Prop41ColorRGB
 90
        0
102
RTVSPost2010PropOp41
 70
     1
102
RTVSPost2010Prop42
 90
       50
102
RTVSPost2010PropOp42
 70
     1
102
RTVSPost2010Prop43
 90
        3
102
RTVSPost2010PropOp43
 70
     1
102
RTVSPost2010Prop44ColorIndex
 90
        5
102
RTVSPost2010Prop44ColorRGB
 90
      255
102
RTVSPost2010PropOp44
 70
     1
102
RTVSPost2010Prop45
280
     0
102
RTVSPost2010PropOp45
 70
     1
102
RTVSPost2010Prop46
 90
       50
102
RTVSPost2010PropOp46
 70
     1
102
RTVSPost2010Prop47
 90
       50
102
RTVSPost2010PropOp47
 70
     1
102
RTVSPost2010Prop48
 90
       50
102
RTVSPost2010PropOp48
 70
     1
102
RTVSPost2010Prop49
280
     0
102
RTVSPost2010PropOp49
 70
     1
102
RTVSPost2010Prop50
 90
       50
102
RTVSPost2010PropOp50
 70
     1
102
RTVSPost2010Prop51ColorIndex
 90
      256
102
RTVSPost2010Prop51ColorRGB
 90
-16777216
102
RTVSPost2010PropOp51
 70
     0
102
RTVSPost2010Prop52
140
1.0
102
RTVSPost2010PropOp52
 70
     0
102
RTVSPost2010Prop53
 90
        2
102
RTVSPost2010PropOp53
 70
     1
102
RTVSPost2010Prop54
  1
strokes_ogs.tif
102
RTVSPost2010PropOp54
 70
     1
102
RTVSPost2010Prop55
280
     0
102
RTVSPost2010PropOp55
 70
     1
102
RTVSPost2010Prop56
140
1.0
102
RTVSPost2010PropOp56
 70
     1
102
RTVSPost2010Prop57
140
1.0
102
RTVSPost2010PropOp57
 70
     1
102
RTVSPropertyOp0
 70
     1
102
RTVSPropertyOp1
 70
     1
102
RTVSPropertyOp2
 70
     1
102
RTVSPropertyOp3
 70
     1
102
RTVSPropertyOp4
 70
     1
102
RTVSPropertyOp5
 70
     1
102
RTVSPropertyOp6
 70
     1
102
RTVSPropertyOp7
 70
     1
102
RTVSPropertyOp8
 70
     1
102
RTVSPropertyOp9
 70
     1
102
RTVSPropertyOp10
 70
     1
102
RTVSPropertyOp11
 70
     1
102
RTVSPropertyOp12
 70
     1
102
RTVSPropertyOp13
 70
     1
102
RTVSPropertyOp14
 70
     1
102
RTVSPropertyOp15
 70
     1
102
RTVSPropertyOp16
 70
     1
102
RTVSPropertyOp17
 70
     1
102
RTVSPropertyOp18
 70
     1
102
RTVSPropertyOp19
 70
     1
102
RTVSPropertyOp20
 70
     1
102
RTVSPropertyOp21
 70
     1
102
RTVSPropertyOp22
 70
     1
102
RTVSPropertyOp23
 70
     1
102
RTVSPropertyOp24
 70
     1
102
RTVSPropertyOp25
 70
     1
102
RTVSPropertyOp26
 70
     1
102
RTVSPropertyOp27
 70
     1
102
RTVSPropertyOp28
 70
     1
102
RTVSPropertyOp29
 70
     1
102
RTVSPropertyOp30
 70
     1
102
RTVSPropertyOp31
 70
     1
102
RTVSPropertyOp32
 70
     1
102
RTVSPropertyOp33
 70
     1
102
RTVSPropertyOp34
 70
     1
102
RTVSPropertyOp35
 70
     1
102
RTVSPropertyOp36
 70
     1
102
RTVSPropertyOp37
 70
     1
102
RTVSPropertyOp38
 70
     1
102
RTVSPropertyOp39
 70
     1
102
RTVSPropertyOp40
 70
     1
102
RTVSPropertyOp41
 70
     1
102
RTVSPropertyOp42
 70
     1
102
RTVSPropertyOp43
 70
     1
102
RTVSPropertyOp44
 70
     1
102
RTVSPropertyOp45
 70
     1
102
RTVSPropertyOp46
 70
     1
102
RTVSPropertyOp47
 70
     1
102
RTVSPropertyOp48
 70
     1
102
RTVSPropertyOp49
 70
     1
102
RTVSPropertyOp50
 70
     1
102
RTVSPropertyOp51
 70
     0
102
RTVSPropertyOp52
 70
     0
102
RTVSPropertyOp53
 70
     1
102
RTVSPropertyOp54
 70
     1
102
RTVSPropertyOp55
 70
     1
102
RTVSPropertyOp56
 70
     1
102
RTVSPropertyOp57
 70
     1
102
RTVSPropertyOp58
 70
     1
102
RTVSPropertyOp59
 70
     1
102
RTVSPropertyOp60
 70
     1
102
RTVSPropertyOp61
 70
     1
102
RTVSPropertyOp62
 70
     1
  0
XRECORD
  5
4CC
102
{ACAD_REACTORS
330
4CB
102
}
330
4CB
100
AcDbXrecord
280
     1
102
RTVSPost2010Prop28
280
     0
102
RTVSPost2010PropOp28
 70
     1
102
RTVSPost2010Prop29
280
     1
102
RTVSPost2010PropOp29
 70
     1
102
RTVSPost2010Prop30
280
     1
102
RTVSPost2010PropOp30
 70
     1
102
RTVSPost2010Prop31
280
     0
102
RTVSPost2010PropOp31
 70
     1
102
RTVSPost2010Prop32
280
     0
102
RTVSPost2010PropOp32
 70
     1
102
RTVSPost2010Prop33
280
     0
102
RTVSPost2010PropOp33
 70
     1
102
RTVSPost2010Prop34
280
     0
102
RTVSPost2010PropOp34
 70
     1
102
RTVSPost2010Prop35
280
     0
102
RTVSPost2010PropOp35
 70
     1
102
RTVSPost2010Prop36
280
     0
102
RTVSPost2010PropOp36
 70
     1
102
RTVSPost2010Prop37
 90
       50
102
RTVSPost2010PropOp37
 70
     1
102
RTVSPost2010Prop38
140
0.0
102
RTVSPost2010PropOp38
 70
     1
102
RTVSPost2010Prop39
140
1.0
102
RTVSPost2010PropOp39
 70
     1
102
RTVSPost2010Prop40
 90
        0
102
RTVSPost2010PropOp40
 70
     1
102
RTVSPost2010Prop41ColorIndex
 90
       18
102
RTVSPost2010Prop41ColorRGB
 90
        0
102
RTVSPost2010PropOp41
 70
     1
102
RTVSPost2010Prop42
 90
       50
102
RTVSPost2010PropOp42
 70
     1
102
RTVSPost2010Prop43
 90
        3
102
RTVSPost2010PropOp43
 70
     1
102
RTVSPost2010Prop44ColorIndex
 90
        5
102
RTVSPost2010Prop44ColorRGB
 90
      255
102
RTVSPost2010PropOp44
 70
     1
102
RTVSPost2010Prop45
280
     0
102
RTVSPost2010PropOp45
 70
     1
102
RTVSPost2010Prop46
 90
       50
102
RTVSPost2010PropOp46
 70
     1
102
RTVSPost2010Prop47
 90
       50
102
RTVSPost2010PropOp47
 70
     1
102
RTVSPost2010Prop48
 90
       50
102
RTVSPost2010PropOp48
 70
     1
102
RTVSPost2010Prop49
280
     0
102
RTVSPost2010PropOp49
 70
     1
102
RTVSPost2010Prop50
 90
       50
102
RTVSPost2010PropOp50
 70
     1
102
RTVSPost2010Prop51ColorIndex
 90
      256
102
RTVSPost2010Prop51ColorRGB
 90
-16777216
102
RTVSPost2010PropOp51
 70
     0
102
RTVSPost2010Prop52
140
1.0
102
RTVSPost2010PropOp52
 70
     0
102
RTVSPost2010Prop53
 90
        2
102
RTVSPost2010PropOp53
 70
     1
102
RTVSPost2010Prop54
  1
strokes_ogs.tif
102
RTVSPost2010PropOp54
 70
     1
102
RTVSPost2010Prop55
280
     0
102
RTVSPost2010PropOp55
 70
     1
102
RTVSPost2010Prop56
140
1.0
102
RTVSPost2010PropOp56
 70
     1
102
RTVSPost2010Prop57
140
1.0
102
RTVSPost2010PropOp57
 70
     1
102
RTVSPropertyOp0
 70
     1
102
RTVSPropertyOp1
 70
     1
102
RTVSPropertyOp2
 70
     1
102
RTVSPropertyOp3
 70
     1
102
RTVSPropertyOp4
 70
     1
102
RTVSPropertyOp5
 70
     1
102
RTVSPropertyOp6
 70
     1
102
RTVSPropertyOp7
 70
     1
102
RTVSPropertyOp8
 70
     1
102
RTVSPropertyOp9
 70
     1
102
RTVSPropertyOp10
 70
     1
102
RTVSPropertyOp11
 70
     1
102
RTVSPropertyOp12
 70
     1
102
RTVSPropertyOp13
 70
     1
102
RTVSPropertyOp14
 70
     1
102
RTVSPropertyOp15
 70
     1
102
RTVSPropertyOp16
 70
     1
102
RTVSPropertyOp17
 70
     1
102
RTVSPropertyOp18
 70
     1
102
RTVSPropertyOp19
 70
     1
102
RTVSPropertyOp20
 70
     1
102
RTVSPropertyOp21
 70
     1
102
RTVSPropertyOp22
 70
     1
102
RTVSPropertyOp23
 70
     1
102
RTVSPropertyOp24
 70
     1
102
RTVSPropertyOp25
 70
     1
102
RTVSPropertyOp26
 70
     1
102
RTVSPropertyOp27
 70
     1
102
RTVSPropertyOp28
 70
     1
102
RTVSPropertyOp29
 70
     1
102
RTVSPropertyOp30
 70
     1
102
RTVSPropertyOp31
 70
     1
102
RTVSPropertyOp32
 70
     1
102
RTVSPropertyOp33
 70
     1
102
RTVSPropertyOp34
 70
     1
102
RTVSPropertyOp35
 70
     1
102
RTVSPropertyOp36
 70
     1
102
RTVSPropertyOp37
 70
     1
102
RTVSPropertyOp38
 70
     1
102
RTVSPropertyOp39
 70
     1
102
RTVSPropertyOp40
 70
     1
102
RTVSPropertyOp41
 70
     1
102
RTVSPropertyOp42
 70
     1
102
RTVSPropertyOp43
 70
     1
102
RTVSPropertyOp44
 70
     1
102
RTVSPropertyOp45
 70
     1
102
RTVSPropertyOp46
 70
     1
102
RTVSPropertyOp47
 70
     1
102
RTVSPropertyOp48
 70
     1
102
RTVSPropertyOp49
 70
     1
102
RTVSPropertyOp50
 70
     1
102
RTVSPropertyOp51
 70
     0
102
RTVSPropertyOp52
 70
     0
102
RTVSPropertyOp53
 70
     1
102
RTVSPropertyOp54
 70
     1
102
RTVSPropertyOp55
 70
     1
102
RTVSPropertyOp56
 70
     1
102
RTVSPropertyOp57
 70
     1
102
RTVSPropertyOp58
 70
     1
102
RTVSPropertyOp59
 70
     1
102
RTVSPropertyOp60
 70
     1
102
RTVSPropertyOp61
 70
     1
102
RTVSPropertyOp62
 70
     1
  0
XRECORD
  5
4CE
102
{ACAD_REACTORS
330
4CD
102
}
330
4CD
100
AcDbXrecord
280
     1
102
RTVSPost2010Prop28
280
     0
102
RTVSPost2010PropOp28
 70
     1
102
RTVSPost2010Prop29
280
     1
102
RTVSPost2010PropOp29
 70
     1
102
RTVSPost2010Prop30
280
     1
102
RTVSPost2010PropOp30
 70
     1
102
RTVSPost2010Prop31
280
     0
102
RTVSPost2010PropOp31
 70
     1
102
RTVSPost2010Prop32
280
     0
102
RTVSPost2010PropOp32
 70
     1
102
RTVSPost2010Prop33
280
     0
102
RTVSPost2010PropOp33
 70
     1
102
RTVSPost2010Prop34
280
     0
102
RTVSPost2010PropOp34
 70
     1
102
RTVSPost2010Prop35
280
     0
102
RTVSPost2010PropOp35
 70
     1
102
RTVSPost2010Prop36
280
     0
102
RTVSPost2010PropOp36
 70
     1
102
RTVSPost2010Prop37
 90
       50
102
RTVSPost2010PropOp37
 70
     1
102
RTVSPost2010Prop38
140
0.0
102
RTVSPost2010PropOp38
 70
     1
102
RTVSPost2010Prop39
140
1.0
102
RTVSPost2010PropOp39
 70
     1
102
RTVSPost2010Prop40
 90
        0
102
RTVSPost2010PropOp40
 70
     1
102
RTVSPost2010Prop41ColorIndex
 90
       18
102
RTVSPost2010Prop41ColorRGB
 90
        0
102
RTVSPost2010PropOp41
 70
     1
102
RTVSPost2010Prop42
 90
       50
102
RTVSPost2010PropOp42
 70
     1
102
RTVSPost2010Prop43
 90
        3
102
RTVSPost2010PropOp43
 70
     1
102
RTVSPost2010Prop44ColorIndex
 90
        5
102
RTVSPost2010Prop44ColorRGB
 90
      255
102
RTVSPost2010PropOp44
 70
     1
102
RTVSPost2010Prop45
280
     0
102
RTVSPost2010PropOp45
 70
     1
102
RTVSPost2010Prop46
 90
       50
102
RTVSPost2010PropOp46
 70
     1
102
RTVSPost2010Prop47
 90
       50
102
RTVSPost2010PropOp47
 70
     1
102
RTVSPost2010Prop48
 90
       50
102
RTVSPost2010PropOp48
 70
     1
102
RTVSPost2010Prop49
280
     0
102
RTVSPost2010PropOp49
 70
     1
102
RTVSPost2010Prop50
 90
       50
102
RTVSPost2010PropOp50
 70
     1
102
RTVSPost2010Prop51ColorIndex
 90
      256
102
RTVSPost2010Prop51ColorRGB
 90
-16777216
102
RTVSPost2010PropOp51
 70
     0
102
RTVSPost2010Prop52
140
1.0
102
RTVSPost2010PropOp52
 70
     0
102
RTVSPost2010Prop53
 90
        2
102
RTVSPost2010PropOp53
 70
     1
102
RTVSPost2010Prop54
  1
strokes_ogs.tif
102
RTVSPost2010PropOp54
 70
     1
102
RTVSPost2010Prop55
280
     0
102
RTVSPost2010PropOp55
 70
     1
102
RTVSPost2010Prop56
140
1.0
102
RTVSPost2010PropOp56
 70
     1
102
RTVSPost2010Prop57
140
1.0
102
RTVSPost2010PropOp57
 70
     1
102
RTVSPropertyOp0
 70
     1
102
RTVSPropertyOp1
 70
     1
102
RTVSPropertyOp2
 70
     1
102
RTVSPropertyOp3
 70
     1
102
RTVSPropertyOp4
 70
     1
102
RTVSPropertyOp5
 70
     1
102
RTVSPropertyOp6
 70
     1
102
RTVSPropertyOp7
 70
     1
102
RTVSPropertyOp8
 70
     1
102
RTVSPropertyOp9
 70
     1
102
RTVSPropertyOp10
 70
     1
102
RTVSPropertyOp11
 70
     1
102
RTVSPropertyOp12
 70
     1
102
RTVSPropertyOp13
 70
     1
102
RTVSPropertyOp14
 70
     1
102
RTVSPropertyOp15
 70
     1
102
RTVSPropertyOp16
 70
     1
102
RTVSPropertyOp17
 70
     1
102
RTVSPropertyOp18
 70
     1
102
RTVSPropertyOp19
 70
     1
102
RTVSPropertyOp20
 70
     1
102
RTVSPropertyOp21
 70
     1
102
RTVSPropertyOp22
 70
     1
102
RTVSPropertyOp23
 70
     1
102
RTVSPropertyOp24
 70
     1
102
RTVSPropertyOp25
 70
     1
102
RTVSPropertyOp26
 70
     1
102
RTVSPropertyOp27
 70
     1
102
RTVSPropertyOp28
 70
     1
102
RTVSPropertyOp29
 70
     1
102
RTVSPropertyOp30
 70
     1
102
RTVSPropertyOp31
 70
     1
102
RTVSPropertyOp32
 70
     1
102
RTVSPropertyOp33
 70
     1
102
RTVSPropertyOp34
 70
     1
102
RTVSPropertyOp35
 70
     1
102
RTVSPropertyOp36
 70
     1
102
RTVSPropertyOp37
 70
     1
102
RTVSPropertyOp38
 70
     1
102
RTVSPropertyOp39
 70
     1
102
RTVSPropertyOp40
 70
     1
102
RTVSPropertyOp41
 70
     1
102
RTVSPropertyOp42
 70
     1
102
RTVSPropertyOp43
 70
     1
102
RTVSPropertyOp44
 70
     1
102
RTVSPropertyOp45
 70
     1
102
RTVSPropertyOp46
 70
     1
102
RTVSPropertyOp47
 70
     1
102
RTVSPropertyOp48
 70
     1
102
RTVSPropertyOp49
 70
     1
102
RTVSPropertyOp50
 70
     1
102
RTVSPropertyOp51
 70
     0
102
RTVSPropertyOp52
 70
     0
102
RTVSPropertyOp53
 70
     1
102
RTVSPropertyOp54
 70
     1
102
RTVSPropertyOp55
 70
     1
102
RTVSPropertyOp56
 70
     1
102
RTVSPropertyOp57
 70
     1
102
RTVSPropertyOp58
 70
     1
102
RTVSPropertyOp59
 70
     1
102
RTVSPropertyOp60
 70
     1
102
RTVSPropertyOp61
 70
     1
102
RTVSPropertyOp62
 70
     1
  0
XRECORD
  5
4D0
102
{ACAD_REACTORS
330
4CF
102
}
330
4CF
100
AcDbXrecord
280
     1
102
RTVSPost2010Prop28
280
     0
102
RTVSPost2010PropOp28
 70
     1
102
RTVSPost2010Prop29
280
     1
102
RTVSPost2010PropOp29
 70
     1
102
RTVSPost2010Prop30
280
     1
102
RTVSPost2010PropOp30
 70
     1
102
RTVSPost2010Prop31
280
     0
102
RTVSPost2010PropOp31
 70
     1
102
RTVSPost2010Prop32
280
     0
102
RTVSPost2010PropOp32
 70
     1
102
RTVSPost2010Prop33
280
     0
102
RTVSPost2010PropOp33
 70
     1
102
RTVSPost2010Prop34
280
     0
102
RTVSPost2010PropOp34
 70
     1
102
RTVSPost2010Prop35
280
     0
102
RTVSPost2010PropOp35
 70
     1
102
RTVSPost2010Prop36
280
     0
102
RTVSPost2010PropOp36
 70
     1
102
RTVSPost2010Prop37
 90
       50
102
RTVSPost2010PropOp37
 70
     1
102
RTVSPost2010Prop38
140
0.0
102
RTVSPost2010PropOp38
 70
     1
102
RTVSPost2010Prop39
140
1.0
102
RTVSPost2010PropOp39
 70
     1
102
RTVSPost2010Prop40
 90
        0
102
RTVSPost2010PropOp40
 70
     1
102
RTVSPost2010Prop41ColorIndex
 90
       18
102
RTVSPost2010Prop41ColorRGB
 90
        0
102
RTVSPost2010PropOp41
 70
     1
102
RTVSPost2010Prop42
 90
       50
102
RTVSPost2010PropOp42
 70
     1
102
RTVSPost2010Prop43
 90
        3
102
RTVSPost2010PropOp43
 70
     1
102
RTVSPost2010Prop44ColorIndex
 90
        5
102
RTVSPost2010Prop44ColorRGB
 90
      255
102
RTVSPost2010PropOp44
 70
     1
102
RTVSPost2010Prop45
280
     0
102
RTVSPost2010PropOp45
 70
     1
102
RTVSPost2010Prop46
 90
       50
102
RTVSPost2010PropOp46
 70
     1
102
RTVSPost2010Prop47
 90
       50
102
RTVSPost2010PropOp47
 70
     1
102
RTVSPost2010Prop48
 90
       50
102
RTVSPost2010PropOp48
 70
     1
102
RTVSPost2010Prop49
280
     0
102
RTVSPost2010PropOp49
 70
     1
102
RTVSPost2010Prop50
 90
       50
102
RTVSPost2010PropOp50
 70
     1
102
RTVSPost2010Prop51ColorIndex
 90
      256
102
RTVSPost2010Prop51ColorRGB
 90
-16777216
102
RTVSPost2010PropOp51
 70
     0
102
RTVSPost2010Prop52
140
1.0
102
RTVSPost2010PropOp52
 70
     0
102
RTVSPost2010Prop53
 90
        2
102
RTVSPost2010PropOp53
 70
     1
102
RTVSPost2010Prop54
  1
strokes_ogs.tif
102
RTVSPost2010PropOp54
 70
     1
102
RTVSPost2010Prop55
280
     0
102
RTVSPost2010PropOp55
 70
     1
102
RTVSPost2010Prop56
140
1.0
102
RTVSPost2010PropOp56
 70
     1
102
RTVSPost2010Prop57
140
1.0
102
RTVSPost2010PropOp57
 70
     1
102
RTVSPropertyOp0
 70
     1
102
RTVSPropertyOp1
 70
     1
102
RTVSPropertyOp2
 70
     1
102
RTVSPropertyOp3
 70
     1
102
RTVSPropertyOp4
 70
     1
102
RTVSPropertyOp5
 70
     1
102
RTVSPropertyOp6
 70
     1
102
RTVSPropertyOp7
 70
     1
102
RTVSPropertyOp8
 70
     1
102
RTVSPropertyOp9
 70
     1
102
RTVSPropertyOp10
 70
     1
102
RTVSPropertyOp11
 70
     1
102
RTVSPropertyOp12
 70
     1
102
RTVSPropertyOp13
 70
     1
102
RTVSPropertyOp14
 70
     1
102
RTVSPropertyOp15
 70
     1
102
RTVSPropertyOp16
 70
     1
102
RTVSPropertyOp17
 70
     1
102
RTVSPropertyOp18
 70
     1
102
RTVSPropertyOp19
 70
     1
102
RTVSPropertyOp20
 70
     1
102
RTVSPropertyOp21
 70
     1
102
RTVSPropertyOp22
 70
     1
102
RTVSPropertyOp23
 70
     1
102
RTVSPropertyOp24
 70
     1
102
RTVSPropertyOp25
 70
     1
102
RTVSPropertyOp26
 70
     1
102
RTVSPropertyOp27
 70
     1
102
RTVSPropertyOp28
 70
     1
102
RTVSPropertyOp29
 70
     1
102
RTVSPropertyOp30
 70
     1
102
RTVSPropertyOp31
 70
     1
102
RTVSPropertyOp32
 70
     1
102
RTVSPropertyOp33
 70
     1
102
RTVSPropertyOp34
 70
     1
102
RTVSPropertyOp35
 70
     1
102
RTVSPropertyOp36
 70
     1
102
RTVSPropertyOp37
 70
     1
102
RTVSPropertyOp38
 70
     1
102
RTVSPropertyOp39
 70
     1
102
RTVSPropertyOp40
 70
     1
102
RTVSPropertyOp41
 70
     1
102
RTVSPropertyOp42
 70
     1
102
RTVSPropertyOp43
 70
     1
102
RTVSPropertyOp44
 70
     1
102
RTVSPropertyOp45
 70
     1
102
RTVSPropertyOp46
 70
     1
102
RTVSPropertyOp47
 70
     1
102
RTVSPropertyOp48
 70
     1
102
RTVSPropertyOp49
 70
     1
102
RTVSPropertyOp50
 70
     1
102
RTVSPropertyOp51
 70
     0
102
RTVSPropertyOp52
 70
     0
102
RTVSPropertyOp53
 70
     1
102
RTVSPropertyOp54
 70
     1
102
RTVSPropertyOp55
 70
     1
102
RTVSPropertyOp56
 70
     1
102
RTVSPropertyOp57
 70
     1
102
RTVSPropertyOp58
 70
     1
102
RTVSPropertyOp59
 70
     1
102
RTVSPropertyOp60
 70
     1
102
RTVSPropertyOp61
 70
     1
102
RTVSPropertyOp62
 70
     1
  0
XRECORD
  5
4D2
102
{ACAD_REACTORS
330
4D1
102
}
330
4D1
100
AcDbXrecord
280
     1
102
RTVSPost2010Prop28
280
     0
102
RTVSPost2010PropOp28
 70
     1
102
RTVSPost2010Prop29
280
     1
102
RTVSPost2010PropOp29
 70
     1
102
RTVSPost2010Prop30
280
     1
102
RTVSPost2010PropOp30
 70
     1
102
RTVSPost2010Prop31
280
     0
102
RTVSPost2010PropOp31
 70
     1
102
RTVSPost2010Prop32
280
     0
102
RTVSPost2010PropOp32
 70
     1
102
RTVSPost2010Prop33
280
     0
102
RTVSPost2010PropOp33
 70
     1
102
RTVSPost2010Prop34
280
     0
102
RTVSPost2010PropOp34
 70
     1
102
RTVSPost2010Prop35
280
     0
102
RTVSPost2010PropOp35
 70
     1
102
RTVSPost2010Prop36
280
     0
102
RTVSPost2010PropOp36
 70
     1
102
RTVSPost2010Prop37
 90
       50
102
RTVSPost2010PropOp37
 70
     1
102
RTVSPost2010Prop38
140
0.0
102
RTVSPost2010PropOp38
 70
     1
102
RTVSPost2010Prop39
140
1.0
102
RTVSPost2010PropOp39
 70
     1
102
RTVSPost2010Prop40
 90
        0
102
RTVSPost2010PropOp40
 70
     1
102
RTVSPost2010Prop41ColorIndex
 90
       18
102
RTVSPost2010Prop41ColorRGB
 90
        0
102
RTVSPost2010PropOp41
 70
     1
102
RTVSPost2010Prop42
 90
       50
102
RTVSPost2010PropOp42
 70
     1
102
RTVSPost2010Prop43
 90
        3
102
RTVSPost2010PropOp43
 70
     1
102
RTVSPost2010Prop44ColorIndex
 90
        5
102
RTVSPost2010Prop44ColorRGB
 90
      255
102
RTVSPost2010PropOp44
 70
     1
102
RTVSPost2010Prop45
280
     0
102
RTVSPost2010PropOp45
 70
     1
102
RTVSPost2010Prop46
 90
       50
102
RTVSPost2010PropOp46
 70
     1
102
RTVSPost2010Prop47
 90
       50
102
RTVSPost2010PropOp47
 70
     1
102
RTVSPost2010Prop48
 90
       50
102
RTVSPost2010PropOp48
 70
     1
102
RTVSPost2010Prop49
280
     0
102
RTVSPost2010PropOp49
 70
     1
102
RTVSPost2010Prop50
 90
       50
102
RTVSPost2010PropOp50
 70
     1
102
RTVSPost2010Prop51ColorIndex
 90
      256
102
RTVSPost2010Prop51ColorRGB
 90
-16777216
102
RTVSPost2010PropOp51
 70
     0
102
RTVSPost2010Prop52
140
1.0
102
RTVSPost2010PropOp52
 70
     0
102
RTVSPost2010Prop53
 90
        2
102
RTVSPost2010PropOp53
 70
     1
102
RTVSPost2010Prop54
  1
strokes_ogs.tif
102
RTVSPost2010PropOp54
 70
     1
102
RTVSPost2010Prop55
280
     0
102
RTVSPost2010PropOp55
 70
     1
102
RTVSPost2010Prop56
140
1.0
102
RTVSPost2010PropOp56
 70
     1
102
RTVSPost2010Prop57
140
1.0
102
RTVSPost2010PropOp57
 70
     1
102
RTVSPropertyOp0
 70
     1
102
RTVSPropertyOp1
 70
     1
102
RTVSPropertyOp2
 70
     1
102
RTVSPropertyOp3
 70
     1
102
RTVSPropertyOp4
 70
     1
102
RTVSPropertyOp5
 70
     1
102
RTVSPropertyOp6
 70
     1
102
RTVSPropertyOp7
 70
     1
102
RTVSPropertyOp8
 70
     1
102
RTVSPropertyOp9
 70
     1
102
RTVSPropertyOp10
 70
     1
102
RTVSPropertyOp11
 70
     1
102
RTVSPropertyOp12
 70
     1
102
RTVSPropertyOp13
 70
     1
102
RTVSPropertyOp14
 70
     1
102
RTVSPropertyOp15
 70
     1
102
RTVSPropertyOp16
 70
     1
102
RTVSPropertyOp17
 70
     1
102
RTVSPropertyOp18
 70
     1
102
RTVSPropertyOp19
 70
     1
102
RTVSPropertyOp20
 70
     1
102
RTVSPropertyOp21
 70
     1
102
RTVSPropertyOp22
 70
     1
102
RTVSPropertyOp23
 70
     1
102
RTVSPropertyOp24
 70
     1
102
RTVSPropertyOp25
 70
     1
102
RTVSPropertyOp26
 70
     1
102
RTVSPropertyOp27
 70
     1
102
RTVSPropertyOp28
 70
     1
102
RTVSPropertyOp29
 70
     1
102
RTVSPropertyOp30
 70
     1
102
RTVSPropertyOp31
 70
     1
102
RTVSPropertyOp32
 70
     1
102
RTVSPropertyOp33
 70
     1
102
RTVSPropertyOp34
 70
     1
102
RTVSPropertyOp35
 70
     1
102
RTVSPropertyOp36
 70
     1
102
RTVSPropertyOp37
 70
     1
102
RTVSPropertyOp38
 70
     1
102
RTVSPropertyOp39
 70
     1
102
RTVSPropertyOp40
 70
     1
102
RTVSPropertyOp41
 70
     1
102
RTVSPropertyOp42
 70
     1
102
RTVSPropertyOp43
 70
     1
102
RTVSPropertyOp44
 70
     1
102
RTVSPropertyOp45
 70
     1
102
RTVSPropertyOp46
 70
     1
102
RTVSPropertyOp47
 70
     1
102
RTVSPropertyOp48
 70
     1
102
RTVSPropertyOp49
 70
     1
102
RTVSPropertyOp50
 70
     1
102
RTVSPropertyOp51
 70
     0
102
RTVSPropertyOp52
 70
     0
102
RTVSPropertyOp53
 70
     1
102
RTVSPropertyOp54
 70
     1
102
RTVSPropertyOp55
 70
     1
102
RTVSPropertyOp56
 70
     1
102
RTVSPropertyOp57
 70
     1
102
RTVSPropertyOp58
 70
     1
102
RTVSPropertyOp59
 70
     1
102
RTVSPropertyOp60
 70
     1
102
RTVSPropertyOp61
 70
     1
102
RTVSPropertyOp62
 70
     1
  0
XRECORD
  5
4DA
102
{ACAD_REACTORS
330
4D9
102
}
330
4D9
100
AcDbXrecord
280
     1
102
RTVSPost2010Prop28
280
     0
102
RTVSPost2010PropOp28
 70
     1
102
RTVSPost2010Prop29
280
     1
102
RTVSPost2010PropOp29
 70
     1
102
RTVSPost2010Prop30
280
     1
102
RTVSPost2010PropOp30
 70
     1
102
RTVSPost2010Prop31
280
     0
102
RTVSPost2010PropOp31
 70
     1
102
RTVSPost2010Prop32
280
     0
102
RTVSPost2010PropOp32
 70
     1
102
RTVSPost2010Prop33
280
     0
102
RTVSPost2010PropOp33
 70
     1
102
RTVSPost2010Prop34
280
     0
102
RTVSPost2010PropOp34
 70
     1
102
RTVSPost2010Prop35
280
     0
102
RTVSPost2010PropOp35
 70
     1
102
RTVSPost2010Prop36
280
     0
102
RTVSPost2010PropOp36
 70
     1
102
RTVSPost2010Prop37
 90
       50
102
RTVSPost2010PropOp37
 70
     1
102
RTVSPost2010Prop38
140
0.0
102
RTVSPost2010PropOp38
 70
     1
102
RTVSPost2010Prop39
140
1.0
102
RTVSPost2010PropOp39
 70
     1
102
RTVSPost2010Prop40
 90
        0
102
RTVSPost2010PropOp40
 70
     1
102
RTVSPost2010Prop41ColorIndex
 90
       18
102
RTVSPost2010Prop41ColorRGB
 90
        0
102
RTVSPost2010PropOp41
 70
     1
102
RTVSPost2010Prop42
 90
       50
102
RTVSPost2010PropOp42
 70
     1
102
RTVSPost2010Prop43
 90
        3
102
RTVSPost2010PropOp43
 70
     1
102
RTVSPost2010Prop44ColorIndex
 90
        5
102
RTVSPost2010Prop44ColorRGB
 90
      255
102
RTVSPost2010PropOp44
 70
     1
102
RTVSPost2010Prop45
280
     0
102
RTVSPost2010PropOp45
 70
     1
102
RTVSPost2010Prop46
 90
       50
102
RTVSPost2010PropOp46
 70
     1
102
RTVSPost2010Prop47
 90
       50
102
RTVSPost2010PropOp47
 70
     1
102
RTVSPost2010Prop48
 90
       50
102
RTVSPost2010PropOp48
 70
     1
102
RTVSPost2010Prop49
280
     0
102
RTVSPost2010PropOp49
 70
     1
102
RTVSPost2010Prop50
 90
       50
102
RTVSPost2010PropOp50
 70
     1
102
RTVSPost2010Prop51ColorIndex
 90
      256
102
RTVSPost2010Prop51ColorRGB
 90
-16777216
102
RTVSPost2010PropOp51
 70
     0
102
RTVSPost2010Prop52
140
1.0
102
RTVSPost2010PropOp52
 70
     0
102
RTVSPost2010Prop53
 90
        2
102
RTVSPost2010PropOp53
 70
     1
102
RTVSPost2010Prop54
  1
strokes_ogs.tif
102
RTVSPost2010PropOp54
 70
     1
102
RTVSPost2010Prop55
280
     0
102
RTVSPost2010PropOp55
 70
     1
102
RTVSPost2010Prop56
140
1.0
102
RTVSPost2010PropOp56
 70
     1
102
RTVSPost2010Prop57
140
1.0
102
RTVSPost2010PropOp57
 70
     1
102
RTVSPropertyOp0
 70
     1
102
RTVSPropertyOp1
 70
     1
102
RTVSPropertyOp2
 70
     1
102
RTVSPropertyOp3
 70
     1
102
RTVSPropertyOp4
 70
     1
102
RTVSPropertyOp5
 70
     1
102
RTVSPropertyOp6
 70
     1
102
RTVSPropertyOp7
 70
     1
102
RTVSPropertyOp8
 70
     1
102
RTVSPropertyOp9
 70
     1
102
RTVSPropertyOp10
 70
     1
102
RTVSPropertyOp11
 70
     1
102
RTVSPropertyOp12
 70
     1
102
RTVSPropertyOp13
 70
     1
102
RTVSPropertyOp14
 70
     1
102
RTVSPropertyOp15
 70
     1
102
RTVSPropertyOp16
 70
     1
102
RTVSPropertyOp17
 70
     1
102
RTVSPropertyOp18
 70
     1
102
RTVSPropertyOp19
 70
     1
102
RTVSPropertyOp20
 70
     1
102
RTVSPropertyOp21
 70
     1
102
RTVSPropertyOp22
 70
     1
102
RTVSPropertyOp23
 70
     1
102
RTVSPropertyOp24
 70
     1
102
RTVSPropertyOp25
 70
     1
102
RTVSPropertyOp26
 70
     1
102
RTVSPropertyOp27
 70
     1
102
RTVSPropertyOp28
 70
     1
102
RTVSPropertyOp29
 70
     1
102
RTVSPropertyOp30
 70
     1
102
RTVSPropertyOp31
 70
     1
102
RTVSPropertyOp32
 70
     1
102
RTVSPropertyOp33
 70
     1
102
RTVSPropertyOp34
 70
     1
102
RTVSPropertyOp35
 70
     1
102
RTVSPropertyOp36
 70
     1
102
RTVSPropertyOp37
 70
     1
102
RTVSPropertyOp38
 70
     1
102
RTVSPropertyOp39
 70
     1
102
RTVSPropertyOp40
 70
     1
102
RTVSPropertyOp41
 70
     1
102
RTVSPropertyOp42
 70
     1
102
RTVSPropertyOp43
 70
     1
102
RTVSPropertyOp44
 70
     1
102
RTVSPropertyOp45
 70
     1
102
RTVSPropertyOp46
 70
     1
102
RTVSPropertyOp47
 70
     1
102
RTVSPropertyOp48
 70
     1
102
RTVSPropertyOp49
 70
     1
102
RTVSPropertyOp50
 70
     1
102
RTVSPropertyOp51
 70
     0
102
RTVSPropertyOp52
 70
     0
102
RTVSPropertyOp53
 70
     1
102
RTVSPropertyOp54
 70
     1
102
RTVSPropertyOp55
 70
     1
102
RTVSPropertyOp56
 70
     1
102
RTVSPropertyOp57
 70
     1
102
RTVSPropertyOp58
 70
     1
102
RTVSPropertyOp59
 70
     1
102
RTVSPropertyOp60
 70
     1
102
RTVSPropertyOp61
 70
     1
102
RTVSPropertyOp62
 70
     1
  0
XRECORD
  5
4F6
102
{ACAD_REACTORS
330
4F5
102
}
330
4F5
100
AcDbXrecord
280
     1
102
RTVSPost2010Prop28
280
     0
102
RTVSPost2010PropOp28
 70
     1
102
RTVSPost2010Prop29
280
     1
102
RTVSPost2010PropOp29
 70
     1
102
RTVSPost2010Prop30
280
     1
102
RTVSPost2010PropOp30
 70
     1
102
RTVSPost2010Prop31
280
     0
102
RTVSPost2010PropOp31
 70
     1
102
RTVSPost2010Prop32
280
     0
102
RTVSPost2010PropOp32
 70
     1
102
RTVSPost2010Prop33
280
     0
102
RTVSPost2010PropOp33
 70
     1
102
RTVSPost2010Prop34
280
     0
102
RTVSPost2010PropOp34
 70
     1
102
RTVSPost2010Prop35
280
     0
102
RTVSPost2010PropOp35
 70
     1
102
RTVSPost2010Prop36
280
     0
102
RTVSPost2010PropOp36
 70
     1
102
RTVSPost2010Prop37
 90
       50
102
RTVSPost2010PropOp37
 70
     0
102
RTVSPost2010Prop38
140
0.0
102
RTVSPost2010PropOp38
 70
     0
102
RTVSPost2010Prop39
140
1.0
102
RTVSPost2010PropOp39
 70
     0
102
RTVSPost2010Prop40
 90
        0
102
RTVSPost2010PropOp40
 70
     0
102
RTVSPost2010Prop41ColorIndex
 90
       18
102
RTVSPost2010Prop41ColorRGB
 90
        0
102
RTVSPost2010PropOp41
 70
     0
102
RTVSPost2010Prop42
 90
       50
102
RTVSPost2010PropOp42
 70
     0
102
RTVSPost2010Prop43
 90
        3
102
RTVSPost2010PropOp43
 70
     0
102
RTVSPost2010Prop44ColorIndex
 90
        5
102
RTVSPost2010Prop44ColorRGB
 90
      255
102
RTVSPost2010PropOp44
 70
     0
102
RTVSPost2010Prop45
280
     0
102
RTVSPost2010PropOp45
 70
     1
102
RTVSPost2010Prop46
 90
       50
102
RTVSPost2010PropOp46
 70
     0
102
RTVSPost2010Prop47
 90
       50
102
RTVSPost2010PropOp47
 70
     0
102
RTVSPost2010Prop48
 90
       50
102
RTVSPost2010PropOp48
 70
     0
102
RTVSPost2010Prop49
280
     0
102
RTVSPost2010PropOp49
 70
     1
102
RTVSPost2010Prop50
 90
       50
102
RTVSPost2010PropOp50
 70
     0
102
RTVSPost2010Prop51ColorIndex
 90
      256
102
RTVSPost2010Prop51ColorRGB
 90
-16777216
102
RTVSPost2010PropOp51
 70
     0
102
RTVSPost2010Prop52
140
1.0
102
RTVSPost2010PropOp52
 70
     0
102
RTVSPost2010Prop53
 90
        2
102
RTVSPost2010PropOp53
 70
     0
102
RTVSPost2010Prop54
  1
strokes_ogs.tif
102
RTVSPost2010PropOp54
 70
     0
102
RTVSPost2010Prop55
280
     0
102
RTVSPost2010PropOp55
 70
     1
102
RTVSPost2010Prop56
140
1.0
102
RTVSPost2010PropOp56
 70
     0
102
RTVSPost2010Prop57
140
1.0
102
RTVSPost2010PropOp57
 70
     0
102
RTVSPropertyOp0
 70
     0
102
RTVSPropertyOp1
 70
     0
102
RTVSPropertyOp2
 70
     0
102
RTVSPropertyOp3
 70
     0
102
RTVSPropertyOp4
 70
     0
102
RTVSPropertyOp5
 70
     0
102
RTVSPropertyOp6
 70
     0
102
RTVSPropertyOp7
 70
     0
102
RTVSPropertyOp8
 70
     0
102
RTVSPropertyOp9
 70
     0
102
RTVSPropertyOp10
 70
     0
102
RTVSPropertyOp11
 70
     0
102
RTVSPropertyOp12
 70
     0
102
RTVSPropertyOp13
 70
     0
102
RTVSPropertyOp14
 70
     2
102
RTVSPropertyOp15
 70
     0
102
RTVSPropertyOp16
 70
     0
102
RTVSPropertyOp17
 70
     0
102
RTVSPropertyOp18
 70
     0
102
RTVSPropertyOp19
 70
     0
102
RTVSPropertyOp20
 70
     0
102
RTVSPropertyOp21
 70
     0
102
RTVSPropertyOp22
 70
     0
102
RTVSPropertyOp23
 70
     0
102
RTVSPropertyOp24
 70
     0
102
RTVSPropertyOp25
 70
     0
102
RTVSPropertyOp26
 70
     0
102
RTVSPropertyOp27
 70
     0
102
RTVSPropertyOp28
 70
     1
102
RTVSPropertyOp29
 70
     1
102
RTVSPropertyOp30
 70
     1
102
RTVSPropertyOp31
 70
     1
102
RTVSPropertyOp32
 70
     1
102
RTVSPropertyOp33
 70
     1
102
RTVSPropertyOp34
 70
     1
102
RTVSPropertyOp35
 70
     1
102
RTVSPropertyOp36
 70
     1
102
RTVSPropertyOp37
 70
     0
102
RTVSPropertyOp38
 70
     0
102
RTVSPropertyOp39
 70
     0
102
RTVSPropertyOp40
 70
     0
102
RTVSPropertyOp41
 70
     0
102
RTVSPropertyOp42
 70
     0
102
RTVSPropertyOp43
 70
     0
102
RTVSPropertyOp44
 70
     0
102
RTVSPropertyOp45
 70
     1
102
RTVSPropertyOp46
 70
     0
102
RTVSPropertyOp47
 70
     0
102
RTVSPropertyOp48
 70
     0
102
RTVSPropertyOp49
 70
     1
102
RTVSPropertyOp50
 70
     0
102
RTVSPropertyOp51
 70
     0
102
RTVSPropertyOp52
 70
     0
102
RTVSPropertyOp53
 70
     0
102
RTVSPropertyOp54
 70
     0
102
RTVSPropertyOp55
 70
     1
102
RTVSPropertyOp56
 70
     0
102
RTVSPropertyOp57
 70
     0
102
RTVSPropertyOp58
 70
     0
102
RTVSPropertyOp59
 70
     0
102
RTVSPropertyOp60
 70
     0
102
RTVSPropertyOp61
 70
     0
102
RTVSPropertyOp62
 70
     0
  0
XRECORD
  5
4E6
102
{ACAD_REACTORS
330
4E5
102
}
330
4E5
100
AcDbXrecord
280
     1
102
RTVSPost2010Prop28
280
     0
102
RTVSPost2010PropOp28
 70
     1
102
RTVSPost2010Prop29
280
     1
102
RTVSPost2010PropOp29
 70
     1
102
RTVSPost2010Prop30
280
     1
102
RTVSPost2010PropOp30
 70
     1
102
RTVSPost2010Prop31
280
     0
102
RTVSPost2010PropOp31
 70
     1
102
RTVSPost2010Prop32
280
     0
102
RTVSPost2010PropOp32
 70
     1
102
RTVSPost2010Prop33
280
     0
102
RTVSPost2010PropOp33
 70
     1
102
RTVSPost2010Prop34
280
     0
102
RTVSPost2010PropOp34
 70
     1
102
RTVSPost2010Prop35
280
     0
102
RTVSPost2010PropOp35
 70
     1
102
RTVSPost2010Prop36
280
     0
102
RTVSPost2010PropOp36
 70
     1
102
RTVSPost2010Prop37
 90
       50
102
RTVSPost2010PropOp37
 70
     1
102
RTVSPost2010Prop38
140
0.0
102
RTVSPost2010PropOp38
 70
     1
102
RTVSPost2010Prop39
140
1.0
102
RTVSPost2010PropOp39
 70
     1
102
RTVSPost2010Prop40
 90
        0
102
RTVSPost2010PropOp40
 70
     1
102
RTVSPost2010Prop41ColorIndex
 90
       18
102
RTVSPost2010Prop41ColorRGB
 90
        0
102
RTVSPost2010PropOp41
 70
     1
102
RTVSPost2010Prop42
 90
       50
102
RTVSPost2010PropOp42
 70
     1
102
RTVSPost2010Prop43
 90
        3
102
RTVSPost2010PropOp43
 70
     1
102
RTVSPost2010Prop44ColorIndex
 90
        5
102
RTVSPost2010Prop44ColorRGB
 90
      255
102
RTVSPost2010PropOp44
 70
     1
102
RTVSPost2010Prop45
280
     0
102
RTVSPost2010PropOp45
 70
     1
102
RTVSPost2010Prop46
 90
       50
102
RTVSPost2010PropOp46
 70
     1
102
RTVSPost2010Prop47
 90
       50
102
RTVSPost2010PropOp47
 70
     1
102
RTVSPost2010Prop48
 90
       50
102
RTVSPost2010PropOp48
 70
     1
102
RTVSPost2010Prop49
280
     0
102
RTVSPost2010PropOp49
 70
     1
102
RTVSPost2010Prop50
 90
       50
102
RTVSPost2010PropOp50
 70
     1
102
RTVSPost2010Prop51ColorIndex
 90
      256
102
RTVSPost2010Prop51ColorRGB
 90
-16777216
102
RTVSPost2010PropOp51
 70
     0
102
RTVSPost2010Prop52
140
1.0
102
RTVSPost2010PropOp52
 70
     0
102
RTVSPost2010Prop53
 90
        2
102
RTVSPost2010PropOp53
 70
     1
102
RTVSPost2010Prop54
  1
strokes_ogs.tif
102
RTVSPost2010PropOp54
 70
     1
102
RTVSPost2010Prop55
280
     0
102
RTVSPost2010PropOp55
 70
     1
102
RTVSPost2010Prop56
140
1.0
102
RTVSPost2010PropOp56
 70
     1
102
RTVSPost2010Prop57
140
1.0
102
RTVSPost2010PropOp57
 70
     1
102
RTVSPropertyOp0
 70
     1
102
RTVSPropertyOp1
 70
     1
102
RTVSPropertyOp2
 70
     1
102
RTVSPropertyOp3
 70
     1
102
RTVSPropertyOp4
 70
     1
102
RTVSPropertyOp5
 70
     1
102
RTVSPropertyOp6
 70
     1
102
RTVSPropertyOp7
 70
     1
102
RTVSPropertyOp8
 70
     1
102
RTVSPropertyOp9
 70
     1
102
RTVSPropertyOp10
 70
     1
102
RTVSPropertyOp11
 70
     1
102
RTVSPropertyOp12
 70
     1
102
RTVSPropertyOp13
 70
     1
102
RTVSPropertyOp14
 70
     1
102
RTVSPropertyOp15
 70
     1
102
RTVSPropertyOp16
 70
     1
102
RTVSPropertyOp17
 70
     1
102
RTVSPropertyOp18
 70
     1
102
RTVSPropertyOp19
 70
     1
102
RTVSPropertyOp20
 70
     1
102
RTVSPropertyOp21
 70
     1
102
RTVSPropertyOp22
 70
     1
102
RTVSPropertyOp23
 70
     1
102
RTVSPropertyOp24
 70
     1
102
RTVSPropertyOp25
 70
     1
102
RTVSPropertyOp26
 70
     1
102
RTVSPropertyOp27
 70
     1
102
RTVSPropertyOp28
 70
     1
102
RTVSPropertyOp29
 70
     1
102
RTVSPropertyOp30
 70
     1
102
RTVSPropertyOp31
 70
     1
102
RTVSPropertyOp32
 70
     1
102
RTVSPropertyOp33
 70
     1
102
RTVSPropertyOp34
 70
     1
102
RTVSPropertyOp35
 70
     1
102
RTVSPropertyOp36
 70
     1
102
RTVSPropertyOp37
 70
     1
102
RTVSPropertyOp38
 70
     1
102
RTVSPropertyOp39
 70
     1
102
RTVSPropertyOp40
 70
     1
102
RTVSPropertyOp41
 70
     1
102
RTVSPropertyOp42
 70
     1
102
RTVSPropertyOp43
 70
     1
102
RTVSPropertyOp44
 70
     1
102
RTVSPropertyOp45
 70
     1
102
RTVSPropertyOp46
 70
     1
102
RTVSPropertyOp47
 70
     1
102
RTVSPropertyOp48
 70
     1
102
RTVSPropertyOp49
 70
     1
102
RTVSPropertyOp50
 70
     1
102
RTVSPropertyOp51
 70
     0
102
RTVSPropertyOp52
 70
     0
102
RTVSPropertyOp53
 70
     1
102
RTVSPropertyOp54
 70
     1
102
RTVSPropertyOp55
 70
     1
102
RTVSPropertyOp56
 70
     1
102
RTVSPropertyOp57
 70
     1
102
RTVSPropertyOp58
 70
     1
102
RTVSPropertyOp59
 70
     1
102
RTVSPropertyOp60
 70
     1
102
RTVSPropertyOp61
 70
     1
102
RTVSPropertyOp62
 70
     1
  0
XRECORD
  5
4F8
102
{ACAD_REACTORS
330
4F7
102
}
330
4F7
100
AcDbXrecord
280
     1
102
RTVSPost2010Prop28
280
     0
102
RTVSPost2010PropOp28
 70
     1
102
RTVSPost2010Prop29
280
     1
102
RTVSPost2010PropOp29
 70
     1
102
RTVSPost2010Prop30
280
     1
102
RTVSPost2010PropOp30
 70
     1
102
RTVSPost2010Prop31
280
     0
102
RTVSPost2010PropOp31
 70
     1
102
RTVSPost2010Prop32
280
     0
102
RTVSPost2010PropOp32
 70
     1
102
RTVSPost2010Prop33
280
     0
102
RTVSPost2010PropOp33
 70
     1
102
RTVSPost2010Prop34
280
     0
102
RTVSPost2010PropOp34
 70
     1
102
RTVSPost2010Prop35
280
     0
102
RTVSPost2010PropOp35
 70
     1
102
RTVSPost2010Prop36
280
     0
102
RTVSPost2010PropOp36
 70
     1
102
RTVSPost2010Prop37
 90
       50
102
RTVSPost2010PropOp37
 70
     0
102
RTVSPost2010Prop38
140
0.0
102
RTVSPost2010PropOp38
 70
     0
102
RTVSPost2010Prop39
140
1.0
102
RTVSPost2010PropOp39
 70
     0
102
RTVSPost2010Prop40
 90
        0
102
RTVSPost2010PropOp40
 70
     0
102
RTVSPost2010Prop41ColorIndex
 90
       18
102
RTVSPost2010Prop41ColorRGB
 90
        0
102
RTVSPost2010PropOp41
 70
     0
102
RTVSPost2010Prop42
 90
       50
102
RTVSPost2010PropOp42
 70
     0
102
RTVSPost2010Prop43
 90
        3
102
RTVSPost2010PropOp43
 70
     0
102
RTVSPost2010Prop44ColorIndex
 90
        5
102
RTVSPost2010Prop44ColorRGB
 90
      255
102
RTVSPost2010PropOp44
 70
     0
102
RTVSPost2010Prop45
280
     0
102
RTVSPost2010PropOp45
 70
     1
102
RTVSPost2010Prop46
 90
       50
102
RTVSPost2010PropOp46
 70
     0
102
RTVSPost2010Prop47
 90
       50
102
RTVSPost2010PropOp47
 70
     0
102
RTVSPost2010Prop48
 90
       50
102
RTVSPost2010PropOp48
 70
     0
102
RTVSPost2010Prop49
280
     0
102
RTVSPost2010PropOp49
 70
     1
102
RTVSPost2010Prop50
 90
       50
102
RTVSPost2010PropOp50
 70
     0
102
RTVSPost2010Prop51ColorIndex
 90
      256
102
RTVSPost2010Prop51ColorRGB
 90
-16777216
102
RTVSPost2010PropOp51
 70
     0
102
RTVSPost2010Prop52
140
1.0
102
RTVSPost2010PropOp52
 70
     0
102
RTVSPost2010Prop53
 90
        2
102
RTVSPost2010PropOp53
 70
     0
102
RTVSPost2010Prop54
  1
strokes_ogs.tif
102
RTVSPost2010PropOp54
 70
     0
102
RTVSPost2010Prop55
280
     0
102
RTVSPost2010PropOp55
 70
     1
102
RTVSPost2010Prop56
140
1.0
102
RTVSPost2010PropOp56
 70
     0
102
RTVSPost2010Prop57
140
1.0
102
RTVSPost2010PropOp57
 70
     0
102
RTVSPropertyOp0
 70
     0
102
RTVSPropertyOp1
 70
     0
102
RTVSPropertyOp2
 70
     0
102
RTVSPropertyOp3
 70
     0
102
RTVSPropertyOp4
 70
     0
102
RTVSPropertyOp5
 70
     0
102
RTVSPropertyOp6
 70
     0
102
RTVSPropertyOp7
 70
     0
102
RTVSPropertyOp8
 70
     0
102
RTVSPropertyOp9
 70
     0
102
RTVSPropertyOp10
 70
     0
102
RTVSPropertyOp11
 70
     0
102
RTVSPropertyOp12
 70
     0
102
RTVSPropertyOp13
 70
     0
102
RTVSPropertyOp14
 70
     2
102
RTVSPropertyOp15
 70
     0
102
RTVSPropertyOp16
 70
     0
102
RTVSPropertyOp17
 70
     0
102
RTVSPropertyOp18
 70
     0
102
RTVSPropertyOp19
 70
     0
102
RTVSPropertyOp20
 70
     0
102
RTVSPropertyOp21
 70
     0
102
RTVSPropertyOp22
 70
     0
102
RTVSPropertyOp23
 70
     0
102
RTVSPropertyOp24
 70
     0
102
RTVSPropertyOp25
 70
     0
102
RTVSPropertyOp26
 70
     0
102
RTVSPropertyOp27
 70
     0
102
RTVSPropertyOp28
 70
     1
102
RTVSPropertyOp29
 70
     1
102
RTVSPropertyOp30
 70
     1
102
RTVSPropertyOp31
 70
     1
102
RTVSPropertyOp32
 70
     1
102
RTVSPropertyOp33
 70
     1
102
RTVSPropertyOp34
 70
     1
102
RTVSPropertyOp35
 70
     1
102
RTVSPropertyOp36
 70
     1
102
RTVSPropertyOp37
 70
     0
102
RTVSPropertyOp38
 70
     0
102
RTVSPropertyOp39
 70
     0
102
RTVSPropertyOp40
 70
     0
102
RTVSPropertyOp41
 70
     0
102
RTVSPropertyOp42
 70
     0
102
RTVSPropertyOp43
 70
     0
102
RTVSPropertyOp44
 70
     0
102
RTVSPropertyOp45
 70
     1
102
RTVSPropertyOp46
 70
     0
102
RTVSPropertyOp47
 70
     0
102
RTVSPropertyOp48
 70
     0
102
RTVSPropertyOp49
 70
     1
102
RTVSPropertyOp50
 70
     0
102
RTVSPropertyOp51
 70
     0
102
RTVSPropertyOp52
 70
     0
102
RTVSPropertyOp53
 70
     0
102
RTVSPropertyOp54
 70
     0
102
RTVSPropertyOp55
 70
     1
102
RTVSPropertyOp56
 70
     0
102
RTVSPropertyOp57
 70
     0
102
RTVSPropertyOp58
 70
     0
102
RTVSPropertyOp59
 70
     0
102
RTVSPropertyOp60
 70
     0
102
RTVSPropertyOp61
 70
     0
102
RTVSPropertyOp62
 70
     0
  0
XRECORD
  5
4DE
102
{ACAD_REACTORS
330
4DD
102
}
330
4DD
100
AcDbXrecord
280
     1
102
RTVSPost2010Prop28
280
     0
102
RTVSPost2010PropOp28
 70
     1
102
RTVSPost2010Prop29
280
     1
102
RTVSPost2010PropOp29
 70
     1
102
RTVSPost2010Prop30
280
     1
102
RTVSPost2010PropOp30
 70
     1
102
RTVSPost2010Prop31
280
     0
102
RTVSPost2010PropOp31
 70
     1
102
RTVSPost2010Prop32
280
     0
102
RTVSPost2010PropOp32
 70
     1
102
RTVSPost2010Prop33
280
     0
102
RTVSPost2010PropOp33
 70
     1
102
RTVSPost2010Prop34
280
     0
102
RTVSPost2010PropOp34
 70
     1
102
RTVSPost2010Prop35
280
     0
102
RTVSPost2010PropOp35
 70
     1
102
RTVSPost2010Prop36
280
     0
102
RTVSPost2010PropOp36
 70
     1
102
RTVSPost2010Prop37
 90
       50
102
RTVSPost2010PropOp37
 70
     1
102
RTVSPost2010Prop38
140
0.0
102
RTVSPost2010PropOp38
 70
     1
102
RTVSPost2010Prop39
140
1.0
102
RTVSPost2010PropOp39
 70
     1
102
RTVSPost2010Prop40
 90
        0
102
RTVSPost2010PropOp40
 70
     1
102
RTVSPost2010Prop41ColorIndex
 90
       18
102
RTVSPost2010Prop41ColorRGB
 90
        0
102
RTVSPost2010PropOp41
 70
     1
102
RTVSPost2010Prop42
 90
       50
102
RTVSPost2010PropOp42
 70
     1
102
RTVSPost2010Prop43
 90
        3
102
RTVSPost2010PropOp43
 70
     1
102
RTVSPost2010Prop44ColorIndex
 90
        5
102
RTVSPost2010Prop44ColorRGB
 90
      255
102
RTVSPost2010PropOp44
 70
     1
102
RTVSPost2010Prop45
280
     0
102
RTVSPost2010PropOp45
 70
     1
102
RTVSPost2010Prop46
 90
       50
102
RTVSPost2010PropOp46
 70
     1
102
RTVSPost2010Prop47
 90
       50
102
RTVSPost2010PropOp47
 70
     1
102
RTVSPost2010Prop48
 90
       50
102
RTVSPost2010PropOp48
 70
     1
102
RTVSPost2010Prop49
280
     0
102
RTVSPost2010PropOp49
 70
     1
102
RTVSPost2010Prop50
 90
       50
102
RTVSPost2010PropOp50
 70
     1
102
RTVSPost2010Prop51ColorIndex
 90
      256
102
RTVSPost2010Prop51ColorRGB
 90
-16777216
102
RTVSPost2010PropOp51
 70
     0
102
RTVSPost2010Prop52
140
1.0
102
RTVSPost2010PropOp52
 70
     0
102
RTVSPost2010Prop53
 90
        2
102
RTVSPost2010PropOp53
 70
     1
102
RTVSPost2010Prop54
  1
strokes_ogs.tif
102
RTVSPost2010PropOp54
 70
     1
102
RTVSPost2010Prop55
280
     0
102
RTVSPost2010PropOp55
 70
     1
102
RTVSPost2010Prop56
140
1.0
102
RTVSPost2010PropOp56
 70
     1
102
RTVSPost2010Prop57
140
1.0
102
RTVSPost2010PropOp57
 70
     1
102
RTVSPropertyOp0
 70
     1
102
RTVSPropertyOp1
 70
     1
102
RTVSPropertyOp2
 70
     1
102
RTVSPropertyOp3
 70
     1
102
RTVSPropertyOp4
 70
     1
102
RTVSPropertyOp5
 70
     1
102
RTVSPropertyOp6
 70
     1
102
RTVSPropertyOp7
 70
     1
102
RTVSPropertyOp8
 70
     1
102
RTVSPropertyOp9
 70
     1
102
RTVSPropertyOp10
 70
     1
102
RTVSPropertyOp11
 70
     1
102
RTVSPropertyOp12
 70
     1
102
RTVSPropertyOp13
 70
     1
102
RTVSPropertyOp14
 70
     1
102
RTVSPropertyOp15
 70
     1
102
RTVSPropertyOp16
 70
     1
102
RTVSPropertyOp17
 70
     1
102
RTVSPropertyOp18
 70
     1
102
RTVSPropertyOp19
 70
     1
102
RTVSPropertyOp20
 70
     1
102
RTVSPropertyOp21
 70
     1
102
RTVSPropertyOp22
 70
     1
102
RTVSPropertyOp23
 70
     1
102
RTVSPropertyOp24
 70
     1
102
RTVSPropertyOp25
 70
     1
102
RTVSPropertyOp26
 70
     1
102
RTVSPropertyOp27
 70
     1
102
RTVSPropertyOp28
 70
     1
102
RTVSPropertyOp29
 70
     1
102
RTVSPropertyOp30
 70
     1
102
RTVSPropertyOp31
 70
     1
102
RTVSPropertyOp32
 70
     1
102
RTVSPropertyOp33
 70
     1
102
RTVSPropertyOp34
 70
     1
102
RTVSPropertyOp35
 70
     1
102
RTVSPropertyOp36
 70
     1
102
RTVSPropertyOp37
 70
     1
102
RTVSPropertyOp38
 70
     1
102
RTVSPropertyOp39
 70
     1
102
RTVSPropertyOp40
 70
     1
102
RTVSPropertyOp41
 70
     1
102
RTVSPropertyOp42
 70
     1
102
RTVSPropertyOp43
 70
     1
102
RTVSPropertyOp44
 70
     1
102
RTVSPropertyOp45
 70
     1
102
RTVSPropertyOp46
 70
     1
102
RTVSPropertyOp47
 70
     1
102
RTVSPropertyOp48
 70
     1
102
RTVSPropertyOp49
 70
     1
102
RTVSPropertyOp50
 70
     1
102
RTVSPropertyOp51
 70
     0
102
RTVSPropertyOp52
 70
     0
102
RTVSPropertyOp53
 70
     1
102
RTVSPropertyOp54
 70
     1
102
RTVSPropertyOp55
 70
     1
102
RTVSPropertyOp56
 70
     1
102
RTVSPropertyOp57
 70
     1
102
RTVSPropertyOp58
 70
     1
102
RTVSPropertyOp59
 70
     1
102
RTVSPropertyOp60
 70
     1
102
RTVSPropertyOp61
 70
     1
102
RTVSPropertyOp62
 70
     1
  0
XRECORD
  5
4F4
102
{ACAD_REACTORS
330
4F3
102
}
330
4F3
100
AcDbXrecord
280
     1
102
RTVSPost2010Prop28
280
     0
102
RTVSPost2010PropOp28
 70
     1
102
RTVSPost2010Prop29
280
     1
102
RTVSPost2010PropOp29
 70
     1
102
RTVSPost2010Prop30
280
     1
102
RTVSPost2010PropOp30
 70
     1
102
RTVSPost2010Prop31
280
     0
102
RTVSPost2010PropOp31
 70
     1
102
RTVSPost2010Prop32
280
     0
102
RTVSPost2010PropOp32
 70
     1
102
RTVSPost2010Prop33
280
     0
102
RTVSPost2010PropOp33
 70
     1
102
RTVSPost2010Prop34
280
     0
102
RTVSPost2010PropOp34
 70
     1
102
RTVSPost2010Prop35
280
     0
102
RTVSPost2010PropOp35
 70
     1
102
RTVSPost2010Prop36
280
     0
102
RTVSPost2010PropOp36
 70
     1
102
RTVSPost2010Prop37
 90
       50
102
RTVSPost2010PropOp37
 70
     1
102
RTVSPost2010Prop38
140
0.0
102
RTVSPost2010PropOp38
 70
     1
102
RTVSPost2010Prop39
140
1.0
102
RTVSPost2010PropOp39
 70
     1
102
RTVSPost2010Prop40
 90
        0
102
RTVSPost2010PropOp40
 70
     1
102
RTVSPost2010Prop41ColorIndex
 90
       18
102
RTVSPost2010Prop41ColorRGB
 90
        0
102
RTVSPost2010PropOp41
 70
     1
102
RTVSPost2010Prop42
 90
       50
102
RTVSPost2010PropOp42
 70
     1
102
RTVSPost2010Prop43
 90
        3
102
RTVSPost2010PropOp43
 70
     1
102
RTVSPost2010Prop44ColorIndex
 90
        5
102
RTVSPost2010Prop44ColorRGB
 90
      255
102
RTVSPost2010PropOp44
 70
     1
102
RTVSPost2010Prop45
280
     0
102
RTVSPost2010PropOp45
 70
     1
102
RTVSPost2010Prop46
 90
       50
102
RTVSPost2010PropOp46
 70
     1
102
RTVSPost2010Prop47
 90
       50
102
RTVSPost2010PropOp47
 70
     1
102
RTVSPost2010Prop48
 90
       50
102
RTVSPost2010PropOp48
 70
     1
102
RTVSPost2010Prop49
280
     0
102
RTVSPost2010PropOp49
 70
     1
102
RTVSPost2010Prop50
 90
       50
102
RTVSPost2010PropOp50
 70
     1
102
RTVSPost2010Prop51ColorIndex
 90
      256
102
RTVSPost2010Prop51ColorRGB
 90
-16777216
102
RTVSPost2010PropOp51
 70
     0
102
RTVSPost2010Prop52
140
1.0
102
RTVSPost2010PropOp52
 70
     0
102
RTVSPost2010Prop53
 90
        2
102
RTVSPost2010PropOp53
 70
     1
102
RTVSPost2010Prop54
  1
strokes_ogs.tif
102
RTVSPost2010PropOp54
 70
     1
102
RTVSPost2010Prop55
280
     0
102
RTVSPost2010PropOp55
 70
     1
102
RTVSPost2010Prop56
140
1.0
102
RTVSPost2010PropOp56
 70
     1
102
RTVSPost2010Prop57
140
1.0
102
RTVSPost2010PropOp57
 70
     1
102
RTVSPropertyOp0
 70
     1
102
RTVSPropertyOp1
 70
     1
102
RTVSPropertyOp2
 70
     1
102
RTVSPropertyOp3
 70
     1
102
RTVSPropertyOp4
 70
     1
102
RTVSPropertyOp5
 70
     1
102
RTVSPropertyOp6
 70
     1
102
RTVSPropertyOp7
 70
     1
102
RTVSPropertyOp8
 70
     1
102
RTVSPropertyOp9
 70
     1
102
RTVSPropertyOp10
 70
     1
102
RTVSPropertyOp11
 70
     1
102
RTVSPropertyOp12
 70
     1
102
RTVSPropertyOp13
 70
     1
102
RTVSPropertyOp14
 70
     1
102
RTVSPropertyOp15
 70
     1
102
RTVSPropertyOp16
 70
     1
102
RTVSPropertyOp17
 70
     1
102
RTVSPropertyOp18
 70
     1
102
RTVSPropertyOp19
 70
     1
102
RTVSPropertyOp20
 70
     1
102
RTVSPropertyOp21
 70
     1
102
RTVSPropertyOp22
 70
     1
102
RTVSPropertyOp23
 70
     1
102
RTVSPropertyOp24
 70
     1
102
RTVSPropertyOp25
 70
     1
102
RTVSPropertyOp26
 70
     1
102
RTVSPropertyOp27
 70
     1
102
RTVSPropertyOp28
 70
     1
102
RTVSPropertyOp29
 70
     1
102
RTVSPropertyOp30
 70
     1
102
RTVSPropertyOp31
 70
     1
102
RTVSPropertyOp32
 70
     1
102
RTVSPropertyOp33
 70
     1
102
RTVSPropertyOp34
 70
     1
102
RTVSPropertyOp35
 70
     1
102
RTVSPropertyOp36
 70
     1
102
RTVSPropertyOp37
 70
     1
102
RTVSPropertyOp38
 70
     1
102
RTVSPropertyOp39
 70
     1
102
RTVSPropertyOp40
 70
     1
102
RTVSPropertyOp41
 70
     1
102
RTVSPropertyOp42
 70
     1
102
RTVSPropertyOp43
 70
     1
102
RTVSPropertyOp44
 70
     1
102
RTVSPropertyOp45
 70
     1
102
RTVSPropertyOp46
 70
     1
102
RTVSPropertyOp47
 70
     1
102
RTVSPropertyOp48
 70
     1
102
RTVSPropertyOp49
 70
     1
102
RTVSPropertyOp50
 70
     1
102
RTVSPropertyOp51
 70
     0
102
RTVSPropertyOp52
 70
     0
102
RTVSPropertyOp53
 70
     1
102
RTVSPropertyOp54
 70
     1
102
RTVSPropertyOp55
 70
     1
102
RTVSPropertyOp56
 70
     1
102
RTVSPropertyOp57
 70
     1
102
RTVSPropertyOp58
 70
     1
102
RTVSPropertyOp59
 70
     1
102
RTVSPropertyOp60
 70
     1
102
RTVSPropertyOp61
 70
     1
102
RTVSPropertyOp62
 70
     1
  0
XRECORD
  5
4F2
102
{ACAD_REACTORS
330
4F1
102
}
330
4F1
100
AcDbXrecord
280
     1
102
RTVSPost2010Prop28
280
     0
102
RTVSPost2010PropOp28
 70
     1
102
RTVSPost2010Prop29
280
     1
102
RTVSPost2010PropOp29
 70
     1
102
RTVSPost2010Prop30
280
     1
102
RTVSPost2010PropOp30
 70
     1
102
RTVSPost2010Prop31
280
     0
102
RTVSPost2010PropOp31
 70
     1
102
RTVSPost2010Prop32
280
     0
102
RTVSPost2010PropOp32
 70
     1
102
RTVSPost2010Prop33
280
     0
102
RTVSPost2010PropOp33
 70
     1
102
RTVSPost2010Prop34
280
     0
102
RTVSPost2010PropOp34
 70
     1
102
RTVSPost2010Prop35
280
     0
102
RTVSPost2010PropOp35
 70
     1
102
RTVSPost2010Prop36
280
     0
102
RTVSPost2010PropOp36
 70
     1
102
RTVSPost2010Prop37
 90
       50
102
RTVSPost2010PropOp37
 70
     1
102
RTVSPost2010Prop38
140
0.0
102
RTVSPost2010PropOp38
 70
     1
102
RTVSPost2010Prop39
140
1.0
102
RTVSPost2010PropOp39
 70
     1
102
RTVSPost2010Prop40
 90
        0
102
RTVSPost2010PropOp40
 70
     1
102
RTVSPost2010Prop41ColorIndex
 90
       18
102
RTVSPost2010Prop41ColorRGB
 90
        0
102
RTVSPost2010PropOp41
 70
     1
102
RTVSPost2010Prop42
 90
       50
102
RTVSPost2010PropOp42
 70
     1
102
RTVSPost2010Prop43
 90
        3
102
RTVSPost2010PropOp43
 70
     1
102
RTVSPost2010Prop44ColorIndex
 90
        5
102
RTVSPost2010Prop44ColorRGB
 90
      255
102
RTVSPost2010PropOp44
 70
     1
102
RTVSPost2010Prop45
280
     0
102
RTVSPost2010PropOp45
 70
     1
102
RTVSPost2010Prop46
 90
       50
102
RTVSPost2010PropOp46
 70
     1
102
RTVSPost2010Prop47
 90
       50
102
RTVSPost2010PropOp47
 70
     1
102
RTVSPost2010Prop48
 90
       50
102
RTVSPost2010PropOp48
 70
     1
102
RTVSPost2010Prop49
280
     0
102
RTVSPost2010PropOp49
 70
     1
102
RTVSPost2010Prop50
 90
       50
102
RTVSPost2010PropOp50
 70
     1
102
RTVSPost2010Prop51ColorIndex
 90
      256
102
RTVSPost2010Prop51ColorRGB
 90
-16777216
102
RTVSPost2010PropOp51
 70
     0
102
RTVSPost2010Prop52
140
1.0
102
RTVSPost2010PropOp52
 70
     0
102
RTVSPost2010Prop53
 90
        2
102
RTVSPost2010PropOp53
 70
     1
102
RTVSPost2010Prop54
  1
strokes_ogs.tif
102
RTVSPost2010PropOp54
 70
     1
102
RTVSPost2010Prop55
280
     0
102
RTVSPost2010PropOp55
 70
     1
102
RTVSPost2010Prop56
140
1.0
102
RTVSPost2010PropOp56
 70
     1
102
RTVSPost2010Prop57
140
1.0
102
RTVSPost2010PropOp57
 70
     1
102
RTVSPropertyOp0
 70
     1
102
RTVSPropertyOp1
 70
     1
102
RTVSPropertyOp2
 70
     1
102
RTVSPropertyOp3
 70
     1
102
RTVSPropertyOp4
 70
     1
102
RTVSPropertyOp5
 70
     1
102
RTVSPropertyOp6
 70
     1
102
RTVSPropertyOp7
 70
     1
102
RTVSPropertyOp8
 70
     1
102
RTVSPropertyOp9
 70
     1
102
RTVSPropertyOp10
 70
     1
102
RTVSPropertyOp11
 70
     1
102
RTVSPropertyOp12
 70
     1
102
RTVSPropertyOp13
 70
     1
102
RTVSPropertyOp14
 70
     1
102
RTVSPropertyOp15
 70
     1
102
RTVSPropertyOp16
 70
     1
102
RTVSPropertyOp17
 70
     1
102
RTVSPropertyOp18
 70
     1
102
RTVSPropertyOp19
 70
     1
102
RTVSPropertyOp20
 70
     1
102
RTVSPropertyOp21
 70
     1
102
RTVSPropertyOp22
 70
     1
102
RTVSPropertyOp23
 70
     1
102
RTVSPropertyOp24
 70
     1
102
RTVSPropertyOp25
 70
     1
102
RTVSPropertyOp26
 70
     1
102
RTVSPropertyOp27
 70
     1
102
RTVSPropertyOp28
 70
     1
102
RTVSPropertyOp29
 70
     1
102
RTVSPropertyOp30
 70
     1
102
RTVSPropertyOp31
 70
     1
102
RTVSPropertyOp32
 70
     1
102
RTVSPropertyOp33
 70
     1
102
RTVSPropertyOp34
 70
     1
102
RTVSPropertyOp35
 70
     1
102
RTVSPropertyOp36
 70
     1
102
RTVSPropertyOp37
 70
     1
102
RTVSPropertyOp38
 70
     1
102
RTVSPropertyOp39
 70
     1
102
RTVSPropertyOp40
 70
     1
102
RTVSPropertyOp41
 70
     1
102
RTVSPropertyOp42
 70
     1
102
RTVSPropertyOp43
 70
     1
102
RTVSPropertyOp44
 70
     1
102
RTVSPropertyOp45
 70
     1
102
RTVSPropertyOp46
 70
     1
102
RTVSPropertyOp47
 70
     1
102
RTVSPropertyOp48
 70
     1
102
RTVSPropertyOp49
 70
     1
102
RTVSPropertyOp50
 70
     1
102
RTVSPropertyOp51
 70
     0
102
RTVSPropertyOp52
 70
     0
102
RTVSPropertyOp53
 70
     1
102
RTVSPropertyOp54
 70
     1
102
RTVSPropertyOp55
 70
     1
102
RTVSPropertyOp56
 70
     1
102
RTVSPropertyOp57
 70
     1
102
RTVSPropertyOp58
 70
     1
102
RTVSPropertyOp59
 70
     1
102
RTVSPropertyOp60
 70
     1
102
RTVSPropertyOp61
 70
     1
102
RTVSPropertyOp62
 70
     1
  0
XRECORD
  5
4EC
102
{ACAD_REACTORS
330
4EB
102
}
330
4EB
100
AcDbXrecord
280
     1
102
RTVSPost2010Prop28
280
     0
102
RTVSPost2010PropOp28
 70
     1
102
RTVSPost2010Prop29
280
     1
102
RTVSPost2010PropOp29
 70
     1
102
RTVSPost2010Prop30
280
     1
102
RTVSPost2010PropOp30
 70
     1
102
RTVSPost2010Prop31
280
     0
102
RTVSPost2010PropOp31
 70
     1
102
RTVSPost2010Prop32
280
     0
102
RTVSPost2010PropOp32
 70
     1
102
RTVSPost2010Prop33
280
     0
102
RTVSPost2010PropOp33
 70
     1
102
RTVSPost2010Prop34
280
     0
102
RTVSPost2010PropOp34
 70
     1
102
RTVSPost2010Prop35
280
     0
102
RTVSPost2010PropOp35
 70
     1
102
RTVSPost2010Prop36
280
     0
102
RTVSPost2010PropOp36
 70
     1
102
RTVSPost2010Prop37
 90
       50
102
RTVSPost2010PropOp37
 70
     1
102
RTVSPost2010Prop38
140
0.0
102
RTVSPost2010PropOp38
 70
     1
102
RTVSPost2010Prop39
140
1.0
102
RTVSPost2010PropOp39
 70
     1
102
RTVSPost2010Prop40
 90
        0
102
RTVSPost2010PropOp40
 70
     1
102
RTVSPost2010Prop41ColorIndex
 90
       18
102
RTVSPost2010Prop41ColorRGB
 90
        0
102
RTVSPost2010PropOp41
 70
     1
102
RTVSPost2010Prop42
 90
       50
102
RTVSPost2010PropOp42
 70
     1
102
RTVSPost2010Prop43
 90
        3
102
RTVSPost2010PropOp43
 70
     1
102
RTVSPost2010Prop44ColorIndex
 90
        5
102
RTVSPost2010Prop44ColorRGB
 90
      255
102
RTVSPost2010PropOp44
 70
     1
102
RTVSPost2010Prop45
280
     0
102
RTVSPost2010PropOp45
 70
     1
102
RTVSPost2010Prop46
 90
       50
102
RTVSPost2010PropOp46
 70
     1
102
RTVSPost2010Prop47
 90
       50
102
RTVSPost2010PropOp47
 70
     1
102
RTVSPost2010Prop48
 90
       50
102
RTVSPost2010PropOp48
 70
     1
102
RTVSPost2010Prop49
280
     0
102
RTVSPost2010PropOp49
 70
     1
102
RTVSPost2010Prop50
 90
       50
102
RTVSPost2010PropOp50
 70
     1
102
RTVSPost2010Prop51ColorIndex
 90
      256
102
RTVSPost2010Prop51ColorRGB
 90
-16777216
102
RTVSPost2010PropOp51
 70
     0
102
RTVSPost2010Prop52
140
1.0
102
RTVSPost2010PropOp52
 70
     0
102
RTVSPost2010Prop53
 90
        2
102
RTVSPost2010PropOp53
 70
     1
102
RTVSPost2010Prop54
  1
strokes_ogs.tif
102
RTVSPost2010PropOp54
 70
     1
102
RTVSPost2010Prop55
280
     0
102
RTVSPost2010PropOp55
 70
     1
102
RTVSPost2010Prop56
140
1.0
102
RTVSPost2010PropOp56
 70
     1
102
RTVSPost2010Prop57
140
1.0
102
RTVSPost2010PropOp57
 70
     1
102
RTVSPropertyOp0
 70
     1
102
RTVSPropertyOp1
 70
     1
102
RTVSPropertyOp2
 70
     1
102
RTVSPropertyOp3
 70
     1
102
RTVSPropertyOp4
 70
     1
102
RTVSPropertyOp5
 70
     1
102
RTVSPropertyOp6
 70
     1
102
RTVSPropertyOp7
 70
     1
102
RTVSPropertyOp8
 70
     1
102
RTVSPropertyOp9
 70
     1
102
RTVSPropertyOp10
 70
     1
102
RTVSPropertyOp11
 70
     1
102
RTVSPropertyOp12
 70
     1
102
RTVSPropertyOp13
 70
     1
102
RTVSPropertyOp14
 70
     1
102
RTVSPropertyOp15
 70
     1
102
RTVSPropertyOp16
 70
     1
102
RTVSPropertyOp17
 70
     1
102
RTVSPropertyOp18
 70
     1
102
RTVSPropertyOp19
 70
     1
102
RTVSPropertyOp20
 70
     1
102
RTVSPropertyOp21
 70
     1
102
RTVSPropertyOp22
 70
     1
102
RTVSPropertyOp23
 70
     1
102
RTVSPropertyOp24
 70
     1
102
RTVSPropertyOp25
 70
     1
102
RTVSPropertyOp26
 70
     1
102
RTVSPropertyOp27
 70
     1
102
RTVSPropertyOp28
 70
     1
102
RTVSPropertyOp29
 70
     1
102
RTVSPropertyOp30
 70
     1
102
RTVSPropertyOp31
 70
     1
102
RTVSPropertyOp32
 70
     1
102
RTVSPropertyOp33
 70
     1
102
RTVSPropertyOp34
 70
     1
102
RTVSPropertyOp35
 70
     1
102
RTVSPropertyOp36
 70
     1
102
RTVSPropertyOp37
 70
     1
102
RTVSPropertyOp38
 70
     1
102
RTVSPropertyOp39
 70
     1
102
RTVSPropertyOp40
 70
     1
102
RTVSPropertyOp41
 70
     1
102
RTVSPropertyOp42
 70
     1
102
RTVSPropertyOp43
 70
     1
102
RTVSPropertyOp44
 70
     1
102
RTVSPropertyOp45
 70
     1
102
RTVSPropertyOp46
 70
     1
102
RTVSPropertyOp47
 70
     1
102
RTVSPropertyOp48
 70
     1
102
RTVSPropertyOp49
 70
     1
102
RTVSPropertyOp50
 70
     1
102
RTVSPropertyOp51
 70
     0
102
RTVSPropertyOp52
 70
     0
102
RTVSPropertyOp53
 70
     1
102
RTVSPropertyOp54
 70
     1
102
RTVSPropertyOp55
 70
     1
102
RTVSPropertyOp56
 70
     1
102
RTVSPropertyOp57
 70
     1
102
RTVSPropertyOp58
 70
     1
102
RTVSPropertyOp59
 70
     1
102
RTVSPropertyOp60
 70
     1
102
RTVSPropertyOp61
 70
     1
102
RTVSPropertyOp62
 70
     1
  0
XRECORD
  5
4EE
102
{ACAD_REACTORS
330
4ED
102
}
330
4ED
100
AcDbXrecord
280
     1
102
RTVSPost2010Prop28
280
     0
102
RTVSPost2010PropOp28
 70
     1
102
RTVSPost2010Prop29
280
     1
102
RTVSPost2010PropOp29
 70
     1
102
RTVSPost2010Prop30
280
     1
102
RTVSPost2010PropOp30
 70
     1
102
RTVSPost2010Prop31
280
     0
102
RTVSPost2010PropOp31
 70
     1
102
RTVSPost2010Prop32
280
     0
102
RTVSPost2010PropOp32
 70
     1
102
RTVSPost2010Prop33
280
     0
102
RTVSPost2010PropOp33
 70
     1
102
RTVSPost2010Prop34
280
     0
102
RTVSPost2010PropOp34
 70
     1
102
RTVSPost2010Prop35
280
     0
102
RTVSPost2010PropOp35
 70
     1
102
RTVSPost2010Prop36
280
     0
102
RTVSPost2010PropOp36
 70
     1
102
RTVSPost2010Prop37
 90
       50
102
RTVSPost2010PropOp37
 70
     1
102
RTVSPost2010Prop38
140
0.0
102
RTVSPost2010PropOp38
 70
     1
102
RTVSPost2010Prop39
140
1.0
102
RTVSPost2010PropOp39
 70
     1
102
RTVSPost2010Prop40
 90
        0
102
RTVSPost2010PropOp40
 70
     1
102
RTVSPost2010Prop41ColorIndex
 90
       18
102
RTVSPost2010Prop41ColorRGB
 90
        0
102
RTVSPost2010PropOp41
 70
     1
102
RTVSPost2010Prop42
 90
       50
102
RTVSPost2010PropOp42
 70
     1
102
RTVSPost2010Prop43
 90
        3
102
RTVSPost2010PropOp43
 70
     1
102
RTVSPost2010Prop44ColorIndex
 90
        5
102
RTVSPost2010Prop44ColorRGB
 90
      255
102
RTVSPost2010PropOp44
 70
     1
102
RTVSPost2010Prop45
280
     0
102
RTVSPost2010PropOp45
 70
     1
102
RTVSPost2010Prop46
 90
       50
102
RTVSPost2010PropOp46
 70
     1
102
RTVSPost2010Prop47
 90
       50
102
RTVSPost2010PropOp47
 70
     1
102
RTVSPost2010Prop48
 90
       50
102
RTVSPost2010PropOp48
 70
     1
102
RTVSPost2010Prop49
280
     0
102
RTVSPost2010PropOp49
 70
     1
102
RTVSPost2010Prop50
 90
       50
102
RTVSPost2010PropOp50
 70
     1
102
RTVSPost2010Prop51ColorIndex
 90
      256
102
RTVSPost2010Prop51ColorRGB
 90
-16777216
102
RTVSPost2010PropOp51
 70
     0
102
RTVSPost2010Prop52
140
1.0
102
RTVSPost2010PropOp52
 70
     0
102
RTVSPost2010Prop53
 90
        2
102
RTVSPost2010PropOp53
 70
     1
102
RTVSPost2010Prop54
  1
strokes_ogs.tif
102
RTVSPost2010PropOp54
 70
     1
102
RTVSPost2010Prop55
280
     0
102
RTVSPost2010PropOp55
 70
     1
102
RTVSPost2010Prop56
140
1.0
102
RTVSPost2010PropOp56
 70
     1
102
RTVSPost2010Prop57
140
1.0
102
RTVSPost2010PropOp57
 70
     1
102
RTVSPropertyOp0
 70
     1
102
RTVSPropertyOp1
 70
     1
102
RTVSPropertyOp2
 70
     1
102
RTVSPropertyOp3
 70
     1
102
RTVSPropertyOp4
 70
     1
102
RTVSPropertyOp5
 70
     1
102
RTVSPropertyOp6
 70
     1
102
RTVSPropertyOp7
 70
     1
102
RTVSPropertyOp8
 70
     1
102
RTVSPropertyOp9
 70
     1
102
RTVSPropertyOp10
 70
     1
102
RTVSPropertyOp11
 70
     1
102
RTVSPropertyOp12
 70
     1
102
RTVSPropertyOp13
 70
     1
102
RTVSPropertyOp14
 70
     1
102
RTVSPropertyOp15
 70
     1
102
RTVSPropertyOp16
 70
     1
102
RTVSPropertyOp17
 70
     1
102
RTVSPropertyOp18
 70
     1
102
RTVSPropertyOp19
 70
     1
102
RTVSPropertyOp20
 70
     1
102
RTVSPropertyOp21
 70
     1
102
RTVSPropertyOp22
 70
     1
102
RTVSPropertyOp23
 70
     1
102
RTVSPropertyOp24
 70
     1
102
RTVSPropertyOp25
 70
     1
102
RTVSPropertyOp26
 70
     1
102
RTVSPropertyOp27
 70
     1
102
RTVSPropertyOp28
 70
     1
102
RTVSPropertyOp29
 70
     1
102
RTVSPropertyOp30
 70
     1
102
RTVSPropertyOp31
 70
     1
102
RTVSPropertyOp32
 70
     1
102
RTVSPropertyOp33
 70
     1
102
RTVSPropertyOp34
 70
     1
102
RTVSPropertyOp35
 70
     1
102
RTVSPropertyOp36
 70
     1
102
RTVSPropertyOp37
 70
     1
102
RTVSPropertyOp38
 70
     1
102
RTVSPropertyOp39
 70
     1
102
RTVSPropertyOp40
 70
     1
102
RTVSPropertyOp41
 70
     1
102
RTVSPropertyOp42
 70
     1
102
RTVSPropertyOp43
 70
     1
102
RTVSPropertyOp44
 70
     1
102
RTVSPropertyOp45
 70
     1
102
RTVSPropertyOp46
 70
     1
102
RTVSPropertyOp47
 70
     1
102
RTVSPropertyOp48
 70
     1
102
RTVSPropertyOp49
 70
     1
102
RTVSPropertyOp50
 70
     1
102
RTVSPropertyOp51
 70
     0
102
RTVSPropertyOp52
 70
     0
102
RTVSPropertyOp53
 70
     1
102
RTVSPropertyOp54
 70
     1
102
RTVSPropertyOp55
 70
     1
102
RTVSPropertyOp56
 70
     1
102
RTVSPropertyOp57
 70
     1
102
RTVSPropertyOp58
 70
     1
102
RTVSPropertyOp59
 70
     1
102
RTVSPropertyOp60
 70
     1
102
RTVSPropertyOp61
 70
     1
102
RTVSPropertyOp62
 70
     1
  0
XRECORD
  5
4E4
102
{ACAD_REACTORS
330
4E3
102
}
330
4E3
100
AcDbXrecord
280
     1
102
RTVSPost2010Prop28
280
     0
102
RTVSPost2010PropOp28
 70
     1
102
RTVSPost2010Prop29
280
     1
102
RTVSPost2010PropOp29
 70
     1
102
RTVSPost2010Prop30
280
     1
102
RTVSPost2010PropOp30
 70
     1
102
RTVSPost2010Prop31
280
     0
102
RTVSPost2010PropOp31
 70
     1
102
RTVSPost2010Prop32
280
     0
102
RTVSPost2010PropOp32
 70
     1
102
RTVSPost2010Prop33
280
     0
102
RTVSPost2010PropOp33
 70
     1
102
RTVSPost2010Prop34
280
     0
102
RTVSPost2010PropOp34
 70
     1
102
RTVSPost2010Prop35
280
     0
102
RTVSPost2010PropOp35
 70
     1
102
RTVSPost2010Prop36
280
     0
102
RTVSPost2010PropOp36
 70
     1
102
RTVSPost2010Prop37
 90
       50
102
RTVSPost2010PropOp37
 70
     1
102
RTVSPost2010Prop38
140
0.0
102
RTVSPost2010PropOp38
 70
     1
102
RTVSPost2010Prop39
140
1.0
102
RTVSPost2010PropOp39
 70
     1
102
RTVSPost2010Prop40
 90
        0
102
RTVSPost2010PropOp40
 70
     1
102
RTVSPost2010Prop41ColorIndex
 90
       18
102
RTVSPost2010Prop41ColorRGB
 90
        0
102
RTVSPost2010PropOp41
 70
     1
102
RTVSPost2010Prop42
 90
       50
102
RTVSPost2010PropOp42
 70
     1
102
RTVSPost2010Prop43
 90
        3
102
RTVSPost2010PropOp43
 70
     1
102
RTVSPost2010Prop44ColorIndex
 90
        5
102
RTVSPost2010Prop44ColorRGB
 90
      255
102
RTVSPost2010PropOp44
 70
     1
102
RTVSPost2010Prop45
280
     0
102
RTVSPost2010PropOp45
 70
     1
102
RTVSPost2010Prop46
 90
       50
102
RTVSPost2010PropOp46
 70
     1
102
RTVSPost2010Prop47
 90
       50
102
RTVSPost2010PropOp47
 70
     1
102
RTVSPost2010Prop48
 90
       50
102
RTVSPost2010PropOp48
 70
     1
102
RTVSPost2010Prop49
280
     0
102
RTVSPost2010PropOp49
 70
     1
102
RTVSPost2010Prop50
 90
       50
102
RTVSPost2010PropOp50
 70
     1
102
RTVSPost2010Prop51ColorIndex
 90
      256
102
RTVSPost2010Prop51ColorRGB
 90
-16777216
102
RTVSPost2010PropOp51
 70
     0
102
RTVSPost2010Prop52
140
1.0
102
RTVSPost2010PropOp52
 70
     0
102
RTVSPost2010Prop53
 90
        2
102
RTVSPost2010PropOp53
 70
     1
102
RTVSPost2010Prop54
  1
strokes_ogs.tif
102
RTVSPost2010PropOp54
 70
     1
102
RTVSPost2010Prop55
280
     0
102
RTVSPost2010PropOp55
 70
     1
102
RTVSPost2010Prop56
140
1.0
102
RTVSPost2010PropOp56
 70
     1
102
RTVSPost2010Prop57
140
1.0
102
RTVSPost2010PropOp57
 70
     1
102
RTVSPropertyOp0
 70
     1
102
RTVSPropertyOp1
 70
     1
102
RTVSPropertyOp2
 70
     1
102
RTVSPropertyOp3
 70
     1
102
RTVSPropertyOp4
 70
     1
102
RTVSPropertyOp5
 70
     1
102
RTVSPropertyOp6
 70
     1
102
RTVSPropertyOp7
 70
     1
102
RTVSPropertyOp8
 70
     1
102
RTVSPropertyOp9
 70
     1
102
RTVSPropertyOp10
 70
     1
102
RTVSPropertyOp11
 70
     1
102
RTVSPropertyOp12
 70
     1
102
RTVSPropertyOp13
 70
     1
102
RTVSPropertyOp14
 70
     1
102
RTVSPropertyOp15
 70
     1
102
RTVSPropertyOp16
 70
     1
102
RTVSPropertyOp17
 70
     1
102
RTVSPropertyOp18
 70
     1
102
RTVSPropertyOp19
 70
     1
102
RTVSPropertyOp20
 70
     1
102
RTVSPropertyOp21
 70
     1
102
RTVSPropertyOp22
 70
     1
102
RTVSPropertyOp23
 70
     1
102
RTVSPropertyOp24
 70
     1
102
RTVSPropertyOp25
 70
     1
102
RTVSPropertyOp26
 70
     1
102
RTVSPropertyOp27
 70
     1
102
RTVSPropertyOp28
 70
     1
102
RTVSPropertyOp29
 70
     1
102
RTVSPropertyOp30
 70
     1
102
RTVSPropertyOp31
 70
     1
102
RTVSPropertyOp32
 70
     1
102
RTVSPropertyOp33
 70
     1
102
RTVSPropertyOp34
 70
     1
102
RTVSPropertyOp35
 70
     1
102
RTVSPropertyOp36
 70
     1
102
RTVSPropertyOp37
 70
     1
102
RTVSPropertyOp38
 70
     1
102
RTVSPropertyOp39
 70
     1
102
RTVSPropertyOp40
 70
     1
102
RTVSPropertyOp41
 70
     1
102
RTVSPropertyOp42
 70
     1
102
RTVSPropertyOp43
 70
     1
102
RTVSPropertyOp44
 70
     1
102
RTVSPropertyOp45
 70
     1
102
RTVSPropertyOp46
 70
     1
102
RTVSPropertyOp47
 70
     1
102
RTVSPropertyOp48
 70
     1
102
RTVSPropertyOp49
 70
     1
102
RTVSPropertyOp50
 70
     1
102
RTVSPropertyOp51
 70
     0
102
RTVSPropertyOp52
 70
     0
102
RTVSPropertyOp53
 70
     1
102
RTVSPropertyOp54
 70
     1
102
RTVSPropertyOp55
 70
     1
102
RTVSPropertyOp56
 70
     1
102
RTVSPropertyOp57
 70
     1
102
RTVSPropertyOp58
 70
     1
102
RTVSPropertyOp59
 70
     1
102
RTVSPropertyOp60
 70
     1
102
RTVSPropertyOp61
 70
     1
102
RTVSPropertyOp62
 70
     1
  0
XRECORD
  5
4D8
102
{ACAD_REACTORS
330
4D7
102
}
330
4D7
100
AcDbXrecord
280
     1
102
RTVSPost2010Prop28
280
     0
102
RTVSPost2010PropOp28
 70
     1
102
RTVSPost2010Prop29
280
     1
102
RTVSPost2010PropOp29
 70
     1
102
RTVSPost2010Prop30
280
     1
102
RTVSPost2010PropOp30
 70
     1
102
RTVSPost2010Prop31
280
     0
102
RTVSPost2010PropOp31
 70
     1
102
RTVSPost2010Prop32
280
     0
102
RTVSPost2010PropOp32
 70
     1
102
RTVSPost2010Prop33
280
     0
102
RTVSPost2010PropOp33
 70
     1
102
RTVSPost2010Prop34
280
     0
102
RTVSPost2010PropOp34
 70
     1
102
RTVSPost2010Prop35
280
     0
102
RTVSPost2010PropOp35
 70
     1
102
RTVSPost2010Prop36
280
     0
102
RTVSPost2010PropOp36
 70
     1
102
RTVSPost2010Prop37
 90
       50
102
RTVSPost2010PropOp37
 70
     1
102
RTVSPost2010Prop38
140
0.0
102
RTVSPost2010PropOp38
 70
     1
102
RTVSPost2010Prop39
140
1.0
102
RTVSPost2010PropOp39
 70
     1
102
RTVSPost2010Prop40
 90
        0
102
RTVSPost2010PropOp40
 70
     1
102
RTVSPost2010Prop41ColorIndex
 90
       18
102
RTVSPost2010Prop41ColorRGB
 90
        0
102
RTVSPost2010PropOp41
 70
     1
102
RTVSPost2010Prop42
 90
       50
102
RTVSPost2010PropOp42
 70
     1
102
RTVSPost2010Prop43
 90
        3
102
RTVSPost2010PropOp43
 70
     1
102
RTVSPost2010Prop44ColorIndex
 90
        5
102
RTVSPost2010Prop44ColorRGB
 90
      255
102
RTVSPost2010PropOp44
 70
     1
102
RTVSPost2010Prop45
280
     0
102
RTVSPost2010PropOp45
 70
     1
102
RTVSPost2010Prop46
 90
       50
102
RTVSPost2010PropOp46
 70
     1
102
RTVSPost2010Prop47
 90
       50
102
RTVSPost2010PropOp47
 70
     1
102
RTVSPost2010Prop48
 90
       50
102
RTVSPost2010PropOp48
 70
     1
102
RTVSPost2010Prop49
280
     0
102
RTVSPost2010PropOp49
 70
     1
102
RTVSPost2010Prop50
 90
       50
102
RTVSPost2010PropOp50
 70
     1
102
RTVSPost2010Prop51ColorIndex
 90
      256
102
RTVSPost2010Prop51ColorRGB
 90
-16777216
102
RTVSPost2010PropOp51
 70
     0
102
RTVSPost2010Prop52
140
1.0
102
RTVSPost2010PropOp52
 70
     0
102
RTVSPost2010Prop53
 90
        2
102
RTVSPost2010PropOp53
 70
     1
102
RTVSPost2010Prop54
  1
strokes_ogs.tif
102
RTVSPost2010PropOp54
 70
     1
102
RTVSPost2010Prop55
280
     0
102
RTVSPost2010PropOp55
 70
     1
102
RTVSPost2010Prop56
140
1.0
102
RTVSPost2010PropOp56
 70
     1
102
RTVSPost2010Prop57
140
1.0
102
RTVSPost2010PropOp57
 70
     1
102
RTVSPropertyOp0
 70
     1
102
RTVSPropertyOp1
 70
     1
102
RTVSPropertyOp2
 70
     1
102
RTVSPropertyOp3
 70
     1
102
RTVSPropertyOp4
 70
     1
102
RTVSPropertyOp5
 70
     1
102
RTVSPropertyOp6
 70
     1
102
RTVSPropertyOp7
 70
     1
102
RTVSPropertyOp8
 70
     1
102
RTVSPropertyOp9
 70
     1
102
RTVSPropertyOp10
 70
     1
102
RTVSPropertyOp11
 70
     1
102
RTVSPropertyOp12
 70
     1
102
RTVSPropertyOp13
 70
     1
102
RTVSPropertyOp14
 70
     1
102
RTVSPropertyOp15
 70
     1
102
RTVSPropertyOp16
 70
     1
102
RTVSPropertyOp17
 70
     1
102
RTVSPropertyOp18
 70
     1
102
RTVSPropertyOp19
 70
     1
102
RTVSPropertyOp20
 70
     1
102
RTVSPropertyOp21
 70
     1
102
RTVSPropertyOp22
 70
     1
102
RTVSPropertyOp23
 70
     1
102
RTVSPropertyOp24
 70
     1
102
RTVSPropertyOp25
 70
     1
102
RTVSPropertyOp26
 70
     1
102
RTVSPropertyOp27
 70
     1
102
RTVSPropertyOp28
 70
     1
102
RTVSPropertyOp29
 70
     1
102
RTVSPropertyOp30
 70
     1
102
RTVSPropertyOp31
 70
     1
102
RTVSPropertyOp32
 70
     1
102
RTVSPropertyOp33
 70
     1
102
RTVSPropertyOp34
 70
     1
102
RTVSPropertyOp35
 70
     1
102
RTVSPropertyOp36
 70
     1
102
RTVSPropertyOp37
 70
     1
102
RTVSPropertyOp38
 70
     1
102
RTVSPropertyOp39
 70
     1
102
RTVSPropertyOp40
 70
     1
102
RTVSPropertyOp41
 70
     1
102
RTVSPropertyOp42
 70
     1
102
RTVSPropertyOp43
 70
     1
102
RTVSPropertyOp44
 70
     1
102
RTVSPropertyOp45
 70
     1
102
RTVSPropertyOp46
 70
     1
102
RTVSPropertyOp47
 70
     1
102
RTVSPropertyOp48
 70
     1
102
RTVSPropertyOp49
 70
     1
102
RTVSPropertyOp50
 70
     1
102
RTVSPropertyOp51
 70
     0
102
RTVSPropertyOp52
 70
     0
102
RTVSPropertyOp53
 70
     1
102
RTVSPropertyOp54
 70
     1
102
RTVSPropertyOp55
 70
     1
102
RTVSPropertyOp56
 70
     1
102
RTVSPropertyOp57
 70
     1
102
RTVSPropertyOp58
 70
     1
102
RTVSPropertyOp59
 70
     1
102
RTVSPropertyOp60
 70
     1
102
RTVSPropertyOp61
 70
     1
102
RTVSPropertyOp62
 70
     1
  0
XRECORD
  5
4F0
102
{ACAD_REACTORS
330
4EF
102
}
330
4EF
100
AcDbXrecord
280
     1
102
RTVSPost2010Prop28
280
     0
102
RTVSPost2010PropOp28
 70
     1
102
RTVSPost2010Prop29
280
     1
102
RTVSPost2010PropOp29
 70
     1
102
RTVSPost2010Prop30
280
     1
102
RTVSPost2010PropOp30
 70
     1
102
RTVSPost2010Prop31
280
     0
102
RTVSPost2010PropOp31
 70
     1
102
RTVSPost2010Prop32
280
     0
102
RTVSPost2010PropOp32
 70
     1
102
RTVSPost2010Prop33
280
     0
102
RTVSPost2010PropOp33
 70
     1
102
RTVSPost2010Prop34
280
     0
102
RTVSPost2010PropOp34
 70
     1
102
RTVSPost2010Prop35
280
     0
102
RTVSPost2010PropOp35
 70
     1
102
RTVSPost2010Prop36
280
     0
102
RTVSPost2010PropOp36
 70
     1
102
RTVSPost2010Prop37
 90
       50
102
RTVSPost2010PropOp37
 70
     1
102
RTVSPost2010Prop38
140
0.0
102
RTVSPost2010PropOp38
 70
     1
102
RTVSPost2010Prop39
140
1.0
102
RTVSPost2010PropOp39
 70
     1
102
RTVSPost2010Prop40
 90
        0
102
RTVSPost2010PropOp40
 70
     1
102
RTVSPost2010Prop41ColorIndex
 90
       18
102
RTVSPost2010Prop41ColorRGB
 90
        0
102
RTVSPost2010PropOp41
 70
     1
102
RTVSPost2010Prop42
 90
       50
102
RTVSPost2010PropOp42
 70
     1
102
RTVSPost2010Prop43
 90
        3
102
RTVSPost2010PropOp43
 70
     1
102
RTVSPost2010Prop44ColorIndex
 90
        5
102
RTVSPost2010Prop44ColorRGB
 90
      255
102
RTVSPost2010PropOp44
 70
     1
102
RTVSPost2010Prop45
280
     0
102
RTVSPost2010PropOp45
 70
     1
102
RTVSPost2010Prop46
 90
       50
102
RTVSPost2010PropOp46
 70
     1
102
RTVSPost2010Prop47
 90
       50
102
RTVSPost2010PropOp47
 70
     1
102
RTVSPost2010Prop48
 90
       50
102
RTVSPost2010PropOp48
 70
     1
102
RTVSPost2010Prop49
280
     0
102
RTVSPost2010PropOp49
 70
     1
102
RTVSPost2010Prop50
 90
       50
102
RTVSPost2010PropOp50
 70
     1
102
RTVSPost2010Prop51ColorIndex
 90
      256
102
RTVSPost2010Prop51ColorRGB
 90
-16777216
102
RTVSPost2010PropOp51
 70
     0
102
RTVSPost2010Prop52
140
1.0
102
RTVSPost2010PropOp52
 70
     0
102
RTVSPost2010Prop53
 90
        2
102
RTVSPost2010PropOp53
 70
     1
102
RTVSPost2010Prop54
  1
strokes_ogs.tif
102
RTVSPost2010PropOp54
 70
     1
102
RTVSPost2010Prop55
280
     0
102
RTVSPost2010PropOp55
 70
     1
102
RTVSPost2010Prop56
140
1.0
102
RTVSPost2010PropOp56
 70
     1
102
RTVSPost2010Prop57
140
1.0
102
RTVSPost2010PropOp57
 70
     1
102
RTVSPropertyOp0
 70
     1
102
RTVSPropertyOp1
 70
     1
102
RTVSPropertyOp2
 70
     1
102
RTVSPropertyOp3
 70
     1
102
RTVSPropertyOp4
 70
     1
102
RTVSPropertyOp5
 70
     1
102
RTVSPropertyOp6
 70
     1
102
RTVSPropertyOp7
 70
     1
102
RTVSPropertyOp8
 70
     1
102
RTVSPropertyOp9
 70
     1
102
RTVSPropertyOp10
 70
     1
102
RTVSPropertyOp11
 70
     1
102
RTVSPropertyOp12
 70
     1
102
RTVSPropertyOp13
 70
     1
102
RTVSPropertyOp14
 70
     1
102
RTVSPropertyOp15
 70
     1
102
RTVSPropertyOp16
 70
     1
102
RTVSPropertyOp17
 70
     1
102
RTVSPropertyOp18
 70
     1
102
RTVSPropertyOp19
 70
     1
102
RTVSPropertyOp20
 70
     1
102
RTVSPropertyOp21
 70
     1
102
RTVSPropertyOp22
 70
     1
102
RTVSPropertyOp23
 70
     1
102
RTVSPropertyOp24
 70
     1
102
RTVSPropertyOp25
 70
     1
102
RTVSPropertyOp26
 70
     1
102
RTVSPropertyOp27
 70
     1
102
RTVSPropertyOp28
 70
     1
102
RTVSPropertyOp29
 70
     1
102
RTVSPropertyOp30
 70
     1
102
RTVSPropertyOp31
 70
     1
102
RTVSPropertyOp32
 70
     1
102
RTVSPropertyOp33
 70
     1
102
RTVSPropertyOp34
 70
     1
102
RTVSPropertyOp35
 70
     1
102
RTVSPropertyOp36
 70
     1
102
RTVSPropertyOp37
 70
     1
102
RTVSPropertyOp38
 70
     1
102
RTVSPropertyOp39
 70
     1
102
RTVSPropertyOp40
 70
     1
102
RTVSPropertyOp41
 70
     1
102
RTVSPropertyOp42
 70
     1
102
RTVSPropertyOp43
 70
     1
102
RTVSPropertyOp44
 70
     1
102
RTVSPropertyOp45
 70
     1
102
RTVSPropertyOp46
 70
     1
102
RTVSPropertyOp47
 70
     1
102
RTVSPropertyOp48
 70
     1
102
RTVSPropertyOp49
 70
     1
102
RTVSPropertyOp50
 70
     1
102
RTVSPropertyOp51
 70
     0
102
RTVSPropertyOp52
 70
     0
102
RTVSPropertyOp53
 70
     1
102
RTVSPropertyOp54
 70
     1
102
RTVSPropertyOp55
 70
     1
102
RTVSPropertyOp56
 70
     1
102
RTVSPropertyOp57
 70
     1
102
RTVSPropertyOp58
 70
     1
102
RTVSPropertyOp59
 70
     1
102
RTVSPropertyOp60
 70
     1
102
RTVSPropertyOp61
 70
     1
102
RTVSPropertyOp62
 70
     1
  0
ENDSEC
  0
EOF
