  0
SECTION
  2
HEADER
  9
$ACADVER
  1
AC1015
  9
$ACADMAINTVER
 70
    20
  9
$DWGCODEPAGE
  3
ANSI_932
  9
$INSBASE
 10
0.0
 20
0.0
 30
0.0
  9
$EXTMIN
 10
21.23248299999998
 20
10.676471
 30
0.0
  9
$EXTMAX
 10
536.263123
 20
498.7499999999998
 30
0.0
  9
$LIMMIN
 10
0.0
 20
0.0
  9
$LIMMAX
 10
792.0
 20
546.0
  9
$ORTHOMODE
 70
     1
  9
$REGENMODE
 70
     1
  9
$FILLMODE
 70
     1
  9
$QTEXTMODE
 70
     0
  9
$MIRRTEXT
 70
     1
  9
$LTSCALE
 40
20.0
  9
$ATTMODE
 70
     1
  9
$TEXTSIZE
 40
5.0
  9
$TRACEWID
 40
1.0
  9
$TEXTSTYLE
  7
STANDARD
  9
$CLAYER
  8
0
  9
$CELTYPE
  6
BYLAYER
  9
$CECOLOR
 62
   256
  9
$CELTSCALE
 40
1.0
  9
$DISPSILH
 70
     0
  9
$DIMSCALE
 40
1.0
  9
$DIMASZ
 40
3.0
  9
$DIMEXO
 40
1.0
  9
$DIMDLI
 40
10.0
  9
$DIMRND
 40
0.0
  9
$DIMDLE
 40
0.0
  9
$DIMEXE
 40
1.0
  9
$DIMTP
 40
0.0
  9
$DIMTM
 40
0.0
  9
$DIMTXT
 40
3.2
  9
$DIMCEN
 40
0.0
  9
$DIMTSZ
 40
0.0
  9
$DIMTOL
 70
     0
  9
$DIMLIM
 70
     0
  9
$DIMTIH
 70
     0
  9
$DIMTOH
 70
     0
  9
$DIMSE1
 70
     0
  9
$DIMSE2
 70
     0
  9
$DIMTAD
 70
     3
  9
$DIMZIN
 70
     8
  9
$DIMBLK
  1

  9
$DIMASO
 70
     1
  9
$DIMSHO
 70
     1
  9
$DIMPOST
  1

  9
$DIMAPOST
  1

  9
$DIMALT
 70
     0
  9
$DIMALTD
 70
     2
  9
$DIMALTF
 40
25.4
  9
$DIMLFAC
 40
1.0
  9
$DIMTOFL
 70
     1
  9
$DIMTVP
 40
0.0
  9
$DIMTIX
 70
     0
  9
$DIMSOXD
 70
     0
  9
$DIMSAH
 70
     1
  9
$DIMBLK1
  1

  9
$DIMBLK2
  1

  9
$DIMSTYLE
  2
STANDARD
  9
$DIMCLRD
 70
     0
  9
$DIMCLRE
 70
     0
  9
$DIMCLRT
 70
     0
  9
$DIMTFAC
 40
1.0
  9
$DIMGAP
 40
1.0
  9
$DIMJUST
 70
     0
  9
$DIMSD1
 70
     0
  9
$DIMSD2
 70
     0
  9
$DIMTOLJ
 70
     1
  9
$DIMTZIN
 70
     0
  9
$DIMALTZ
 70
     0
  9
$DIMALTTZ
 70
     0
  9
$DIMUPT
 70
     0
  9
$DIMDEC
 70
     4
  9
$DIMTDEC
 70
     4
  9
$DIMALTU
 70
     2
  9
$DIMALTTD
 70
     2
  9
$DIMTXSTY
  7
STANDARD
  9
$DIMAUNIT
 70
     0
  9
$DIMADEC
 70
     0
  9
$DIMALTRND
 40
0.0
  9
$DIMAZIN
 70
     0
  9
$DIMDSEP
 70
    46
  9
$DIMATFIT
 70
     3
  9
$DIMFRAC
 70
     0
  9
$DIMLDRBLK
  1

  9
$DIMLUNIT
 70
     2
  9
$DIMLWD
 70
    -2
  9
$DIMLWE
 70
    -2
  9
$DIMTMOVE
 70
     0
  9
$LUNITS
 70
     2
  9
$LUPREC
 70
     4
  9
$SKETCHINC
 40
1.0
  9
$FILLETRAD
 40
2.299999999999998
  9
$AUNITS
 70
     0
  9
$AUPREC
 70
     2
  9
$MENU
  1
.
  9
$ELEVATION
 40
0.0
  9
$PELEVATION
 40
0.0
  9
$THICKNESS
 40
0.0
  9
$LIMCHECK
 70
     0
  9
$CHAMFERA
 40
10.0
  9
$CHAMFERB
 40
10.0
  9
$CHAMFERC
 40
0.0
  9
$CHAMFERD
 40
0.0
  9
$SKPOLY
 70
     0
  9
$TDCREATE
 40
2451069.705016319
  9
$TDUCREATE
 40
2451069.330016320
  9
$TDUPDATE
 40
2457192.622919537
  9
$TDUUPDATE
 40
2457192.247919537
  9
$TDINDWG
 40
0.0100515278
  9
$TDUSRTIMER
 40
0.0100512037
  9
$USRTIMER
 70
     1
  9
$ANGBASE
 50
0.0
  9
$ANGDIR
 70
     0
  9
$PDMODE
 70
     0
  9
$PDSIZE
 40
0.0
  9
$PLINEWID
 40
0.0
  9
$SPLFRAME
 70
     0
  9
$SPLINETYPE
 70
     6
  9
$SPLINESEGS
 70
     8
  9
$HANDSEED
  5
66D
  9
$SURFTAB1
 70
     6
  9
$SURFTAB2
 70
     6
  9
$SURFTYPE
 70
     6
  9
$SURFU
 70
     6
  9
$SURFV
 70
     6
  9
$UCSBASE
  2

  9
$UCSNAME
  2

  9
$UCSORG
 10
0.0
 20
0.0
 30
0.0
  9
$UCSXDIR
 10
1.0
 20
0.0
 30
0.0
  9
$UCSYDIR
 10
0.0
 20
1.0
 30
0.0
  9
$UCSORTHOREF
  2

  9
$UCSORTHOVIEW
 70
     0
  9
$UCSORGTOP
 10
0.0
 20
0.0
 30
0.0
  9
$UCSORGBOTTOM
 10
0.0
 20
0.0
 30
0.0
  9
$UCSORGLEFT
 10
0.0
 20
0.0
 30
0.0
  9
$UCSORGRIGHT
 10
0.0
 20
0.0
 30
0.0
  9
$UCSORGFRONT
 10
0.0
 20
0.0
 30
0.0
  9
$UCSORGBACK
 10
0.0
 20
0.0
 30
0.0
  9
$PUCSBASE
  2

  9
$PUCSNAME
  2

  9
$PUCSORG
 10
0.0
 20
0.0
 30
0.0
  9
$PUCSXDIR
 10
1.0
 20
0.0
 30
0.0
  9
$PUCSYDIR
 10
0.0
 20
1.0
 30
0.0
  9
$PUCSORTHOREF
  2

  9
$PUCSORTHOVIEW
 70
     0
  9
$PUCSORGTOP
 10
0.0
 20
0.0
 30
0.0
  9
$PUCSORGBOTTOM
 10
0.0
 20
0.0
 30
0.0
  9
$PUCSORGLEFT
 10
0.0
 20
0.0
 30
0.0
  9
$PUCSORGRIGHT
 10
0.0
 20
0.0
 30
0.0
  9
$PUCSORGFRONT
 10
0.0
 20
0.0
 30
0.0
  9
$PUCSORGBACK
 10
0.0
 20
0.0
 30
0.0
  9
$USERI1
 70
     0
  9
$USERI2
 70
     0
  9
$USERI3
 70
     0
  9
$USERI4
 70
     0
  9
$USERI5
 70
     0
  9
$USERR1
 40
0.0
  9
$USERR2
 40
0.0
  9
$USERR3
 40
0.0
  9
$USERR4
 40
0.0
  9
$USERR5
 40
0.0
  9
$WORLDVIEW
 70
     1
  9
$SHADEDGE
 70
     3
  9
$SHADEDIF
 70
    70
  9
$TILEMODE
 70
     1
  9
$MAXACTVP
 70
    16
  9
$PINSBASE
 10
0.0
 20
0.0
 30
0.0
  9
$PLIMCHECK
 70
     0
  9
$PEXTMIN
 10
1.000000000000000E+20
 20
1.000000000000000E+20
 30
1.000000000000000E+20
  9
$PEXTMAX
 10
-1.000000000000000E+20
 20
-1.000000000000000E+20
 30
-1.000000000000000E+20
  9
$PLIMMIN
 10
0.0
 20
0.0
  9
$PLIMMAX
 10
420.0
 20
297.0
  9
$UNITMODE
 70
     0
  9
$VISRETAIN
 70
     0
  9
$PLINEGEN
 70
     0
  9
$PSLTSCALE
 70
     0
  9
$TREEDEPTH
 70
  3020
  9
$CMLSTYLE
  2
STANDARD
  9
$CMLJUST
 70
     0
  9
$CMLSCALE
 40
1.0
  9
$PROXYGRAPHICS
 70
     1
  9
$MEASUREMENT
 70
     0
  9
$CELWEIGHT
370
    -1
  9
$ENDCAPS
280
     0
  9
$JOINSTYLE
280
     0
  9
$LWDISPLAY
290
     0
  9
$INSUNITS
 70
     0
  9
$HYPERLINKBASE
  1

  9
$STYLESHEET
  1

  9
$XEDIT
290
     1
  9
$CEPSNTYPE
380
     0
  9
$PSTYLEMODE
290
     1
  9
$FINGERPRINTGUID
  2
{54BA79BC-6DB4-4D75-A5A5-11E1CBF66054}
  9
$VERSIONGUID
  2
{C54B8A57-1CDC-4664-9A23-0B169E80677A}
  9
$EXTNAMES
290
     1
  9
$PSVPSCALE
 40
0.0
  9
$OLESTARTUP
290
     0
  0
ENDSEC
  0
SECTION
  2
CLASSES
  0
CLASS
  1
ACDBDICTIONARYWDFLT
  2
AcDbDictionaryWithDefault
  3
ObjectDBX Classes
 90
        0
280
     0
281
     0
  0
CLASS
  1
ACDBPLACEHOLDER
  2
AcDbPlaceHolder
  3
ObjectDBX Classes
 90
        0
280
     0
281
     0
  0
CLASS
  1
LAYOUT
  2
AcDbLayout
  3
ObjectDBX Classes
 90
        0
280
     0
281
     0
  0
CLASS
  1
DICTIONARYVAR
  2
AcDbDictionaryVar
  3
ObjectDBX Classes
 90
        0
280
     0
281
     0
  0
CLASS
  1
MATERIAL
  2
AcDbMaterial
  3
ObjectDBX Classes
 90
     1153
280
     0
281
     0
  0
CLASS
  1
VISUALSTYLE
  2
AcDbVisualStyle
  3
ObjectDBX Classes
 90
     4095
280
     0
281
     0
  0
CLASS
  1
TABLESTYLE
  2
AcDbTableStyle
  3
ObjectDBX Classes
 90
     4095
280
     0
281
     0
  0
CLASS
  1
SCALE
  2
AcDbScale
  3
ObjectDBX Classes
 90
     1153
280
     0
281
     0
  0
CLASS
  1
MLEADERSTYLE
  2
AcDbMLeaderStyle
  3
ACDB_MLEADERSTYLE_CLASS
 90
     4095
280
     0
281
     0
  0
CLASS
  1
ACDBSECTIONVIEWSTYLE
  2
AcDbSectionViewStyle
  3
ObjectDBX Classes
 90
     1025
280
     0
281
     0
  0
CLASS
  1
ACDBDETAILVIEWSTYLE
  2
AcDbDetailViewStyle
  3
ObjectDBX Classes
 90
     1025
280
     0
281
     0
  0
CLASS
  1
CELLSTYLEMAP
  2
AcDbCellStyleMap
  3
ObjectDBX Classes
 90
     1152
280
     0
281
     0
  0
ENDSEC
  0
SECTION
  2
TABLES
  0
TABLE
  2
VPORT
  5
1DD
330
0
100
AcDbSymbolTable
 70
     1
  0
VPORT
  5
5B8
330
1DD
100
AcDbSymbolTableRecord
100
AcDbViewportTableRecord
  2
*ACTIVE
 70
     0
 10
0.0
 20
0.0
 11
1.0
 21
1.0
 12
479.6472784813467
 22
254.7128003222316
 13
0.0
 23
0.0
 14
10.0
 24
10.0
 15
10.0
 25
10.0
 16
0.0
 26
0.0
 36
1.0
 17
0.0
 27
0.0
 37
0.0
 40
491.9272610450016
 41
1.899603698811096
 42
50.0
 43
0.0
 44
0.0
 50
0.0
 51
0.0
 71
     0
 72
   100
 73
     1
 74
     0
 75
     0
 76
     0
 77
     0
 78
     0
281
     0
 65
     1
110
0.0
120
0.0
130
0.0
111
1.0
121
0.0
131
0.0
112
0.0
122
1.0
132
0.0
 79
     0
146
0.0
1001
ACAD_NAV_VCDISPLAY
1070
     3
  0
ENDTAB
  0
TABLE
  2
LTYPE
  5
1DA
330
0
100
AcDbSymbolTable
 70
     4
  0
LTYPE
  5
1E8
330
1DA
100
AcDbSymbolTableRecord
100
AcDbLinetypeTableRecord
  2
BYBLOCK
 70
     0
  3

 72
    65
 73
     0
 40
0.0
  0
LTYPE
  5
1E9
330
1DA
100
AcDbSymbolTableRecord
100
AcDbLinetypeTableRecord
  2
BYLAYER
 70
     0
  3

 72
    65
 73
     0
 40
0.0
  0
LTYPE
  5
1EA
330
1DA
100
AcDbSymbolTableRecord
100
AcDbLinetypeTableRecord
  2
CONTINUOUS
 70
     0
  3
Solid line
 72
    65
 73
     0
 40
0.0
  0
LTYPE
  5
1F8
330
1DA
100
AcDbSymbolTableRecord
100
AcDbLinetypeTableRecord
  2
DASHED
 70
     0
  3
__ __ __ __ __ __ __ __ __ __ __ __ __ __ __ __
 72
    65
 73
     2
 40
0.75
 49
0.5
 74
     0
 49
-0.25
 74
     0
  0
LTYPE
  5
1F9
330
1DA
100
AcDbSymbolTableRecord
100
AcDbLinetypeTableRecord
  2
CENTER
 70
     0
  3
____ _ ____ _ ____ _ ____ _ ____ _ ____ _ ____ 
 72
    65
 73
     4
 40
2.0
 49
1.25
 74
     0
 49
-0.25
 74
     0
 49
0.25
 74
     0
 49
-0.25
 74
     0
  0
LTYPE
  5
1FA
330
1DA
100
AcDbSymbolTableRecord
100
AcDbLinetypeTableRecord
  2
PHANTOM
 70
     0
  3
______  __  __  ______  __  __  ______  __  __ 
 72
    65
 73
     6
 40
2.5
 49
1.25
 74
     0
 49
-0.25
 74
     0
 49
0.25
 74
     0
 49
-0.25
 74
     0
 49
0.25
 74
     0
 49
-0.25
 74
     0
  0
ENDTAB
  0
TABLE
  2
LAYER
  5
1D7
330
0
100
AcDbSymbolTable
 70
     8
  0
LAYER
  5
1E5
102
{ACAD_XDICTIONARY
360
611
102
}
330
1D7
100
AcDbSymbolTableRecord
100
AcDbLayerTableRecord
  2
0
 70
     0
 62
     7
  6
CONTINUOUS
370
    -3
390
5BF
  0
LAYER
  5
1FB
102
{ACAD_XDICTIONARY
360
613
102
}
330
1D7
100
AcDbSymbolTableRecord
100
AcDbLayerTableRecord
  2
4
 70
     0
 62
     1
  6
CENTER
370
    -3
390
5BF
  0
LAYER
  5
1FC
102
{ACAD_XDICTIONARY
360
615
102
}
330
1D7
100
AcDbSymbolTableRecord
100
AcDbLayerTableRecord
  2
5
 70
     0
 62
     6
  6
PHANTOM
370
    -3
390
5BF
  0
LAYER
  5
1FD
102
{ACAD_XDICTIONARY
360
617
102
}
330
1D7
100
AcDbSymbolTableRecord
100
AcDbLayerTableRecord
  2
1
 70
     0
 62
     7
  6
CONTINUOUS
370
    -3
390
5BF
  0
LAYER
  5
1FE
102
{ACAD_XDICTIONARY
360
619
102
}
330
1D7
100
AcDbSymbolTableRecord
100
AcDbLayerTableRecord
  2
2
 70
     0
 62
     4
  6
CONTINUOUS
370
    -3
390
5BF
  0
LAYER
  5
1FF
102
{ACAD_XDICTIONARY
360
61B
102
}
330
1D7
100
AcDbSymbolTableRecord
100
AcDbLayerTableRecord
  2
3
 70
     0
 62
     2
  6
DASHED
370
    -3
390
5BF
  0
LAYER
  5
200
102
{ACAD_XDICTIONARY
360
61D
102
}
330
1D7
100
AcDbSymbolTableRecord
100
AcDbLayerTableRecord
  2
6
 70
     0
 62
     5
  6
CONTINUOUS
370
    -3
390
5BF
  0
LAYER
  5
201
102
{ACAD_XDICTIONARY
360
61F
102
}
330
1D7
100
AcDbSymbolTableRecord
100
AcDbLayerTableRecord
  2
7
 70
     0
 62
     3
  6
CONTINUOUS
370
    -3
390
5BF
  0
ENDTAB
  0
TABLE
  2
STYLE
  5
1D8
330
0
100
AcDbSymbolTable
 70
     1
  0
STYLE
  5
1E6
330
1D8
100
AcDbSymbolTableRecord
100
AcDbTextStyleTableRecord
  2
STANDARD
 70
     0
 40
0.0
 41
1.0
 50
0.0
 71
     0
 42
5.0
  3
txt
  4

  0
ENDTAB
  0
TABLE
  2
VIEW
  5
1DB
330
0
100
AcDbSymbolTable
 70
     0
  0
ENDTAB
  0
TABLE
  2
UCS
  5
1DC
330
0
100
AcDbSymbolTable
 70
     0
  0
ENDTAB
  0
TABLE
  2
APPID
  5
1DE
330
0
100
AcDbSymbolTable
 70
     3
  0
APPID
  5
1E7
330
1DE
100
AcDbSymbolTableRecord
100
AcDbRegAppTableRecord
  2
ACAD
 70
     0
  0
APPID
  5
62B
330
1DE
100
AcDbSymbolTableRecord
100
AcDbRegAppTableRecord
  2
ACAD_NAV_VCDISPLAY
 70
     0
  0
APPID
  5
664
330
1DE
100
AcDbSymbolTableRecord
100
AcDbRegAppTableRecord
  2
ACAD_MLEADERVER
 70
     0
  0
ENDTAB
  0
TABLE
  2
DIMSTYLE
  5
1DF
330
0
100
AcDbSymbolTable
 70
     1
100
AcDbDimStyleTable
 71
     0
  0
DIMSTYLE
105
203
330
1DF
100
AcDbSymbolTableRecord
100
AcDbDimStyleTableRecord
  2
STANDARD
 70
     0
 41
3.0
 42
1.0
 43
10.0
 44
1.0
 73
     0
 74
     0
 77
     3
 78
     8
140
3.2
141
0.0
147
1.0
172
     1
173
     1
284
     8
285
     8
286
     8
340
1E6
  0
ENDTAB
  0
TABLE
  2
BLOCK_RECORD
  5
1D6
330
0
100
AcDbSymbolTable
 70
     0
  0
BLOCK_RECORD
  5
1F3
102
{ACAD_XDICTIONARY
360
3B9
102
}
330
1D6
100
AcDbSymbolTableRecord
100
AcDbBlockTableRecord
  2
*MODEL_SPACE
340
60D
  0
BLOCK_RECORD
  5
1EF
102
{ACAD_XDICTIONARY
360
3B7
102
}
330
1D6
100
AcDbSymbolTableRecord
100
AcDbBlockTableRecord
  2
*PAPER_SPACE
340
60E
  0
ENDTAB
  0
ENDSEC
  0
SECTION
  2
BLOCKS
  0
BLOCK
  5
1F4
330
1F3
100
AcDbEntity
  8
0
100
AcDbBlockBegin
  2
*MODEL_SPACE
 70
     0
 10
0.0
 20
0.0
 30
0.0
  3
*MODEL_SPACE
  1

  0
ENDBLK
  5
1F5
330
1F3
100
AcDbEntity
  8
0
100
AcDbBlockEnd
  0
BLOCK
  5
1F0
330
1EF
100
AcDbEntity
 67
     1
  8
0
100
AcDbBlockBegin
  2
*PAPER_SPACE
 70
     0
 10
0.0
 20
0.0
 30
0.0
  3
*PAPER_SPACE
  1

  0
ENDBLK
  5
1F1
330
1EF
100
AcDbEntity
 67
     1
  8
0
100
AcDbBlockEnd
  0
ENDSEC
  0
SECTION
  2
ENTITIES
  0
LINE
  5
20B
330
1F3
100
AcDbEntity
  8
1
  6
Continuous
100
AcDbLine
 10
348.2711179999999
 20
384.7240299999999
 30
0.0
 11
348.2711179999999
 21
136.9740299999999
 31
0.0
  0
LINE
  5
20C
330
1F3
100
AcDbEntity
  8
1
  6
Continuous
100
AcDbLine
 10
362.271118
 20
384.7240299999999
 30
0.0
 11
362.271118
 21
136.9740299999999
 31
0.0
  0
LINE
  5
20D
330
1F3
100
AcDbEntity
  8
1
  6
Continuous
100
AcDbLine
 10
337.7711179999999
 20
393.4740299999999
 30
0.0
 11
372.771118
 21
393.4740299999999
 31
0.0
  0
LINE
  5
20E
330
1F3
100
AcDbEntity
  8
1
  6
Continuous
100
AcDbLine
 10
337.7711179999999
 20
391.874023
 30
0.0
 11
372.771118
 21
391.874023
 31
0.0
  0
LINE
  5
20F
330
1F3
100
AcDbEntity
  8
1
  6
Continuous
100
AcDbLine
 10
337.7711179999999
 20
393.4740299999999
 30
0.0
 11
337.7711179999999
 21
391.874023
 31
0.0
  0
LINE
  5
210
330
1F3
100
AcDbEntity
  8
1
  6
Continuous
100
AcDbLine
 10
372.771118
 20
393.4740299999999
 30
0.0
 11
372.771118
 21
391.874023
 31
0.0
  0
LINE
  5
211
330
1F3
100
AcDbEntity
  8
1
  6
Continuous
100
AcDbLine
 10
361.771118
 20
391.874023
 30
0.0
 11
361.771118
 21
383.4740299999999
 31
0.0
  0
LINE
  5
212
330
1F3
100
AcDbEntity
  8
1
  6
Continuous
100
AcDbLine
 10
348.771118
 20
391.874023
 30
0.0
 11
348.771118
 21
383.4740299999999
 31
0.0
  0
LINE
  5
213
330
1F3
100
AcDbEntity
  8
1
  6
Continuous
100
AcDbLine
 10
331.7711179999998
 20
146.47403
 30
0.0
 11
348.2711179999999
 21
146.47403
 31
0.0
  0
LINE
  5
214
330
1F3
100
AcDbEntity
  8
1
  6
Continuous
100
AcDbLine
 10
331.7711179999998
 20
126.4740299999999
 30
0.0
 11
378.771118
 21
126.4740299999999
 31
0.0
  0
LINE
  5
215
330
1F3
100
AcDbEntity
  8
1
  6
Continuous
100
AcDbLine
 10
329.771118
 20
144.47403
 30
0.0
 11
329.771118
 21
128.4740299999999
 31
0.0
  0
LINE
  5
216
330
1F3
100
AcDbEntity
  8
1
  6
Continuous
100
AcDbLine
 10
380.771118
 20
144.47403
 30
0.0
 11
380.771118
 21
128.4740299999999
 31
0.0
  0
LINE
  5
217
330
1F3
100
AcDbEntity
  8
1
  6
Continuous
100
AcDbLine
 10
335.5211179999999
 20
138.7240299999999
 30
0.0
 11
340.0211179999999
 21
138.7240299999999
 31
0.0
  0
LINE
  5
218
330
1F3
100
AcDbEntity
  8
1
  6
Continuous
100
AcDbLine
 10
335.5211179999999
 20
134.22403
 30
0.0
 11
340.0211179999999
 21
134.22403
 31
0.0
  0
LINE
  5
219
330
1F3
100
AcDbEntity
  8
1
  6
Continuous
100
AcDbLine
 10
342.271118
 20
136.47403
 30
0.0
 11
342.271118
 21
136.47403
 31
0.0
  0
LINE
  5
21A
330
1F3
100
AcDbEntity
  8
1
  6
Continuous
100
AcDbLine
 10
333.2711179999999
 20
136.47403
 30
0.0
 11
333.2711179999999
 21
136.47403
 31
0.0
  0
LINE
  5
21B
330
1F3
100
AcDbEntity
  8
1
  6
Continuous
100
AcDbLine
 10
368.271118
 20
136.47403
 30
0.0
 11
368.271118
 21
136.47403
 31
0.0
  0
LINE
  5
21C
330
1F3
100
AcDbEntity
  8
1
  6
Continuous
100
AcDbLine
 10
370.521118
 20
138.7240299999999
 30
0.0
 11
375.0211179999998
 21
138.7240299999999
 31
0.0
  0
LINE
  5
21D
330
1F3
100
AcDbEntity
  8
1
  6
Continuous
100
AcDbLine
 10
370.521118
 20
134.22403
 30
0.0
 11
375.0211179999998
 21
134.22403
 31
0.0
  0
LINE
  5
21E
330
1F3
100
AcDbEntity
  8
1
  6
Continuous
100
AcDbLine
 10
377.2711179999998
 20
136.47403
 30
0.0
 11
377.2711179999998
 21
136.47403
 31
0.0
  0
LINE
  5
21F
330
1F3
100
AcDbEntity
  8
1
  6
Continuous
100
AcDbLine
 10
348.2711179999999
 20
147.97403
 30
0.0
 11
362.271118
 21
147.97403
 31
0.0
  0
LINE
  5
220
330
1F3
100
AcDbEntity
  8
1
  6
Continuous
100
AcDbLine
 10
364.8710939999999
 20
146.47403
 30
0.0
 11
364.8710939999999
 21
126.4740299999999
 31
0.0
  0
LINE
  5
221
330
1F3
100
AcDbEntity
  8
1
  6
Continuous
100
AcDbLine
 10
345.671112
 20
146.47403
 30
0.0
 11
345.671112
 21
126.4740299999999
 31
0.0
  0
LINE
  5
222
330
1F3
100
AcDbEntity
  8
4
  6
CENTER
 48
0.2
100
AcDbLine
 10
346.441589
 20
273.9740299999999
 30
0.0
 11
356.072357
 21
273.9740299999999
 31
0.0
  0
LINE
  5
223
330
1F3
100
AcDbEntity
  8
1
  6
Continuous
100
AcDbLine
 10
208.601807
 20
391.7240299999999
 30
0.0
 11
208.601807
 21
277.4740299999999
 31
0.0
  0
LINE
  5
224
330
1F3
100
AcDbEntity
  8
1
  6
Continuous
100
AcDbLine
 10
206.3017879999999
 20
391.7240299999999
 30
0.0
 11
206.3017879999999
 21
276.9740299999999
 31
0.0
  0
LINE
  5
225
330
1F3
100
AcDbEntity
  8
1
  6
Continuous
100
AcDbLine
 10
223.3017819999997
 20
393.4740299999999
 30
0.0
 11
210.3018129999999
 21
393.4740299999999
 31
0.0
  0
LINE
  5
226
330
1F3
100
AcDbEntity
  8
1
  6
Continuous
100
AcDbLine
 10
223.3017819999997
 20
391.874023
 30
0.0
 11
210.3017819999998
 21
391.874023
 31
0.0
  0
LINE
  5
227
330
1F3
100
AcDbEntity
  8
1
  6
Continuous
100
AcDbLine
 10
223.3017819999997
 20
393.4740299999999
 30
0.0
 11
223.3017819999997
 21
391.874023
 31
0.0
  0
LINE
  5
228
330
1F3
100
AcDbEntity
  8
1
  6
Continuous
100
AcDbLine
 10
210.3017819999998
 20
393.4740299999999
 30
0.0
 11
210.3017819999998
 21
376.9740299999999
 31
0.0
  0
LINE
  5
229
330
1F3
100
AcDbEntity
  8
1
  6
Continuous
100
AcDbLine
 10
210.3017819999998
 20
376.9740299999999
 30
0.0
 11
208.701807
 21
376.9740299999999
 31
0.0
  0
LINE
  5
22A
330
1F3
100
AcDbEntity
  8
4
  6
CENTER
 48
0.2
100
AcDbLine
 10
216.2017819999999
 20
383.4740299999999
 30
0.0
 11
199.301788
 21
383.4740299999999
 31
0.0
  0
LINE
  5
22B
330
1F3
100
AcDbEntity
  8
4
  6
CENTER
 48
0.2
100
AcDbLine
 10
215.601807
 20
259.9740299999999
 30
0.0
 11
198.0017699999999
 21
259.9740299999999
 31
0.0
  0
LINE
  5
22C
330
1F3
100
AcDbEntity
  8
4
  6
CENTER
 48
0.2
100
AcDbLine
 10
208.201807
 20
136.47403
 30
0.0
 11
183.201782
 21
136.47403
 31
0.0
  0
LINE
  5
22D
330
1F3
100
AcDbEntity
  8
4
  6
CENTER
 48
0.2
100
AcDbLine
 10
211.8018039999999
 20
289.9740299999999
 30
0.0
 11
200.801773
 21
289.9740299999999
 31
0.0
  0
LINE
  5
22E
330
1F3
100
AcDbEntity
  8
4
  6
CENTER
 48
0.2
100
AcDbLine
 10
214.085754
 20
273.9740299999999
 30
0.0
 11
200.801773
 21
273.9740299999999
 31
0.0
  0
LINE
  5
22F
330
1F3
100
AcDbEntity
  8
1
  6
Continuous
100
AcDbLine
 10
206.3017879999999
 20
296.9740299999999
 30
0.0
 11
204.0017699999999
 21
296.9740299999999
 31
0.0
  0
LINE
  5
230
330
1F3
100
AcDbEntity
  8
1
  6
Continuous
100
AcDbLine
 10
198.8017879999999
 20
147.983646
 30
0.0
 11
198.8017879999999
 21
126.4740299999999
 31
0.0
  0
LINE
  5
231
330
1F3
100
AcDbEntity
  8
1
  6
Continuous
100
AcDbLine
 10
201.1018069999998
 20
147.97403
 30
0.0
 11
201.1018069999998
 21
129.97403
 31
0.0
  0
LINE
  5
232
330
1F3
100
AcDbEntity
  8
1
  6
Continuous
100
AcDbLine
 10
201.1018069999998
 20
129.97403
 30
0.0
 11
198.8017879999999
 21
129.97403
 31
0.0
  0
LINE
  5
233
330
1F3
100
AcDbEntity
  8
1
  6
Continuous
100
AcDbLine
 10
206.05071
 20
157.481719
 30
0.0
 11
201.1017759999999
 21
147.9740139999998
 31
0.0
  0
LINE
  5
234
330
1F3
100
AcDbEntity
  8
1
  6
Continuous
100
AcDbLine
 10
198.8017879999999
 20
146.47403
 30
0.0
 11
188.201782
 21
146.47403
 31
0.0
  0
LINE
  5
235
330
1F3
100
AcDbEntity
  8
1
  6
Continuous
100
AcDbLine
 10
198.8017879999999
 20
126.4740299999999
 30
0.0
 11
188.201782
 21
126.4740299999999
 31
0.0
  0
LINE
  5
236
330
1F3
100
AcDbEntity
  8
1
  6
Continuous
100
AcDbLine
 10
188.201782
 20
146.47403
 30
0.0
 11
188.201782
 21
126.4740299999999
 31
0.0
  0
LINE
  5
237
330
1F3
100
AcDbEntity
  8
1
  6
Continuous
100
AcDbLine
 10
189.8017879999999
 20
146.47403
 30
0.0
 11
189.8017879999999
 21
126.4740299999999
 31
0.0
  0
LINE
  5
238
330
1F3
100
AcDbEntity
  8
1
  6
Continuous
100
AcDbLine
 10
206.3017729999998
 20
276.9740299999999
 30
0.0
 11
208.8017879999999
 21
273.9739989999999
 31
0.0
  0
LINE
  5
239
330
1F3
100
AcDbEntity
  8
1
  6
Continuous
100
AcDbLine
 10
208.8017879999999
 20
273.9740299999999
 30
0.0
 11
206.3017729999998
 21
270.973999
 31
0.0
  0
LINE
  5
23A
330
1F3
100
AcDbEntity
  8
1
  6
Continuous
100
AcDbLine
 10
204.0017699999999
 20
296.9740299999999
 30
0.0
 11
204.0017699999999
 21
158.536255
 31
0.0
  0
LINE
  5
23B
330
1F3
100
AcDbEntity
  8
1
  6
Continuous
100
AcDbLine
 10
206.3017879999999
 20
270.9740299999999
 30
0.0
 11
206.3017879999999
 21
158.526669
 31
0.0
  0
LINE
  5
23C
330
1F3
100
AcDbEntity
  8
1
  6
Continuous
100
AcDbLine
 10
208.601807
 20
270.4740299999999
 30
0.0
 11
208.601807
 21
251.7240299999999
 31
0.0
  0
LINE
  5
23D
330
1F3
100
AcDbEntity
  8
3
  6
DASHED
 48
0.1
100
AcDbLine
 10
208.601807
 20
292.0740359999998
 30
0.0
 11
206.3017879999999
 21
292.0740359999998
 31
0.0
  0
LINE
  5
23E
330
1F3
100
AcDbEntity
  8
3
  6
DASHED
 48
0.1
100
AcDbLine
 10
208.601807
 20
287.874023
 30
0.0
 11
206.3017879999999
 21
287.874023
 31
0.0
  0
LINE
  5
23F
330
1F3
100
AcDbEntity
  8
1
  6
Continuous
100
AcDbLine
 10
202.601807
 20
140.9740299999999
 30
0.0
 11
201.1018069999998
 21
140.9740299999999
 31
0.0
  0
LINE
  5
240
330
1F3
100
AcDbEntity
  8
1
  6
Continuous
100
AcDbLine
 10
202.601807
 20
131.97403
 30
0.0
 11
201.1018069999998
 21
131.97403
 31
0.0
  0
LINE
  5
241
330
1F3
100
AcDbEntity
  8
1
  6
Continuous
100
AcDbLine
 10
203.1018069999999
 20
140.47403
 30
0.0
 11
203.1018069999999
 21
132.4740299999999
 31
0.0
  0
LINE
  5
242
330
1F3
100
AcDbEntity
  8
1
  6
Continuous
100
AcDbLine
 10
202.601807
 20
140.9740299999999
 30
0.0
 11
202.601807
 21
131.97403
 31
0.0
  0
LINE
  5
243
330
1F3
100
AcDbEntity
  8
1
  6
Continuous
100
AcDbLine
 10
203.101776
 20
140.47403
 30
0.0
 11
202.6017909999999
 21
140.9740139999998
 31
0.0
  0
LINE
  5
244
330
1F3
100
AcDbEntity
  8
1
  6
Continuous
100
AcDbLine
 10
202.6017909999999
 20
131.97403
 30
0.0
 11
203.1017909999999
 21
132.4740449999999
 31
0.0
  0
LINE
  5
245
330
1F3
100
AcDbEntity
  8
1
  6
Continuous
100
AcDbLine
 10
210.1018069999998
 20
264.4740299999999
 30
0.0
 11
208.601807
 21
264.4740299999999
 31
0.0
  0
LINE
  5
246
330
1F3
100
AcDbEntity
  8
1
  6
Continuous
100
AcDbLine
 10
210.1018069999998
 20
255.4740299999999
 30
0.0
 11
208.601807
 21
255.4740299999999
 31
0.0
  0
LINE
  5
247
330
1F3
100
AcDbEntity
  8
1
  6
Continuous
100
AcDbLine
 10
210.6018069999997
 20
263.9740299999999
 30
0.0
 11
210.6018069999997
 21
255.9740299999999
 31
0.0
  0
LINE
  5
248
330
1F3
100
AcDbEntity
  8
1
  6
Continuous
100
AcDbLine
 10
210.1018069999998
 20
264.4740299999999
 30
0.0
 11
210.1018069999998
 21
255.4740299999999
 31
0.0
  0
LINE
  5
249
330
1F3
100
AcDbEntity
  8
1
  6
Continuous
100
AcDbLine
 10
210.1017909999999
 20
264.4740299999999
 30
0.0
 11
210.6017759999998
 21
263.9740299999999
 31
0.0
  0
LINE
  5
24A
330
1F3
100
AcDbEntity
  8
1
  6
Continuous
100
AcDbLine
 10
210.1017909999999
 20
255.4740299999999
 30
0.0
 11
210.6018069999997
 21
255.974045
 31
0.0
  0
LINE
  5
24B
330
1F3
100
AcDbEntity
  8
1
  6
Continuous
100
AcDbLine
 10
204.0017699999999
 20
262.374023
 30
0.0
 11
203.00177
 21
262.374023
 31
0.0
  0
LINE
  5
24C
330
1F3
100
AcDbEntity
  8
1
  6
Continuous
100
AcDbLine
 10
204.0017699999999
 20
257.5740359999999
 30
0.0
 11
203.00177
 21
257.5740359999999
 31
0.0
  0
LINE
  5
24D
330
1F3
100
AcDbEntity
  8
1
  6
Continuous
100
AcDbLine
 10
203.00177
 20
262.374023
 30
0.0
 11
203.00177
 21
257.5740359999999
 31
0.0
  0
LINE
  5
24E
330
1F3
100
AcDbEntity
  8
1
  6
Continuous
100
AcDbLine
 10
206.3017879999999
 20
387.9740299999999
 30
0.0
 11
204.8017879999999
 21
387.9740299999999
 31
0.0
  0
LINE
  5
24F
330
1F3
100
AcDbEntity
  8
1
  6
Continuous
100
AcDbLine
 10
206.3017879999999
 20
378.9740299999999
 30
0.0
 11
204.8017879999999
 21
378.9740299999999
 31
0.0
  0
LINE
  5
250
330
1F3
100
AcDbEntity
  8
1
  6
Continuous
100
AcDbLine
 10
204.3017879999999
 20
387.4740299999999
 30
0.0
 11
204.3017879999999
 21
379.4740299999999
 31
0.0
  0
LINE
  5
251
330
1F3
100
AcDbEntity
  8
1
  6
Continuous
100
AcDbLine
 10
204.8017879999999
 20
387.9740299999999
 30
0.0
 11
204.8017879999999
 21
378.9740299999999
 31
0.0
  0
LINE
  5
252
330
1F3
100
AcDbEntity
  8
1
  6
Continuous
100
AcDbLine
 10
204.3017579999999
 20
387.4740299999999
 30
0.0
 11
204.801773
 21
387.9740299999999
 31
0.0
  0
LINE
  5
253
330
1F3
100
AcDbEntity
  8
1
  6
Continuous
100
AcDbLine
 10
204.3017729999998
 20
379.4740299999999
 30
0.0
 11
204.8017879999999
 21
378.9740299999999
 31
0.0
  0
LINE
  5
254
330
1F3
100
AcDbEntity
  8
1
  6
Continuous
100
AcDbLine
 10
211.9017879999999
 20
385.874023
 30
0.0
 11
210.3017819999998
 21
385.874023
 31
0.0
  0
LINE
  5
255
330
1F3
100
AcDbEntity
  8
1
  6
Continuous
100
AcDbLine
 10
211.9017879999999
 20
381.074036
 30
0.0
 11
210.3017819999998
 21
381.074036
 31
0.0
  0
LINE
  5
256
330
1F3
100
AcDbEntity
  8
1
  6
Continuous
100
AcDbLine
 10
362.271118
 20
146.47403
 30
0.0
 11
378.771118
 21
146.47403
 31
0.0
  0
LINE
  5
257
330
1F3
100
AcDbEntity
  8
4
  6
CENTER
 48
0.2
100
AcDbLine
 10
228.3017819999999
 20
473.2499999999998
 30
0.0
 11
191.3017819999999
 21
473.2499999999998
 31
0.0
  0
LINE
  5
258
330
1F3
100
AcDbEntity
  8
1
  6
Continuous
100
AcDbLine
 10
223.3017819999997
 20
484.25
 30
0.0
 11
223.3017819999997
 21
462.25
 31
0.0
  0
LINE
  5
259
330
1F3
100
AcDbEntity
  8
1
  6
Continuous
100
AcDbLine
 10
210.3017819999998
 20
484.25
 30
0.0
 11
210.3017819999998
 21
479.75
 31
0.0
  0
LINE
  5
25A
330
1F3
100
AcDbEntity
  8
1
  6
Continuous
100
AcDbLine
 10
208.601807
 20
480.25
 30
0.0
 11
208.601807
 21
466.25
 31
0.0
  0
LINE
  5
25B
330
1F3
100
AcDbEntity
  8
1
  6
Continuous
100
AcDbLine
 10
189.8017879999999
 20
498.7499999999998
 30
0.0
 11
189.8017879999999
 21
482.8500059999998
 31
0.0
  0
LINE
  5
25C
330
1F3
100
AcDbEntity
  8
1
  6
Continuous
100
AcDbLine
 10
188.201782
 20
498.7499999999998
 30
0.0
 11
188.201782
 21
482.8500059999998
 31
0.0
  0
LINE
  5
25D
330
1F3
100
AcDbEntity
  8
4
  6
CENTER
 48
0.1
100
AcDbLine
 10
216.8017819999997
 20
396.4740299999998
 30
0.0
 11
216.8017819999997
 21
388.874023
 31
0.0
  0
LINE
  5
25E
330
1F3
100
AcDbEntity
  8
4
  6
CENTER
 48
0.2
100
AcDbLine
 10
216.8017819999997
 20
495.75
 30
0.0
 11
216.8017819999997
 21
450.75
 31
0.0
  0
LINE
  5
25F
330
1F3
100
AcDbEntity
  8
1
  6
Continuous
100
AcDbLine
 10
210.3017819999998
 20
479.75
 30
0.0
 11
208.601807
 21
479.75
 31
0.0
  0
LINE
  5
260
330
1F3
100
AcDbEntity
  8
1
  6
Continuous
100
AcDbLine
 10
210.3017819999998
 20
466.75
 30
0.0
 11
208.601807
 21
466.75
 31
0.0
  0
LINE
  5
261
330
1F3
100
AcDbEntity
  8
1
  6
Continuous
100
AcDbLine
 10
206.3017879999999
 20
480.25
 30
0.0
 11
206.3017879999999
 21
466.25
 31
0.0
  0
LINE
  5
262
330
1F3
100
AcDbEntity
  8
1
  6
Continuous
100
AcDbLine
 10
208.601807
 20
480.25
 30
0.0
 11
198.8017879999999
 21
480.25
 31
0.0
  0
LINE
  5
263
330
1F3
100
AcDbEntity
  8
1
  6
Continuous
100
AcDbLine
 10
208.601807
 20
466.25
 30
0.0
 11
198.8017879999999
 21
466.25
 31
0.0
  0
LINE
  5
264
330
1F3
100
AcDbEntity
  8
1
  6
Continuous
100
AcDbLine
 10
204.3017879999999
 20
477.2499999999998
 30
0.0
 11
204.3017879999999
 21
469.2499999999998
 31
0.0
  0
LINE
  5
265
330
1F3
100
AcDbEntity
  8
1
  6
Continuous
100
AcDbLine
 10
204.8017879999999
 20
477.7499999999998
 30
0.0
 11
204.8017879999999
 21
468.75
 31
0.0
  0
LINE
  5
266
330
1F3
100
AcDbEntity
  8
1
  6
Continuous
100
AcDbLine
 10
206.3017879999999
 20
477.7499999999998
 30
0.0
 11
204.8017879999999
 21
477.7499999999998
 31
0.0
  0
LINE
  5
267
330
1F3
100
AcDbEntity
  8
1
  6
Continuous
100
AcDbLine
 10
206.3017879999999
 20
468.75
 30
0.0
 11
204.8017879999999
 21
468.75
 31
0.0
  0
LINE
  5
268
330
1F3
100
AcDbEntity
  8
1
  6
Continuous
100
AcDbLine
 10
204.801804
 20
477.7499999999998
 30
0.0
 11
204.301819
 21
477.2500309999998
 31
0.0
  0
LINE
  5
269
330
1F3
100
AcDbEntity
  8
1
  6
Continuous
100
AcDbLine
 10
204.801758
 20
468.749969
 30
0.0
 11
204.3017429999999
 21
469.249969
 31
0.0
  0
LINE
  5
26A
330
1F3
100
AcDbEntity
  8
1
  6
Continuous
100
AcDbLine
 10
204.0017699999999
 20
480.25
 30
0.0
 11
204.0017699999999
 21
466.25
 31
0.0
  0
LINE
  5
26B
330
1F3
100
AcDbEntity
  8
1
  6
Continuous
100
AcDbLine
 10
204.0017699999999
 20
475.649994
 30
0.0
 11
202.4017639999999
 21
475.649994
 31
0.0
  0
LINE
  5
26C
330
1F3
100
AcDbEntity
  8
1
  6
Continuous
100
AcDbLine
 10
204.0017699999999
 20
470.8500059999998
 30
0.0
 11
202.4017639999999
 21
470.8500059999998
 31
0.0
  0
LINE
  5
26D
330
1F3
100
AcDbEntity
  8
1
  6
Continuous
100
AcDbLine
 10
198.8017879999999
 20
481.25
 30
0.0
 11
198.8017879999999
 21
465.2499999999998
 31
0.0
  0
LINE
  5
26E
330
1F3
100
AcDbEntity
  8
1
  6
Continuous
100
AcDbLine
 10
197.2017819999999
 20
481.25
 30
0.0
 11
197.2017819999999
 21
465.2499999999998
 31
0.0
  0
LINE
  5
26F
330
1F3
100
AcDbEntity
  8
1
  6
Continuous
100
AcDbLine
 10
197.2017819999999
 20
482.8500059999998
 30
0.0
 11
189.8017879999999
 21
482.8500059999998
 31
0.0
  0
LINE
  5
270
330
1F3
100
AcDbEntity
  8
1
  6
Continuous
100
AcDbLine
 10
197.2017819999999
 20
463.649994
 30
0.0
 11
189.8017879999999
 21
463.649994
 31
0.0
  0
LINE
  5
271
330
1F3
100
AcDbEntity
  8
1
  6
Continuous
100
AcDbLine
 10
197.2017819999999
 20
481.25
 30
0.0
 11
189.8017879999999
 21
481.25
 31
0.0
  0
LINE
  5
272
330
1F3
100
AcDbEntity
  8
1
  6
Continuous
100
AcDbLine
 10
197.2017819999999
 20
465.2499999999998
 30
0.0
 11
189.8017879999999
 21
465.2499999999998
 31
0.0
  0
LINE
  5
273
330
1F3
100
AcDbEntity
  8
1
  6
Continuous
100
AcDbLine
 10
189.8017879999999
 20
463.649994
 30
0.0
 11
189.8017879999999
 21
447.75
 31
0.0
  0
LINE
  5
274
330
1F3
100
AcDbEntity
  8
1
  6
Continuous
100
AcDbLine
 10
188.201782
 20
463.649994
 30
0.0
 11
188.201782
 21
447.75
 31
0.0
  0
LINE
  5
275
330
1F3
100
AcDbEntity
  8
1
  6
Continuous
100
AcDbLine
 10
189.8017879999999
 20
498.7499999999998
 30
0.0
 11
188.201782
 21
498.7499999999998
 31
0.0
  0
LINE
  5
276
330
1F3
100
AcDbEntity
  8
1
  6
Continuous
100
AcDbLine
 10
189.8017879999999
 20
447.75
 30
0.0
 11
188.201782
 21
447.75
 31
0.0
  0
LINE
  5
277
330
1F3
100
AcDbEntity
  8
1
  6
Continuous
100
AcDbLine
 10
196.2017819999999
 20
475.649994
 30
0.0
 11
196.2017819999999
 21
470.8500059999998
 31
0.0
  0
LINE
  5
278
330
1F3
100
AcDbEntity
  8
1
  6
Continuous
100
AcDbLine
 10
197.2017819999999
 20
475.649994
 30
0.0
 11
196.2017819999999
 21
475.649994
 31
0.0
  0
LINE
  5
279
330
1F3
100
AcDbEntity
  8
1
  6
Continuous
100
AcDbLine
 10
197.2017819999999
 20
470.8500059999998
 30
0.0
 11
196.2017819999999
 21
470.8500059999998
 31
0.0
  0
LINE
  5
27A
330
1F3
100
AcDbEntity
  8
1
  6
Continuous
100
AcDbLine
 10
219.0517819999997
 20
465.5
 30
0.0
 11
219.0517819999997
 21
461.0
 31
0.0
  0
LINE
  5
27B
330
1F3
100
AcDbEntity
  8
1
  6
Continuous
100
AcDbLine
 10
214.5517819999998
 20
465.5
 30
0.0
 11
214.5517819999998
 21
461.0
 31
0.0
  0
LINE
  5
27C
330
1F3
100
AcDbEntity
  8
1
  6
Continuous
100
AcDbLine
 10
216.8017819999997
 20
478.75
 30
0.0
 11
216.8017819999997
 21
478.75
 31
0.0
  0
LINE
  5
27D
330
1F3
100
AcDbEntity
  8
1
  6
Continuous
100
AcDbLine
 10
216.8017819999997
 20
467.75
 30
0.0
 11
216.8017819999997
 21
467.75
 31
0.0
  0
LINE
  5
27E
330
1F3
100
AcDbEntity
  8
1
  6
Continuous
100
AcDbLine
 10
216.8017819999997
 20
487.75
 30
0.0
 11
216.8017819999997
 21
487.75
 31
0.0
  0
LINE
  5
27F
330
1F3
100
AcDbEntity
  8
1
  6
Continuous
100
AcDbLine
 10
216.8017819999997
 20
458.75
 30
0.0
 11
216.8017819999997
 21
458.75
 31
0.0
  0
LINE
  5
280
330
1F3
100
AcDbEntity
  8
1
  6
Continuous
100
AcDbLine
 10
219.0517819999997
 20
485.5
 30
0.0
 11
219.0517819999997
 21
481.0
 31
0.0
  0
LINE
  5
281
330
1F3
100
AcDbEntity
  8
1
  6
Continuous
100
AcDbLine
 10
214.5517819999998
 20
485.5
 30
0.0
 11
214.5517819999998
 21
481.0
 31
0.0
  0
LINE
  5
282
330
1F3
100
AcDbEntity
  8
4
  6
CENTER
 48
0.2
100
AcDbLine
 10
228.2017819999999
 20
66.69805100000001
 30
0.0
 11
191.201782
 21
66.69805100000001
 31
0.0
  0
LINE
  5
283
330
1F3
100
AcDbEntity
  8
1
  6
Continuous
100
AcDbLine
 10
223.3017819999997
 20
55.69805099999999
 30
0.0
 11
223.3017819999997
 21
77.69805100000002
 31
0.0
  0
LINE
  5
284
330
1F3
100
AcDbEntity
  8
1
  6
Continuous
100
AcDbLine
 10
208.601807
 20
59.698051
 30
0.0
 11
208.601807
 21
73.698051
 31
0.0
  0
LINE
  5
285
330
1F3
100
AcDbEntity
  8
1
  6
Continuous
100
AcDbLine
 10
189.8017879999999
 20
41.19805099999999
 30
0.0
 11
189.8017879999999
 21
57.098053
 31
0.0
  0
LINE
  5
286
330
1F3
100
AcDbEntity
  8
1
  6
Continuous
100
AcDbLine
 10
188.201782
 20
41.19805099999999
 30
0.0
 11
188.201782
 21
57.098053
 31
0.0
  0
LINE
  5
287
330
1F3
100
AcDbEntity
  8
4
  6
CENTER
 48
0.2
100
AcDbLine
 10
216.8017819999997
 20
44.198059
 30
0.0
 11
216.8017819999997
 21
89.198059
 31
0.0
  0
LINE
  5
288
330
1F3
100
AcDbEntity
  8
1
  6
Continuous
100
AcDbLine
 10
210.3017819999998
 20
60.198051
 30
0.0
 11
208.601807
 21
60.198051
 31
0.0
  0
LINE
  5
289
330
1F3
100
AcDbEntity
  8
1
  6
Continuous
100
AcDbLine
 10
206.3017879999999
 20
59.698051
 30
0.0
 11
206.3017879999999
 21
73.698051
 31
0.0
  0
LINE
  5
28A
330
1F3
100
AcDbEntity
  8
1
  6
Continuous
100
AcDbLine
 10
208.601807
 20
59.698051
 30
0.0
 11
198.8017879999999
 21
59.698051
 31
0.0
  0
LINE
  5
28B
330
1F3
100
AcDbEntity
  8
1
  6
Continuous
100
AcDbLine
 10
211.6018069999999
 20
73.698051
 30
0.0
 11
198.8017879999999
 21
73.698051
 31
0.0
  0
LINE
  5
28C
330
1F3
100
AcDbEntity
  8
1
  6
Continuous
100
AcDbLine
 10
198.8017879999999
 20
58.698051
 30
0.0
 11
198.8017879999999
 21
74.69805100000002
 31
0.0
  0
LINE
  5
28D
330
1F3
100
AcDbEntity
  8
1
  6
Continuous
100
AcDbLine
 10
197.2017819999999
 20
58.698051
 30
0.0
 11
197.2017819999999
 21
74.69805100000002
 31
0.0
  0
LINE
  5
28E
330
1F3
100
AcDbEntity
  8
1
  6
Continuous
100
AcDbLine
 10
197.2017819999999
 20
57.098053
 30
0.0
 11
189.8017879999999
 21
57.098053
 31
0.0
  0
LINE
  5
28F
330
1F3
100
AcDbEntity
  8
1
  6
Continuous
100
AcDbLine
 10
197.2017819999999
 20
76.29805000000001
 30
0.0
 11
189.8017879999999
 21
76.29805000000001
 31
0.0
  0
LINE
  5
290
330
1F3
100
AcDbEntity
  8
1
  6
Continuous
100
AcDbLine
 10
197.2017819999999
 20
58.698051
 30
0.0
 11
189.8017879999999
 21
58.698051
 31
0.0
  0
LINE
  5
291
330
1F3
100
AcDbEntity
  8
1
  6
Continuous
100
AcDbLine
 10
197.2017819999999
 20
74.69805100000002
 30
0.0
 11
189.8017879999999
 21
74.69805100000002
 31
0.0
  0
LINE
  5
292
330
1F3
100
AcDbEntity
  8
1
  6
Continuous
100
AcDbLine
 10
189.8017879999999
 20
76.29805000000001
 30
0.0
 11
189.8017879999999
 21
92.198051
 31
0.0
  0
LINE
  5
293
330
1F3
100
AcDbEntity
  8
1
  6
Continuous
100
AcDbLine
 10
188.201782
 20
76.29805000000001
 30
0.0
 11
188.201782
 21
92.198051
 31
0.0
  0
LINE
  5
294
330
1F3
100
AcDbEntity
  8
1
  6
Continuous
100
AcDbLine
 10
197.2017819999999
 20
64.29805
 30
0.0
 11
195.601776
 21
64.29805
 31
0.0
  0
LINE
  5
295
330
1F3
100
AcDbEntity
  8
1
  6
Continuous
100
AcDbLine
 10
197.2017819999999
 20
69.09805300000001
 30
0.0
 11
195.601776
 21
69.09805300000001
 31
0.0
  0
LINE
  5
296
330
1F3
100
AcDbEntity
  8
1
  6
Continuous
100
AcDbLine
 10
219.0517819999997
 20
74.448051
 30
0.0
 11
219.0517819999997
 21
78.94805100000002
 31
0.0
  0
LINE
  5
297
330
1F3
100
AcDbEntity
  8
1
  6
Continuous
100
AcDbLine
 10
214.5517819999998
 20
74.448051
 30
0.0
 11
214.5517819999998
 21
78.94805100000002
 31
0.0
  0
LINE
  5
298
330
1F3
100
AcDbEntity
  8
1
  6
Continuous
100
AcDbLine
 10
216.7017819999998
 20
61.198051
 30
0.0
 11
216.7017819999998
 21
61.198051
 31
0.0
  0
LINE
  5
299
330
1F3
100
AcDbEntity
  8
1
  6
Continuous
100
AcDbLine
 10
216.7017819999998
 20
72.19805100000002
 30
0.0
 11
216.7017819999998
 21
72.19805100000002
 31
0.0
  0
LINE
  5
29A
330
1F3
100
AcDbEntity
  8
1
  6
Continuous
100
AcDbLine
 10
216.8017819999997
 20
52.198051
 30
0.0
 11
216.8017819999997
 21
52.198051
 31
0.0
  0
LINE
  5
29B
330
1F3
100
AcDbEntity
  8
1
  6
Continuous
100
AcDbLine
 10
216.8017819999997
 20
81.198051
 30
0.0
 11
216.8017819999997
 21
81.198051
 31
0.0
  0
LINE
  5
29C
330
1F3
100
AcDbEntity
  8
1
  6
Continuous
100
AcDbLine
 10
219.0517819999997
 20
54.44805099999999
 30
0.0
 11
219.0517819999997
 21
58.948051
 31
0.0
  0
LINE
  5
29D
330
1F3
100
AcDbEntity
  8
1
  6
Continuous
100
AcDbLine
 10
214.5517819999998
 20
54.44805099999999
 30
0.0
 11
214.5517819999998
 21
58.948051
 31
0.0
  0
LINE
  5
29E
330
1F3
100
AcDbEntity
  8
1
  6
Continuous
100
AcDbLine
 10
202.601807
 20
71.19805100000002
 30
0.0
 11
201.1018069999998
 21
71.19805100000002
 31
0.0
  0
LINE
  5
29F
330
1F3
100
AcDbEntity
  8
1
  6
Continuous
100
AcDbLine
 10
202.601807
 20
62.198051
 30
0.0
 11
201.1018069999998
 21
62.198051
 31
0.0
  0
LINE
  5
2A0
330
1F3
100
AcDbEntity
  8
1
  6
Continuous
100
AcDbLine
 10
201.1018069999998
 20
59.698051
 30
0.0
 11
201.1018069999998
 21
73.698051
 31
0.0
  0
LINE
  5
2A1
330
1F3
100
AcDbEntity
  8
1
  6
Continuous
100
AcDbLine
 10
203.1018069999999
 20
62.698051
 30
0.0
 11
203.1018069999999
 21
70.69805100000002
 31
0.0
  0
LINE
  5
2A2
330
1F3
100
AcDbEntity
  8
1
  6
Continuous
100
AcDbLine
 10
202.601807
 20
62.198051
 30
0.0
 11
202.601807
 21
71.19805100000002
 31
0.0
  0
LINE
  5
2A3
330
1F3
100
AcDbEntity
  8
1
  6
Continuous
100
AcDbLine
 10
202.6017909999999
 20
71.198059
 30
0.0
 11
203.1017909999999
 21
70.698059
 31
0.0
  0
LINE
  5
2A4
330
1F3
100
AcDbEntity
  8
1
  6
Continuous
100
AcDbLine
 10
202.6017909999999
 20
62.19805499999999
 30
0.0
 11
203.1017909999999
 21
62.698055
 31
0.0
  0
LINE
  5
2A5
330
1F3
100
AcDbEntity
  8
1
  6
Continuous
100
AcDbLine
 10
210.1018069999998
 20
71.19805100000002
 30
0.0
 11
208.601807
 21
71.19805100000002
 31
0.0
  0
LINE
  5
2A6
330
1F3
100
AcDbEntity
  8
1
  6
Continuous
100
AcDbLine
 10
210.1018069999998
 20
62.198051
 30
0.0
 11
208.601807
 21
62.198051
 31
0.0
  0
LINE
  5
2A7
330
1F3
100
AcDbEntity
  8
1
  6
Continuous
100
AcDbLine
 10
210.6018069999997
 20
62.698051
 30
0.0
 11
210.6018069999997
 21
70.69805100000002
 31
0.0
  0
LINE
  5
2A8
330
1F3
100
AcDbEntity
  8
1
  6
Continuous
100
AcDbLine
 10
210.1018069999998
 20
62.198051
 30
0.0
 11
210.1018069999998
 21
71.19805100000002
 31
0.0
  0
LINE
  5
2A9
330
1F3
100
AcDbEntity
  8
1
  6
Continuous
100
AcDbLine
 10
210.6017909999999
 20
70.69805100000002
 30
0.0
 11
210.1017909999999
 21
71.19805100000002
 31
0.0
  0
LINE
  5
2AA
330
1F3
100
AcDbEntity
  8
1
  6
Continuous
100
AcDbLine
 10
210.1017909999999
 20
62.19805499999999
 30
0.0
 11
210.6017909999999
 21
62.698055
 31
0.0
  0
LINE
  5
2AB
330
1F3
100
AcDbEntity
  8
1
  6
Continuous
100
AcDbLine
 10
210.3017819999998
 20
73.698051
 30
0.0
 11
210.3017819999998
 21
77.69805100000002
 31
0.0
  0
LINE
  5
2AC
330
1F3
100
AcDbEntity
  8
1
  6
Continuous
100
AcDbLine
 10
211.2017819999997
 20
64.29805
 30
0.0
 11
211.2017819999997
 21
69.09805300000001
 31
0.0
  0
LINE
  5
2AD
330
1F3
100
AcDbEntity
  8
1
  6
Continuous
100
AcDbLine
 10
211.2017819999997
 20
69.09805300000001
 30
0.0
 11
210.6018069999997
 21
69.09805300000001
 31
0.0
  0
LINE
  5
2AE
330
1F3
100
AcDbEntity
  8
1
  6
Continuous
100
AcDbLine
 10
211.2017819999997
 20
64.29805
 30
0.0
 11
210.6018069999997
 21
64.29805
 31
0.0
  0
LINE
  5
2AF
330
1F3
100
AcDbEntity
  8
1
  6
Continuous
100
AcDbLine
 10
189.8017879999999
 20
92.198051
 30
0.0
 11
188.201782
 21
92.198051
 31
0.0
  0
LINE
  5
2B0
330
1F3
100
AcDbEntity
  8
1
  6
Continuous
100
AcDbLine
 10
189.8017879999999
 20
41.19805099999999
 30
0.0
 11
188.201782
 21
41.19805099999999
 31
0.0
  0
LINE
  5
2B1
330
1F3
100
AcDbEntity
  8
1
  6
Continuous
100
AcDbLine
 10
211.6018069999999
 20
69.19805100000001
 30
0.0
 11
210.6018069999997
 21
69.19805100000001
 31
0.0
  0
LINE
  5
2B2
330
1F3
100
AcDbEntity
  8
1
  6
Continuous
100
AcDbLine
 10
211.6018069999999
 20
69.19805100000001
 30
0.0
 11
211.6018069999999
 21
73.698051
 31
0.0
  0
LINE
  5
2B3
330
1F3
100
AcDbEntity
  8
1
  6
Continuous
100
AcDbLine
 10
210.3017819999998
 20
55.69805899999999
 30
0.0
 11
210.3017819999998
 21
62.39804599999999
 31
0.0
  0
LINE
  5
2B4
330
1F3
100
AcDbEntity
  8
1
  6
Continuous
100
AcDbLine
 10
210.3017819999998
 20
466.75
 30
0.0
 11
210.3017819999998
 21
462.25
 31
0.0
  0
LINE
  5
2B5
330
1F3
100
AcDbEntity
  8
5
  6
PHANTOM
100
AcDbLine
 10
30.635905
 20
136.8216969999997
 30
0.0
 11
44.777605
 21
260.767552
 31
0.0
  0
LINE
  5
2B6
330
1F3
100
AcDbEntity
  8
5
  6
PHANTOM
100
AcDbLine
 10
44.54565999999998
 20
135.234653
 30
0.0
 11
58.68736099999999
 21
259.1805069999999
 31
0.0
  0
LINE
  5
2B7
330
1F3
100
AcDbEntity
  8
1
  6
Continuous
100
AcDbLine
 10
75.232483
 20
126.4740299999999
 30
0.0
 11
28.23248299999999
 21
126.4740299999999
 31
0.0
  0
LINE
  5
2B8
330
1F3
100
AcDbEntity
  8
1
  6
Continuous
100
AcDbLine
 10
77.232483
 20
144.47403
 30
0.0
 11
77.232483
 21
128.4740299999999
 31
0.0
  0
LINE
  5
2B9
330
1F3
100
AcDbEntity
  8
1
  6
Continuous
100
AcDbLine
 10
26.232483
 20
144.47403
 30
0.0
 11
26.232483
 21
128.4740299999999
 31
0.0
  0
LINE
  5
2BA
330
1F3
100
AcDbEntity
  8
1
  6
Continuous
100
AcDbLine
 10
71.482483
 20
138.7240299999999
 30
0.0
 11
66.982483
 21
138.7240299999999
 31
0.0
  0
LINE
  5
2BB
330
1F3
100
AcDbEntity
  8
1
  6
Continuous
100
AcDbLine
 10
71.482483
 20
134.22403
 30
0.0
 11
66.982483
 21
134.22403
 31
0.0
  0
LINE
  5
2BC
330
1F3
100
AcDbEntity
  8
1
  6
Continuous
100
AcDbLine
 10
64.732483
 20
136.47403
 30
0.0
 11
64.732483
 21
136.47403
 31
0.0
  0
LINE
  5
2BD
330
1F3
100
AcDbEntity
  8
1
  6
Continuous
100
AcDbLine
 10
73.732483
 20
136.47403
 30
0.0
 11
73.732483
 21
136.47403
 31
0.0
  0
LINE
  5
2BE
330
1F3
100
AcDbEntity
  8
1
  6
Continuous
100
AcDbLine
 10
38.732483
 20
136.47403
 30
0.0
 11
38.732483
 21
136.47403
 31
0.0
  0
LINE
  5
2BF
330
1F3
100
AcDbEntity
  8
1
  6
Continuous
100
AcDbLine
 10
36.482483
 20
138.7240299999999
 30
0.0
 11
31.98248299999999
 21
138.7240299999999
 31
0.0
  0
LINE
  5
2C0
330
1F3
100
AcDbEntity
  8
1
  6
Continuous
100
AcDbLine
 10
36.482483
 20
134.22403
 30
0.0
 11
31.98248299999999
 21
134.22403
 31
0.0
  0
LINE
  5
2C1
330
1F3
100
AcDbEntity
  8
1
  6
Continuous
100
AcDbLine
 10
29.73248299999999
 20
136.47403
 30
0.0
 11
29.73248299999999
 21
136.47403
 31
0.0
  0
LINE
  5
2C2
330
1F3
100
AcDbEntity
  8
4
  6
CENTER
 48
0.2
100
AcDbLine
 10
49.232483
 20
273.9740299999999
 30
0.0
 11
63.732483
 21
273.9740299999999
 31
0.0
  0
LINE
  5
2C3
330
1F3
100
AcDbEntity
  8
1
  6
Continuous
100
AcDbLine
 10
54.232483
 20
276.9740299999999
 30
0.0
 11
54.232483
 21
270.9740299999999
 31
0.0
  0
LINE
  5
2C4
330
1F3
100
AcDbEntity
  8
1
  6
Continuous
100
AcDbLine
 10
75.232483
 20
146.47403
 30
0.0
 11
28.23248299999999
 21
146.47403
 31
0.0
  0
LINE
  5
2C5
330
1F3
100
AcDbEntity
  8
1
  6
Continuous
100
AcDbLine
 10
510.863098
 20
391.7240299999999
 30
0.0
 11
510.863098
 21
251.7240299999999
 31
0.0
  0
LINE
  5
2C6
330
1F3
100
AcDbEntity
  8
1
  6
Continuous
100
AcDbLine
 10
513.163086
 20
391.7240299999999
 30
0.0
 11
513.163086
 21
158.526655
 31
0.0
  0
LINE
  5
2C7
330
1F3
100
AcDbEntity
  8
1
  6
Continuous
100
AcDbLine
 10
496.163123
 20
393.4740299999999
 30
0.0
 11
509.163092
 21
393.4740299999999
 31
0.0
  0
LINE
  5
2C8
330
1F3
100
AcDbEntity
  8
1
  6
Continuous
100
AcDbLine
 10
496.163123
 20
391.874023
 30
0.0
 11
509.1631229999999
 21
391.874023
 31
0.0
  0
LINE
  5
2C9
330
1F3
100
AcDbEntity
  8
1
  6
Continuous
100
AcDbLine
 10
496.163123
 20
393.4740299999999
 30
0.0
 11
496.163123
 21
391.874023
 31
0.0
  0
LINE
  5
2CA
330
1F3
100
AcDbEntity
  8
1
  6
Continuous
100
AcDbLine
 10
509.1631229999999
 20
393.4740299999999
 30
0.0
 11
509.1631229999999
 21
376.9740299999999
 31
0.0
  0
LINE
  5
2CB
330
1F3
100
AcDbEntity
  8
1
  6
Continuous
100
AcDbLine
 10
509.1631229999999
 20
376.9740299999999
 30
0.0
 11
510.763098
 21
376.9740299999999
 31
0.0
  0
LINE
  5
2CC
330
1F3
100
AcDbEntity
  8
4
  6
CENTER
 48
0.2
100
AcDbLine
 10
503.2631229999998
 20
383.4740299999999
 30
0.0
 11
520.163086
 21
383.4740299999999
 31
0.0
  0
LINE
  5
2CD
330
1F3
100
AcDbEntity
  8
4
  6
CENTER
 48
0.2
100
AcDbLine
 10
503.8630979999998
 20
259.9740299999999
 30
0.0
 11
521.4631349999998
 21
259.9740299999999
 31
0.0
  0
LINE
  5
2CE
330
1F3
100
AcDbEntity
  8
4
  6
CENTER
 48
0.2
100
AcDbLine
 10
511.263098
 20
136.47403
 30
0.0
 11
536.263123
 21
136.47403
 31
0.0
  0
LINE
  5
2CF
330
1F3
100
AcDbEntity
  8
4
  6
CENTER
 48
0.2
100
AcDbLine
 10
507.663086
 20
289.9740299999999
 30
0.0
 11
518.663147
 21
289.9740299999999
 31
0.0
  0
LINE
  5
2D0
330
1F3
100
AcDbEntity
  8
4
  6
CENTER
 48
0.2
100
AcDbLine
 10
504.688721
 20
273.9740299999999
 30
0.0
 11
518.663147
 21
273.9740299999999
 31
0.0
  0
LINE
  5
2D1
330
1F3
100
AcDbEntity
  8
1
  6
Continuous
100
AcDbLine
 10
513.163086
 20
296.9740299999999
 30
0.0
 11
515.4631349999998
 21
296.9740299999999
 31
0.0
  0
LINE
  5
2D2
330
1F3
100
AcDbEntity
  8
1
  6
Continuous
100
AcDbLine
 10
520.663086
 20
147.983646
 30
0.0
 11
520.663086
 21
126.4740299999999
 31
0.0
  0
LINE
  5
2D3
330
1F3
100
AcDbEntity
  8
1
  6
Continuous
100
AcDbLine
 10
518.3630979999998
 20
147.97403
 30
0.0
 11
518.3630979999998
 21
129.97403
 31
0.0
  0
LINE
  5
2D4
330
1F3
100
AcDbEntity
  8
1
  6
Continuous
100
AcDbLine
 10
518.3630979999998
 20
129.97403
 30
0.0
 11
520.663086
 21
129.97403
 31
0.0
  0
LINE
  5
2D5
330
1F3
100
AcDbEntity
  8
1
  6
Continuous
100
AcDbLine
 10
513.414165
 20
157.481703
 30
0.0
 11
518.3630979999998
 21
147.9740139999998
 31
0.0
  0
LINE
  5
2D6
330
1F3
100
AcDbEntity
  8
1
  6
Continuous
100
AcDbLine
 10
520.663086
 20
146.47403
 30
0.0
 11
531.263123
 21
146.47403
 31
0.0
  0
LINE
  5
2D7
330
1F3
100
AcDbEntity
  8
1
  6
Continuous
100
AcDbLine
 10
520.663086
 20
126.4740299999999
 30
0.0
 11
531.263123
 21
126.4740299999999
 31
0.0
  0
LINE
  5
2D8
330
1F3
100
AcDbEntity
  8
1
  6
Continuous
100
AcDbLine
 10
531.263123
 20
146.47403
 30
0.0
 11
531.263123
 21
126.4740299999999
 31
0.0
  0
LINE
  5
2D9
330
1F3
100
AcDbEntity
  8
1
  6
Continuous
100
AcDbLine
 10
529.663086
 20
146.47403
 30
0.0
 11
529.663086
 21
126.4740299999999
 31
0.0
  0
LINE
  5
2DA
330
1F3
100
AcDbEntity
  8
1
  6
Continuous
100
AcDbLine
 10
513.163147
 20
277.4740299999999
 30
0.0
 11
513.163147
 21
277.4740299999999
 31
0.0
  0
LINE
  5
2DB
330
1F3
100
AcDbEntity
  8
1
  6
Continuous
100
AcDbLine
 10
513.163147
 20
270.4739989999999
 30
0.0
 11
513.163147
 21
270.4739989999999
 31
0.0
  0
LINE
  5
2DC
330
1F3
100
AcDbEntity
  8
1
  6
Continuous
100
AcDbLine
 10
515.4631349999998
 20
296.9740299999999
 30
0.0
 11
515.4631349999998
 21
158.536209
 31
0.0
  0
LINE
  5
2DD
330
1F3
100
AcDbEntity
  8
3
  6
DASHED
 48
0.1
100
AcDbLine
 10
510.863098
 20
292.0740359999998
 30
0.0
 11
513.163086
 21
292.0740359999998
 31
0.0
  0
LINE
  5
2DE
330
1F3
100
AcDbEntity
  8
3
  6
DASHED
 48
0.1
100
AcDbLine
 10
510.863098
 20
287.874023
 30
0.0
 11
513.163086
 21
287.874023
 31
0.0
  0
LINE
  5
2DF
330
1F3
100
AcDbEntity
  8
1
  6
Continuous
100
AcDbLine
 10
516.863098
 20
140.9740299999999
 30
0.0
 11
518.3630979999998
 21
140.9740299999999
 31
0.0
  0
LINE
  5
2E0
330
1F3
100
AcDbEntity
  8
1
  6
Continuous
100
AcDbLine
 10
516.863098
 20
131.97403
 30
0.0
 11
518.3630979999998
 21
131.97403
 31
0.0
  0
LINE
  5
2E1
330
1F3
100
AcDbEntity
  8
1
  6
Continuous
100
AcDbLine
 10
516.363098
 20
140.47403
 30
0.0
 11
516.363098
 21
132.4740299999999
 31
0.0
  0
LINE
  5
2E2
330
1F3
100
AcDbEntity
  8
1
  6
Continuous
100
AcDbLine
 10
516.863098
 20
140.9740299999999
 30
0.0
 11
516.863098
 21
131.97403
 31
0.0
  0
LINE
  5
2E3
330
1F3
100
AcDbEntity
  8
1
  6
Continuous
100
AcDbLine
 10
516.363159
 20
140.474045
 30
0.0
 11
516.863159
 21
140.9740449999999
 31
0.0
  0
LINE
  5
2E4
330
1F3
100
AcDbEntity
  8
1
  6
Continuous
100
AcDbLine
 10
516.863159
 20
131.97406
 30
0.0
 11
516.363159
 21
132.4740449999999
 31
0.0
  0
LINE
  5
2E5
330
1F3
100
AcDbEntity
  8
1
  6
Continuous
100
AcDbLine
 10
509.3630979999998
 20
264.4740299999999
 30
0.0
 11
510.863098
 21
264.4740299999999
 31
0.0
  0
LINE
  5
2E6
330
1F3
100
AcDbEntity
  8
1
  6
Continuous
100
AcDbLine
 10
509.3630979999998
 20
255.4740299999999
 30
0.0
 11
510.863098
 21
255.4740299999999
 31
0.0
  0
LINE
  5
2E7
330
1F3
100
AcDbEntity
  8
1
  6
Continuous
100
AcDbLine
 10
508.8630979999998
 20
263.9740299999999
 30
0.0
 11
508.8630979999998
 21
255.9740299999999
 31
0.0
  0
LINE
  5
2E8
330
1F3
100
AcDbEntity
  8
1
  6
Continuous
100
AcDbLine
 10
509.3630979999998
 20
264.4740299999999
 30
0.0
 11
509.3630979999998
 21
255.4740299999999
 31
0.0
  0
LINE
  5
2E9
330
1F3
100
AcDbEntity
  8
1
  6
Continuous
100
AcDbLine
 10
509.363129
 20
264.4740299999999
 30
0.0
 11
508.863129
 21
263.9740299999999
 31
0.0
  0
LINE
  5
2EA
330
1F3
100
AcDbEntity
  8
1
  6
Continuous
100
AcDbLine
 10
509.3630979999998
 20
255.4740299999999
 30
0.0
 11
508.8630979999998
 21
255.9740299999999
 31
0.0
  0
LINE
  5
2EB
330
1F3
100
AcDbEntity
  8
1
  6
Continuous
100
AcDbLine
 10
515.4631349999998
 20
262.374023
 30
0.0
 11
516.4631349999998
 21
262.374023
 31
0.0
  0
LINE
  5
2EC
330
1F3
100
AcDbEntity
  8
1
  6
Continuous
100
AcDbLine
 10
515.4631349999998
 20
257.5740359999999
 30
0.0
 11
516.4631349999998
 21
257.5740359999999
 31
0.0
  0
LINE
  5
2ED
330
1F3
100
AcDbEntity
  8
1
  6
Continuous
100
AcDbLine
 10
516.4631349999998
 20
262.374023
 30
0.0
 11
516.4631349999998
 21
257.5740359999999
 31
0.0
  0
LINE
  5
2EE
330
1F3
100
AcDbEntity
  8
1
  6
Continuous
100
AcDbLine
 10
513.163086
 20
387.9740299999999
 30
0.0
 11
514.663086
 21
387.9740299999999
 31
0.0
  0
LINE
  5
2EF
330
1F3
100
AcDbEntity
  8
1
  6
Continuous
100
AcDbLine
 10
513.163086
 20
378.9740299999999
 30
0.0
 11
514.663086
 21
378.9740299999999
 31
0.0
  0
LINE
  5
2F0
330
1F3
100
AcDbEntity
  8
1
  6
Continuous
100
AcDbLine
 10
515.163086
 20
387.4740299999999
 30
0.0
 11
515.163086
 21
379.4740299999999
 31
0.0
  0
LINE
  5
2F1
330
1F3
100
AcDbEntity
  8
1
  6
Continuous
100
AcDbLine
 10
514.663086
 20
387.9740299999999
 30
0.0
 11
514.663086
 21
378.9740299999999
 31
0.0
  0
LINE
  5
2F2
330
1F3
100
AcDbEntity
  8
1
  6
Continuous
100
AcDbLine
 10
515.1631469999998
 20
387.4740909999999
 30
0.0
 11
514.663208
 21
387.9740909999999
 31
0.0
  0
LINE
  5
2F3
330
1F3
100
AcDbEntity
  8
1
  6
Continuous
100
AcDbLine
 10
515.163086
 20
379.47406
 30
0.0
 11
514.663086
 21
378.9740299999999
 31
0.0
  0
LINE
  5
2F4
330
1F3
100
AcDbEntity
  8
1
  6
Continuous
100
AcDbLine
 10
507.5631159999998
 20
385.874023
 30
0.0
 11
509.1631229999999
 21
385.874023
 31
0.0
  0
LINE
  5
2F5
330
1F3
100
AcDbEntity
  8
1
  6
Continuous
100
AcDbLine
 10
507.5631159999998
 20
381.074036
 30
0.0
 11
509.1631229999999
 21
381.074036
 31
0.0
  0
LINE
  5
2F6
330
1F3
100
AcDbEntity
  8
4
  6
CENTER
 48
0.1
100
AcDbLine
 10
502.6631229999998
 20
396.4740299999998
 30
0.0
 11
502.6631229999998
 21
388.874023
 31
0.0
  0
LINE
  5
2F7
330
1F3
100
AcDbEntity
  8
1
  6
Continuous
100
AcDbLine
 10
43.732483
 20
146.47403
 30
0.0
 11
43.732483
 21
126.4740299999999
 31
0.0
  0
LINE
  5
2F8
330
1F3
100
AcDbEntity
  8
1
  6
Continuous
100
AcDbLine
 10
59.73248299999998
 20
146.47403
 30
0.0
 11
59.73248299999998
 21
126.4740299999999
 31
0.0
  0
LINE
  5
2F9
330
1F3
100
AcDbEntity
  8
1
  6
Continuous
100
AcDbLine
 10
352.771118
 20
277.4740299999999
 30
0.0
 11
352.771118
 21
270.4740299999999
 31
0.0
  0
LINE
  5
2FA
330
1F3
100
AcDbEntity
  8
1
  6
Continuous
100
AcDbLine
 10
54.232483
 20
270.9740299999999
 30
0.0
 11
58.732483
 21
270.9740299999999
 31
0.0
  0
LINE
  5
2FB
330
1F3
100
AcDbEntity
  8
1
  6
Continuous
100
AcDbLine
 10
54.232483
 20
276.9740299999999
 30
0.0
 11
58.732483
 21
276.9740299999999
 31
0.0
  0
LINE
  5
2FC
330
1F3
100
AcDbEntity
  8
1
  6
Continuous
100
AcDbLine
 10
348.2711179999999
 20
270.4740299999999
 30
0.0
 11
352.771118
 21
270.4740299999999
 31
0.0
  0
LINE
  5
2FD
330
1F3
100
AcDbEntity
  8
1
  6
Continuous
100
AcDbLine
 10
348.2711179999999
 20
277.4740299999999
 30
0.0
 11
352.771118
 21
277.4740299999999
 31
0.0
  0
LINE
  5
2FE
330
1F3
100
AcDbEntity
  8
4
  6
CENTER
 48
0.2
100
AcDbLine
 10
34.232483
 20
141.592728
 30
0.0
 11
34.232483
 21
131.699722
 31
0.0
  0
LINE
  5
2FF
330
1F3
100
AcDbEntity
  8
4
  6
CENTER
 48
0.2
100
AcDbLine
 10
69.232483
 20
141.369797
 30
0.0
 11
69.232483
 21
131.3377529999999
 31
0.0
  0
LINE
  5
300
330
1F3
100
AcDbEntity
  8
4
  6
CENTER
 48
0.2
100
AcDbLine
 10
193.001785
 20
490.7499999999997
 30
0.0
 11
185.001785
 21
490.7499999999997
 31
0.0
  0
LINE
  5
301
330
1F3
100
AcDbEntity
  8
4
  6
CENTER
 48
0.2
100
AcDbLine
 10
193.001785
 20
455.75
 30
0.0
 11
185.001785
 21
455.75
 31
0.0
  0
LINE
  5
302
330
1F3
100
AcDbEntity
  8
4
  6
CENTER
 48
0.2
100
AcDbLine
 10
193.001785
 20
84.198059
 30
0.0
 11
185.001785
 21
84.198059
 31
0.0
  0
LINE
  5
303
330
1F3
100
AcDbEntity
  8
4
  6
CENTER
 48
0.2
100
AcDbLine
 10
193.001785
 20
49.198059
 30
0.0
 11
185.001785
 21
49.198059
 31
0.0
  0
LINE
  5
304
330
1F3
100
AcDbEntity
  8
4
  6
CENTER
 48
0.2
100
AcDbLine
 10
221.5517819999998
 20
56.698059
 30
0.0
 11
212.0517819999998
 21
56.698059
 31
0.0
  0
LINE
  5
305
330
1F3
100
AcDbEntity
  8
4
  6
CENTER
 48
0.2
100
AcDbLine
 10
221.5517819999998
 20
76.698059
 30
0.0
 11
212.0517819999998
 21
76.698059
 31
0.0
  0
LINE
  5
306
330
1F3
100
AcDbEntity
  8
4
  6
CENTER
 48
0.1
100
AcDbLine
 10
345.271118
 20
396.4740299999998
 30
0.0
 11
345.271118
 21
388.874023
 31
0.0
  0
LINE
  5
307
330
1F3
100
AcDbEntity
  8
4
  6
CENTER
 48
0.1
100
AcDbLine
 10
365.271118
 20
396.4740299999998
 30
0.0
 11
365.271118
 21
388.874023
 31
0.0
  0
LINE
  5
308
330
1F3
100
AcDbEntity
  8
4
  6
CENTER
 48
0.2
100
AcDbLine
 10
337.7711179999999
 20
141.22403
 30
0.0
 11
337.7711179999999
 21
131.7240299999999
 31
0.0
  0
LINE
  5
309
330
1F3
100
AcDbEntity
  8
4
  6
CENTER
 48
0.2
100
AcDbLine
 10
372.771118
 20
141.22403
 30
0.0
 11
372.771118
 21
131.7240299999999
 31
0.0
  0
LINE
  5
30A
330
1F3
100
AcDbEntity
  8
4
  6
CENTER
 48
0.2
100
AcDbLine
 10
221.5517819999998
 20
463.25
 30
0.0
 11
212.0517819999998
 21
463.25
 31
0.0
  0
LINE
  5
30B
330
1F3
100
AcDbEntity
  8
4
  6
CENTER
 48
0.2
100
AcDbLine
 10
221.5517819999998
 20
483.25
 30
0.0
 11
212.0517819999998
 21
483.25
 31
0.0
  0
LINE
  5
30C
330
1F3
100
AcDbEntity
  8
1
  6
Continuous
100
AcDbLine
 10
206.3017879999999
 20
277.084198
 30
0.0
 11
208.9676359999999
 21
273.9740299999999
 31
0.0
  0
LINE
  5
30D
330
1F3
100
AcDbEntity
  8
1
  6
Continuous
100
AcDbLine
 10
206.3017879999999
 20
270.8638919999998
 30
0.0
 11
208.9676359999999
 21
273.9740299999999
 31
0.0
  0
LINE
  5
30E
330
1F3
100
AcDbEntity
  8
1
  6
Continuous
100
AcDbLine
 10
510.863098
 20
274.4007869999999
 30
0.0
 11
510.4973139999998
 21
273.9740299999999
 31
0.0
  0
LINE
  5
30F
330
1F3
100
AcDbEntity
  8
1
  6
Continuous
100
AcDbLine
 10
510.863098
 20
273.5472409999999
 30
0.0
 11
510.497284
 21
273.9740299999999
 31
0.0
  0
LINE
  5
310
330
1F3
100
AcDbEntity
  8
1
  6
Continuous
100
AcDbLine
 10
206.1983799999999
 20
273.9740299999999
 30
0.0
 11
204.0017699999999
 21
271.3381039999998
 31
0.0
  0
LINE
  5
311
330
1F3
100
AcDbEntity
  8
1
  6
Continuous
100
AcDbLine
 10
204.0017699999999
 20
276.6099239999999
 30
0.0
 11
206.198364
 21
273.9739989999999
 31
0.0
  0
LINE
  5
312
330
1F3
100
AcDbEntity
  8
4
  6
CENTER
 48
0.1
100
AcDbLine
 10
54.73248299999998
 20
289.9740299999999
 30
0.0
 11
48.732483
 21
289.9740299999999
 31
0.0
  0
LINE
  5
313
330
1F3
100
AcDbEntity
  8
4
  6
CENTER
 48
0.1
100
AcDbLine
 10
51.732483
 20
292.9740299999999
 30
0.0
 11
51.732483
 21
286.9740299999999
 31
0.0
  0
LINE
  5
314
330
1F3
100
AcDbEntity
  8
4
  6
CENTER
 48
0.2
100
AcDbLine
 10
56.532482
 20
259.9740299999999
 30
0.0
 11
46.932484
 21
259.9740299999999
 31
0.0
  0
LINE
  5
315
330
1F3
100
AcDbEntity
  8
4
  6
CENTER
 48
0.2
100
AcDbLine
 10
51.732483
 20
264.774017
 30
0.0
 11
51.732483
 21
255.1740259999998
 31
0.0
  0
LINE
  5
316
330
1F3
100
AcDbEntity
  8
4
  6
CENTER
 48
0.2
100
AcDbLine
 10
82.23248299999999
 20
136.47403
 30
0.0
 11
21.23248299999998
 21
136.47403
 31
0.0
  0
LINE
  5
317
330
1F3
100
AcDbEntity
  8
4
  6
CENTER
 48
0.2
100
AcDbLine
 10
51.732483
 20
141.274033
 30
0.0
 11
51.732483
 21
131.6740259999999
 31
0.0
  0
LINE
  5
318
330
1F3
100
AcDbEntity
  8
4
  6
CENTER
 48
0.2
100
AcDbLine
 10
360.071106
 20
383.4740299999999
 30
0.0
 11
350.4711299999998
 21
383.4740299999999
 31
0.0
  0
LINE
  5
319
330
1F3
100
AcDbEntity
  8
4
  6
CENTER
 48
0.2
100
AcDbLine
 10
355.271118
 20
388.274017
 30
0.0
 11
355.271118
 21
378.674042
 31
0.0
  0
LINE
  5
31A
330
1F3
100
AcDbEntity
  8
4
  6
CENTER
 48
0.2
100
AcDbLine
 10
359.371124
 20
289.9740299999999
 30
0.0
 11
351.171112
 21
289.9740299999999
 31
0.0
  0
LINE
  5
31B
330
1F3
100
AcDbEntity
  8
4
  6
CENTER
 48
0.2
100
AcDbLine
 10
355.271118
 20
294.0740359999998
 30
0.0
 11
355.271118
 21
285.874023
 31
0.0
  0
LINE
  5
31C
330
1F3
100
AcDbEntity
  8
4
  6
CENTER
 48
0.2
100
AcDbLine
 10
364.7711179999998
 20
259.9740299999999
 30
0.0
 11
345.7711179999998
 21
259.9740299999999
 31
0.0
  0
LINE
  5
31D
330
1F3
100
AcDbEntity
  8
4
  6
CENTER
 48
0.2
100
AcDbLine
 10
355.271118
 20
269.4740299999998
 30
0.0
 11
355.271118
 21
250.4740299999999
 31
0.0
  0
LINE
  5
31E
330
1F3
100
AcDbEntity
  8
4
  6
CENTER
 48
0.2
100
AcDbLine
 10
385.7711179999999
 20
136.47403
 30
0.0
 11
324.771118
 21
136.47403
 31
0.0
  0
LINE
  5
31F
330
1F3
100
AcDbEntity
  8
4
  6
CENTER
 48
0.2
100
AcDbLine
 10
355.271118
 20
145.9740299999999
 30
0.0
 11
355.271118
 21
126.97403
 31
0.0
  0
LINE
  5
320
330
1F3
100
AcDbEntity
  8
1
  6
Continuous
100
AcDbLine
 10
204.0017699999999
 20
158.536255
 30
0.0
 11
199.0528669999999
 21
149.028596
 31
0.0
  0
LINE
  5
321
330
1F3
100
AcDbEntity
  8
1
  6
Continuous
100
AcDbLine
 10
515.4631349999998
 20
158.536194
 30
0.0
 11
520.4120079999999
 21
149.028596
 31
0.0
  0
LINE
  5
322
330
1F3
100
AcDbEntity
  8
1
  6
Continuous
100
AcDbLine
 10
54.232483
 20
273.9740299999999
 30
0.0
 11
58.732483
 21
273.9740299999999
 31
0.0
  0
LINE
  5
323
330
1F3
100
AcDbEntity
  8
1
  6
Continuous
100
AcDbLine
 10
44.732483
 20
158.53627
 30
0.0
 11
58.732483
 21
158.53627
 31
0.0
  0
LINE
  5
324
330
1F3
100
AcDbEntity
  8
1
  6
Continuous
100
AcDbLine
 10
348.2711179999999
 20
157.97403
 30
0.0
 11
362.271118
 21
157.97403
 31
0.0
  0
LINE
  5
325
330
1F3
100
AcDbEntity
  8
1
  6
Continuous
100
AcDbLine
 10
44.732483
 20
148.536301
 30
0.0
 11
58.732483
 21
148.536301
 31
0.0
  0
LINE
  5
326
330
1F3
100
AcDbEntity
  8
1
  6
Continuous
100
AcDbLine
 10
348.2711179999999
 20
273.9740299999999
 30
0.0
 11
352.771118
 21
273.9740299999999
 31
0.0
  0
LINE
  5
327
330
1F3
100
AcDbEntity
  8
1
  6
Continuous
100
AcDbLine
 10
211.9017879999999
 20
385.874023
 30
0.0
 11
211.9017879999999
 21
381.074036
 31
0.0
  0
LINE
  5
328
330
1F3
100
AcDbEntity
  8
1
  6
Continuous
100
AcDbLine
 10
507.5631159999998
 20
385.874023
 30
0.0
 11
507.5631159999998
 21
381.074036
 31
0.0
  0
LINE
  5
329
330
1F3
100
AcDbEntity
  8
1
  6
Continuous
100
AcDbLine
 10
195.601776
 20
64.29805
 30
0.0
 11
195.601776
 21
69.09805300000001
 31
0.0
  0
LINE
  5
32A
330
1F3
100
AcDbEntity
  8
1
  6
Continuous
100
AcDbLine
 10
202.4017639999999
 20
475.649994
 30
0.0
 11
202.4017639999999
 21
470.8500059999998
 31
0.0
  0
LINE
  5
32B
330
1F3
100
AcDbEntity
  8
1
  6
Continuous
100
AcDbLine
 10
208.601807
 20
391.7240299999999
 30
0.0
 11
206.3017879999999
 21
391.7240299999999
 31
0.0
  0
LINE
  5
32C
330
1F3
100
AcDbEntity
  8
1
  6
Continuous
100
AcDbLine
 10
208.601807
 20
251.7240299999999
 30
0.0
 11
206.3017879999999
 21
251.7240299999999
 31
0.0
  0
LINE
  5
32D
330
1F3
100
AcDbEntity
  8
1
  6
Continuous
100
AcDbLine
 10
510.863098
 20
391.7240299999999
 30
0.0
 11
513.163086
 21
391.7240299999999
 31
0.0
  0
LINE
  5
32E
330
1F3
100
AcDbEntity
  8
1
  6
Continuous
100
AcDbLine
 10
510.863098
 20
251.7240299999999
 30
0.0
 11
513.163086
 21
251.7240299999999
 31
0.0
  0
CIRCLE
  5
32F
330
1F3
100
AcDbEntity
  8
1
  6
Continuous
100
AcDbCircle
 10
355.271118
 20
136.47403
 30
0.0
 40
4.5
  0
CIRCLE
  5
330
330
1F3
100
AcDbEntity
  8
1
  6
Continuous
100
AcDbCircle
 10
355.271118
 20
259.9740299999999
 30
0.0
 40
4.5
  0
CIRCLE
  5
331
330
1F3
100
AcDbEntity
  8
1
  6
Continuous
100
AcDbCircle
 10
355.271118
 20
383.4740299999999
 30
0.0
 40
2.399999999999999
  0
ARC
  5
332
330
1F3
100
AcDbEntity
  8
1
  6
Continuous
100
AcDbCircle
 10
355.271118
 20
136.9740299999999
 30
0.0
 40
7.0
100
AcDbArc
 50
179.9999909999999
 51
0.00001
  0
ARC
  5
333
330
1F3
100
AcDbEntity
  8
1
  6
Continuous
100
AcDbCircle
 10
355.271118
 20
259.9740299999999
 30
0.0
 40
7.0
100
AcDbArc
 50
179.9999909999999
 51
0.00001
  0
ARC
  5
334
330
1F3
100
AcDbEntity
  8
1
  6
Continuous
100
AcDbCircle
 10
355.271118
 20
384.7240299999999
 30
0.0
 40
7.0
100
AcDbArc
 50
0.0
 51
21.78678899999999
  0
ARC
  5
335
330
1F3
100
AcDbEntity
  8
1
  6
Continuous
100
AcDbCircle
 10
355.271118
 20
384.7240299999999
 30
0.0
 40
7.0
100
AcDbArc
 50
158.2132039999999
 51
180.000005
  0
ARC
  5
336
330
1F3
100
AcDbEntity
  8
1
  6
Continuous
100
AcDbCircle
 10
378.771118
 20
144.47403
 30
0.0
 40
2.0
100
AcDbArc
 50
0.0
 51
90.00000300000001
  0
ARC
  5
337
330
1F3
100
AcDbEntity
  8
1
  6
Continuous
100
AcDbCircle
 10
378.771118
 20
128.4740299999999
 30
0.0
 40
2.0
100
AcDbArc
 50
269.9999969999999
 51
0.0
  0
ARC
  5
338
330
1F3
100
AcDbEntity
  8
1
  6
Continuous
100
AcDbCircle
 10
331.7711179999998
 20
128.4740299999999
 30
0.0
 40
2.0
100
AcDbArc
 50
179.9999909999999
 51
270.000001
  0
ARC
  5
339
330
1F3
100
AcDbEntity
  8
1
  6
Continuous
100
AcDbCircle
 10
331.7711179999998
 20
144.47403
 30
0.0
 40
2.0
100
AcDbArc
 50
90.00000300000001
 51
180.000005
  0
ARC
  5
33A
330
1F3
100
AcDbEntity
  8
1
  6
Continuous
100
AcDbCircle
 10
335.5211179999999
 20
136.47403
 30
0.0
 40
2.25
100
AcDbArc
 50
90.00000300000001
 51
270.000001
  0
ARC
  5
33B
330
1F3
100
AcDbEntity
  8
1
  6
Continuous
100
AcDbCircle
 10
340.0211179999999
 20
136.47403
 30
0.0
 40
2.25
100
AcDbArc
 50
269.9999969999999
 51
90.00000300000001
  0
ARC
  5
33C
330
1F3
100
AcDbEntity
  8
1
  6
Continuous
100
AcDbCircle
 10
370.521118
 20
136.47403
 30
0.0
 40
2.25
100
AcDbArc
 50
90.00000300000001
 51
270.000001
  0
ARC
  5
33D
330
1F3
100
AcDbEntity
  8
1
  6
Continuous
100
AcDbCircle
 10
375.0211179999998
 20
136.47403
 30
0.0
 40
2.25
100
AcDbArc
 50
269.9999969999999
 51
90.00000300000001
  0
CIRCLE
  5
33E
330
1F3
100
AcDbEntity
  8
1
  6
Continuous
100
AcDbCircle
 10
355.271118
 20
289.9740299999999
 30
0.0
 40
2.1
  0
ARC
  5
33F
330
1F3
100
AcDbEntity
  8
3
  6
DASHED
 48
0.1
100
AcDbCircle
 10
204.8017879999999
 20
289.9740299999999
 30
0.0
 40
2.5
100
AcDbArc
 50
306.869908
 51
53.13009799999999
  0
ARC
  5
340
330
1F3
100
AcDbEntity
  8
1
  6
Continuous
100
AcDbCircle
 10
216.8017819999997
 20
484.25
 30
0.0
 40
6.5
100
AcDbArc
 50
359.999995
 51
180.000005
  0
ARC
  5
341
330
1F3
100
AcDbEntity
  8
1
  6
Continuous
100
AcDbCircle
 10
216.8017819999997
 20
462.25
 30
0.0
 40
6.5
100
AcDbArc
 50
179.9999909999999
 51
0.00001
  0
ARC
  5
342
330
1F3
100
AcDbEntity
  8
1
  6
Continuous
100
AcDbCircle
 10
197.2017819999999
 20
481.25
 30
0.0
 40
1.6
100
AcDbArc
 50
359.999995
 51
89.99999599999998
  0
ARC
  5
343
330
1F3
100
AcDbEntity
  8
1
  6
Continuous
100
AcDbCircle
 10
197.2017819999999
 20
465.2499999999998
 30
0.0
 40
1.6
100
AcDbArc
 50
269.9999969999999
 51
0.000009
  0
ARC
  5
344
330
1F3
100
AcDbEntity
  8
1
  6
Continuous
100
AcDbCircle
 10
189.8017879999999
 20
482.8500059999998
 30
0.0
 40
1.6
100
AcDbArc
 50
179.9999909999999
 51
270.000001
  0
ARC
  5
345
330
1F3
100
AcDbEntity
  8
1
  6
Continuous
100
AcDbCircle
 10
189.8017879999999
 20
463.649994
 30
0.0
 40
1.6
100
AcDbArc
 50
89.99999599999998
 51
180.000005
  0
ARC
  5
346
330
1F3
100
AcDbEntity
  8
1
  6
Continuous
100
AcDbCircle
 10
216.8017819999997
 20
485.5
 30
0.0
 40
2.25
100
AcDbArc
 50
0.0
 51
180.000005
  0
ARC
  5
347
330
1F3
100
AcDbEntity
  8
1
  6
Continuous
100
AcDbCircle
 10
216.8017819999997
 20
481.0
 30
0.0
 40
2.25
100
AcDbArc
 50
179.9999909999999
 51
0.00001
  0
ARC
  5
348
330
1F3
100
AcDbEntity
  8
1
  6
Continuous
100
AcDbCircle
 10
216.8017819999997
 20
465.5
 30
0.0
 40
2.25
100
AcDbArc
 50
0.0
 51
180.000005
  0
ARC
  5
349
330
1F3
100
AcDbEntity
  8
1
  6
Continuous
100
AcDbCircle
 10
216.8017819999997
 20
461.0
 30
0.0
 40
2.25
100
AcDbArc
 50
179.9999909999999
 51
0.00001
  0
ARC
  5
34A
330
1F3
100
AcDbEntity
  8
1
  6
Continuous
100
AcDbCircle
 10
216.8017819999997
 20
55.69805099999999
 30
0.0
 40
6.5
100
AcDbArc
 50
179.9999909999999
 51
0.00001
  0
ARC
  5
34B
330
1F3
100
AcDbEntity
  8
1
  6
Continuous
100
AcDbCircle
 10
216.8017819999997
 20
77.69805100000002
 30
0.0
 40
6.5
100
AcDbArc
 50
359.999995
 51
180.000005
  0
ARC
  5
34C
330
1F3
100
AcDbEntity
  8
1
  6
Continuous
100
AcDbCircle
 10
197.2017819999999
 20
58.698051
 30
0.0
 40
1.6
100
AcDbArc
 50
269.9999969999999
 51
0.000009
  0
ARC
  5
34D
330
1F3
100
AcDbEntity
  8
1
  6
Continuous
100
AcDbCircle
 10
197.2017819999999
 20
74.69805100000002
 30
0.0
 40
1.6
100
AcDbArc
 50
359.999995
 51
89.99999599999998
  0
ARC
  5
34E
330
1F3
100
AcDbEntity
  8
1
  6
Continuous
100
AcDbCircle
 10
189.8017879999999
 20
57.098053
 30
0.0
 40
1.6
100
AcDbArc
 50
89.99999599999998
 51
180.000005
  0
ARC
  5
34F
330
1F3
100
AcDbEntity
  8
1
  6
Continuous
100
AcDbCircle
 10
189.8017879999999
 20
76.29805000000001
 30
0.0
 40
1.6
100
AcDbArc
 50
179.9999909999999
 51
270.000001
  0
ARC
  5
350
330
1F3
100
AcDbEntity
  8
1
  6
Continuous
100
AcDbCircle
 10
216.8017819999997
 20
54.44805099999999
 30
0.0
 40
2.25
100
AcDbArc
 50
179.9999909999999
 51
0.00001
  0
ARC
  5
351
330
1F3
100
AcDbEntity
  8
1
  6
Continuous
100
AcDbCircle
 10
216.8017819999997
 20
58.948051
 30
0.0
 40
2.25
100
AcDbArc
 50
0.0
 51
180.000005
  0
ARC
  5
352
330
1F3
100
AcDbEntity
  8
1
  6
Continuous
100
AcDbCircle
 10
216.8017819999997
 20
74.448051
 30
0.0
 40
2.25
100
AcDbArc
 50
179.9999909999999
 51
0.00001
  0
ARC
  5
353
330
1F3
100
AcDbEntity
  8
1
  6
Continuous
100
AcDbCircle
 10
216.8017819999997
 20
78.94805100000002
 30
0.0
 40
2.25
100
AcDbArc
 50
359.999995
 51
180.000005
  0
ARC
  5
354
330
1F3
100
AcDbEntity
  8
1
  6
Continuous
100
AcDbCircle
 10
197.2017819999999
 20
58.69805899999999
 30
0.0
 40
1.6
100
AcDbArc
 50
269.9999969999999
 51
0.000009
  0
ARC
  5
355
330
1F3
100
AcDbEntity
  8
1
  6
Continuous
100
AcDbCircle
 10
197.2017819999999
 20
74.698059
 30
0.0
 40
1.6
100
AcDbArc
 50
359.999995
 51
89.99999599999998
  0
ARC
  5
356
330
1F3
100
AcDbEntity
  8
1
  6
Continuous
100
AcDbCircle
 10
189.8017879999999
 20
57.098053
 30
0.0
 40
1.6
100
AcDbArc
 50
89.99999599999998
 51
180.000005
  0
ARC
  5
357
330
1F3
100
AcDbEntity
  8
1
  6
Continuous
100
AcDbCircle
 10
189.8017879999999
 20
76.29806499999998
 30
0.0
 40
1.6
100
AcDbArc
 50
179.9999909999999
 51
270.000001
  0
ARC
  5
358
330
1F3
100
AcDbEntity
  8
5
  6
PHANTOM
 48
0.2
100
AcDbCircle
 10
37.590783
 20
136.028175
 30
0.0
 40
7.0
100
AcDbArc
 50
173.49094
 51
353.490945
  0
ARC
  5
359
330
1F3
100
AcDbEntity
  8
1
  6
Continuous
100
AcDbCircle
 10
28.23248299999999
 20
144.47403
 30
0.0
 40
2.0
100
AcDbArc
 50
89.99999599999998
 51
180.000005
  0
ARC
  5
35A
330
1F3
100
AcDbEntity
  8
1
  6
Continuous
100
AcDbCircle
 10
28.23248299999999
 20
128.4740299999999
 30
0.0
 40
2.0
100
AcDbArc
 50
179.9999909999999
 51
270.000001
  0
ARC
  5
35B
330
1F3
100
AcDbEntity
  8
1
  6
Continuous
100
AcDbCircle
 10
75.232483
 20
128.4740299999999
 30
0.0
 40
2.0
100
AcDbArc
 50
270.0000039999998
 51
0.000005
  0
ARC
  5
35C
330
1F3
100
AcDbEntity
  8
1
  6
Continuous
100
AcDbCircle
 10
75.232483
 20
144.47403
 30
0.0
 40
2.0
100
AcDbArc
 50
359.999995
 51
89.99999599999998
  0
ARC
  5
35D
330
1F3
100
AcDbEntity
  8
1
  6
Continuous
100
AcDbCircle
 10
71.482483
 20
136.47403
 30
0.0
 40
2.25
100
AcDbArc
 50
270.0000039999998
 51
89.99999599999998
  0
ARC
  5
35E
330
1F3
100
AcDbEntity
  8
1
  6
Continuous
100
AcDbCircle
 10
66.982483
 20
136.47403
 30
0.0
 40
2.25
100
AcDbArc
 50
90.00000300000001
 51
270.000001
  0
ARC
  5
35F
330
1F3
100
AcDbEntity
  8
1
  6
Continuous
100
AcDbCircle
 10
36.482483
 20
136.47403
 30
0.0
 40
2.25
100
AcDbArc
 50
270.0000039999998
 51
89.99999599999998
  0
ARC
  5
360
330
1F3
100
AcDbEntity
  8
1
  6
Continuous
100
AcDbCircle
 10
31.98248299999999
 20
136.47403
 30
0.0
 40
2.25
100
AcDbArc
 50
90.00000300000001
 51
270.000001
  0
ARC
  5
361
330
1F3
100
AcDbEntity
  8
3
  6
DASHED
 48
0.1
100
AcDbCircle
 10
514.663086
 20
289.9740299999999
 30
0.0
 40
2.5
100
AcDbArc
 50
126.869903
 51
233.1300929999999
  0
CIRCLE
  5
362
330
1F3
100
AcDbEntity
  8
1
  6
Continuous
100
AcDbCircle
 10
51.732483
 20
259.9740299999999
 30
0.0
 40
2.399999999999999
  0
ARC
  5
363
330
1F3
100
AcDbEntity
  8
1
  6
Continuous
100
AcDbCircle
 10
51.732483
 20
289.9740299999999
 30
0.0
 40
7.0
100
AcDbArc
 50
0.0
 51
180.000005
  0
CIRCLE
  5
364
330
1F3
100
AcDbEntity
  8
1
  6
Continuous
100
AcDbCircle
 10
51.732483
 20
289.9740299999999
 30
0.0
 40
1.5
  0
CIRCLE
  5
365
330
1F3
100
AcDbEntity
  8
5
  6
PHANTOM
 48
0.2
100
AcDbCircle
 10
37.732483
 20
137.2701179999999
 30
0.0
 40
4.5
  0
CIRCLE
  5
366
330
1F3
100
AcDbEntity
  8
1
  6
Continuous
100
AcDbCircle
 10
51.732483
 20
136.47403
 30
0.0
 40
2.399999999999999
  0
ARC
  5
367
330
1F3
100
AcDbEntity
  8
1
  6
Continuous
100
AcDbCircle
 10
355.271118
 20
383.4740299999999
 30
0.0
 40
6.5
100
AcDbArc
 50
179.9999909999999
 51
0.00001
  0
ARC
  5
368
330
1F3
100
AcDbEntity
  8
1
  6
Continuous
100
AcDbCircle
 10
210.3018129999999
 20
391.874023
 30
0.0
 40
1.6
100
AcDbArc
 50
90.00000300000001
 51
180.000005
  0
ARC
  5
369
330
1F3
100
AcDbEntity
  8
1
  6
Continuous
100
AcDbCircle
 10
509.163092
 20
391.874023
 30
0.0
 40
1.6
100
AcDbArc
 50
0.0
 51
90.00000300000001
  0
TEXT
  5
36A
330
1F3
100
AcDbEntity
  8
6
  6
Continuous
100
AcDbText
 10
44.295628
 20
10.725171
 30
0.0
 40
1.399999999999999
  1
6
 41
1.069393
100
AcDbText
  0
TEXT
  5
36B
330
1F3
100
AcDbEntity
  8
1
  6
Continuous
100
AcDbText
 10
34.295628
 20
10.725171
 30
0.0
 40
1.399999999999999
  1
1
 41
1.069393
100
AcDbText
  0
TEXT
  5
36C
330
1F3
100
AcDbEntity
  8
1
  6
Continuous
100
AcDbText
 10
26.316128
 20
10.676471
 30
0.0
 40
1.399999999999999
  1
LAYER
 41
1.009912999999996
100
AcDbText
  0
TEXT
  5
36D
330
1F3
100
AcDbEntity
  8
2
  6
Continuous
100
AcDbText
 10
36.295628
 20
10.725171
 30
0.0
 40
1.399999999999999
  1
2
 41
1.069393
100
AcDbText
  0
TEXT
  5
36E
330
1F3
100
AcDbEntity
  8
3
  6
DASHED
100
AcDbText
 10
38.295628
 20
10.725171
 30
0.0
 40
1.399999999999999
  1
3
 41
1.069393
100
AcDbText
  0
TEXT
  5
36F
330
1F3
100
AcDbEntity
  8
4
  6
CENTER
100
AcDbText
 10
40.29562799999999
 20
10.725171
 30
0.0
 40
1.399999999999999
  1
4
 41
1.069393
100
AcDbText
  0
TEXT
  5
370
330
1F3
100
AcDbEntity
  8
5
  6
PHANTOM
100
AcDbText
 10
42.295628
 20
10.725171
 30
0.0
 40
1.399999999999999
  1
5
 41
1.069393
100
AcDbText
  0
TEXT
  5
371
330
1F3
100
AcDbEntity
  8
7
  6
Continuous
100
AcDbText
 10
26.31622800000001
 20
26.67647199999999
 30
0.0
 40
3.0
  1
CODE No.5168
 41
1.003962999999999
100
AcDbText
  0
TEXT
  5
372
330
1F3
100
AcDbEntity
  8
7
  6
Continuous
100
AcDbText
 10
26.31622800000001
 20
18.676472
 30
0.0
 40
3.0
  1
TYPE No.TM-92-L
 41
1.003152
100
AcDbText
  0
TEXT
  5
373
330
1F3
100
AcDbEntity
  8
7
  6
Continuous
100
AcDbText
 10
46.295628
 20
10.725171
 30
0.0
 40
1.399999999999999
  1
7
 41
1.069393
100
AcDbText
  0
LINE
  5
374
330
1F3
100
AcDbEntity
  8
1
  6
Continuous
100
AcDbLine
 10
510.763092
 20
391.874023
 30
0.0
 11
510.7631229999998
 21
376.9740299999999
 31
0.0
  0
ARC
  5
375
330
1F3
100
AcDbEntity
  8
1
  6
Continuous
100
AcDbCircle
 10
515.4630860000001
 20
158.526655
 30
0.0
 40
2.299999999999998
100
AcDbArc
 50
180.0
 51
207.0216369999999
  0
ARC
  5
376
330
1F3
100
AcDbEntity
  8
1
  6
Continuous
100
AcDbCircle
 10
518.363086
 20
147.983646
 30
0.0
 40
2.299999999999998
100
AcDbArc
 50
0.0
 51
27.02157199999999
  0
LINE
  5
377
330
1F3
100
AcDbEntity
  8
1
  6
Continuous
100
AcDbLine
 10
208.7018129999999
 20
391.874023
 30
0.0
 11
208.701782
 21
376.9740299999999
 31
0.0
  0
ARC
  5
378
330
1F3
100
AcDbEntity
  8
1
  6
Continuous
100
AcDbCircle
 10
204.0017879999997
 20
158.526669
 30
0.0
 40
2.299999999999998
100
AcDbArc
 50
332.9783979999999
 51
0.0
  0
ARC
  5
379
330
1F3
100
AcDbEntity
  8
1
  6
Continuous
100
AcDbCircle
 10
201.1017879999999
 20
147.983646
 30
0.0
 40
2.299999999999998
100
AcDbArc
 50
152.978431
 51
180.0
  0
LINE
  5
37A
330
1F3
100
AcDbEntity
  8
4
  6
CENTER
 48
0.2
100
AcDbLine
 10
369.2711179999998
 20
141.6617079999998
 30
0.0
 11
369.2711179999998
 21
126.97403
 31
0.0
  0
LINE
  5
37B
330
1F3
100
AcDbEntity
  8
1
  6
Continuous
100
AcDbLine
 10
44.732483
 20
384.7240299999999
 30
0.0
 11
44.732483
 21
146.47403
 31
0.0
  0
LINE
  5
37C
330
1F3
100
AcDbEntity
  8
1
  6
Continuous
100
AcDbLine
 10
58.732483
 20
384.7240299999999
 30
0.0
 11
58.732483
 21
146.47403
 31
0.0
  0
LINE
  5
37D
330
1F3
100
AcDbEntity
  8
1
  6
Continuous
100
AcDbLine
 10
69.232483
 20
391.874023
 30
0.0
 11
58.23248299999999
 21
391.874023
 31
0.0
  0
LINE
  5
37E
330
1F3
100
AcDbEntity
  8
1
  6
Continuous
100
AcDbLine
 10
69.232483
 20
393.4740299999999
 30
0.0
 11
34.232483
 21
393.4740299999999
 31
0.0
  0
LINE
  5
37F
330
1F3
100
AcDbEntity
  8
4
  6
CENTER
 48
0.1
100
AcDbLine
 10
61.732483
 20
396.4740299999998
 30
0.0
 11
61.732483
 21
388.874023
 31
0.0
  0
LINE
  5
380
330
1F3
100
AcDbEntity
  8
4
  6
CENTER
 48
0.1
100
AcDbLine
 10
41.732483
 20
396.4740299999998
 30
0.0
 11
41.732483
 21
388.874023
 31
0.0
  0
LINE
  5
381
330
1F3
100
AcDbEntity
  8
4
  6
CENTER
 48
0.2
100
AcDbLine
 10
51.732483
 20
392.9740299999999
 30
0.0
 11
51.732483
 21
373.9740299999998
 31
0.0
  0
CIRCLE
  5
382
330
1F3
100
AcDbEntity
  8
1
  6
Continuous
100
AcDbCircle
 10
51.732483
 20
383.4740299999999
 30
0.0
 40
4.5
  0
ARC
  5
383
330
1F3
100
AcDbEntity
  8
1
  6
Continuous
100
AcDbCircle
 10
51.732483
 20
384.7240299999999
 30
0.0
 40
7.0
100
AcDbArc
 50
0.0
 51
180.000005
  0
LINE
  5
384
330
1F3
100
AcDbEntity
  8
4
  6
CENTER
 48
0.2
100
AcDbLine
 10
61.232483
 20
383.4740299999999
 30
0.0
 11
42.232483
 21
383.4740299999999
 31
0.0
  0
LINE
  5
385
330
1F3
100
AcDbEntity
  8
1
  6
Continuous
100
AcDbLine
 10
45.232483
 20
391.874023
 30
0.0
 11
34.232483
 21
391.874023
 31
0.0
  0
LINE
  5
386
330
1F3
100
AcDbEntity
  8
1
  6
Continuous
100
AcDbLine
 10
45.232483
 20
393.4740299999999
 30
0.0
 11
45.232483
 21
387.322113
 31
0.0
  0
LINE
  5
387
330
1F3
100
AcDbEntity
  8
1
  6
Continuous
100
AcDbLine
 10
34.232483
 20
393.4740299999999
 30
0.0
 11
34.232483
 21
391.874023
 31
0.0
  0
LINE
  5
388
330
1F3
100
AcDbEntity
  8
1
  6
Continuous
100
AcDbLine
 10
58.23248299999999
 20
393.4740299999999
 30
0.0
 11
58.23248299999999
 21
387.322113
 31
0.0
  0
LINE
  5
389
330
1F3
100
AcDbEntity
  8
1
  6
Continuous
100
AcDbLine
 10
69.232483
 20
393.4740299999999
 30
0.0
 11
69.232483
 21
391.874023
 31
0.0
  0
ARC
  5
38A
330
1F3
100
AcDbEntity
  8
5
  6
PHANTOM
 48
0.2
100
AcDbCircle
 10
51.732483
 20
259.9740299999999
 30
0.0
 40
7.0
100
AcDbArc
 50
353.4909399999999
 51
173.49094
  0
ARC
  5
38B
330
1F3
100
AcDbEntity
  8
5
  6
PHANTOM
 48
0.2
100
AcDbCircle
 10
355.271118
 20
259.9740299999999
 30
0.0
 40
7.0
100
AcDbArc
 50
6.509059999999999
 51
186.50906
  0
LINE
  5
38C
330
1F3
100
AcDbEntity
  8
5
  6
PHANTOM
100
AcDbLine
 10
362.4579409999999
 20
135.234653
 30
0.0
 11
348.3162409999998
 21
259.1805069999999
 31
0.0
  0
LINE
  5
38D
330
1F3
100
AcDbEntity
  8
5
  6
PHANTOM
100
AcDbLine
 10
376.367696
 20
136.8216969999997
 30
0.0
 11
362.225996
 21
260.767552
 31
0.0
  0
ARC
  5
38E
330
1F3
100
AcDbEntity
  8
5
  6
PHANTOM
 48
0.2
100
AcDbCircle
 10
369.412819
 20
136.028175
 30
0.0
 40
7.0
100
AcDbArc
 50
186.5090549999999
 51
6.509059999999999
  0
LINE
  5
38F
330
1F3
100
AcDbEntity
  8
4
  6
CENTER
 48
0.2
100
AcDbLine
 10
359.771118
 20
137.2701179999999
 30
0.0
 11
378.771118
 21
137.2701179999999
 31
0.0
  0
LINE
  5
390
330
1F3
100
AcDbEntity
  8
4
  6
CENTER
 48
0.2
100
AcDbLine
 10
369.2711179999998
 20
146.7701179999999
 30
0.0
 11
369.2711179999998
 21
127.7701179999999
 31
0.0
  0
ARC
  5
391
330
1F3
100
AcDbEntity
  8
1
  6
Continuous
100
AcDbCircle
 10
210.6018069999997
 20
273.9740299999999
 30
0.0
 40
0.5
100
AcDbArc
 50
323.1297529999999
 51
36.870072
  0
LINE
  5
392
330
1F3
100
AcDbEntity
  8
1
  6
Continuous
100
AcDbLine
 10
208.6017909999999
 20
277.4740299999999
 30
0.0
 11
211.0018059999999
 21
274.2740309999999
 31
0.0
  0
LINE
  5
393
330
1F3
100
AcDbEntity
  8
1
  6
Continuous
100
AcDbLine
 10
211.0018049999999
 20
273.674027
 30
0.0
 11
208.6017759999998
 21
270.4740299999999
 31
0.0
  0
ARC
  5
394
330
1F3
100
AcDbEntity
  8
1
  6
Continuous
100
AcDbCircle
 10
508.8630979999998
 20
273.9740299999999
 30
0.0
 40
0.5
100
AcDbArc
 50
143.129796
 51
216.8702039999999
  0
LINE
  5
395
330
1F3
100
AcDbEntity
  8
1
  6
Continuous
100
AcDbLine
 10
510.863098
 20
270.474065
 30
0.0
 11
508.4630999999998
 21
273.674027
 31
0.0
  0
LINE
  5
396
330
1F3
100
AcDbEntity
  8
1
  6
Continuous
100
AcDbLine
 10
510.863098
 20
277.4739939999999
 30
0.0
 11
508.4630999999998
 21
274.2740319999999
 31
0.0
  0
LINE
  5
397
330
1F3
100
AcDbEntity
  8
4
  6
CENTER
 48
0.1
100
AcDbLine
 10
382.271118
 20
127.270118
 30
0.0
 11
374.671112
 21
127.270118
 31
0.0
  0
LINE
  5
398
330
1F3
100
AcDbEntity
  8
4
  6
CENTER
 48
0.1
100
AcDbLine
 10
382.271118
 20
147.270118
 30
0.0
 11
374.671112
 21
147.270118
 31
0.0
  0
LINE
  5
399
330
1F3
100
AcDbEntity
  8
5
  6
PHANTOM
 48
0.2
100
AcDbLine
 10
377.6711119999998
 20
154.7701179999999
 30
0.0
 11
377.6711119999998
 21
119.7701179999999
 31
0.0
  0
LINE
  5
39A
330
1F3
100
AcDbEntity
  8
5
  6
PHANTOM
 48
0.2
100
AcDbLine
 10
379.2711179999998
 20
154.7701179999999
 30
0.0
 11
379.2711179999998
 21
119.7701179999999
 31
0.0
  0
LINE
  5
39B
330
1F3
100
AcDbEntity
  8
5
  6
PHANTOM
 48
0.2
100
AcDbLine
 10
377.6711119999998
 20
143.7701179999999
 30
0.0
 11
375.574911
 21
143.7701179999999
 31
0.0
  0
LINE
  5
39C
330
1F3
100
AcDbEntity
  8
5
  6
PHANTOM
 48
0.2
100
AcDbLine
 10
379.2711179999998
 20
154.7701179999999
 30
0.0
 11
377.6711119999998
 21
154.7701179999999
 31
0.0
  0
CIRCLE
  5
39D
330
1F3
100
AcDbEntity
  8
5
  6
PHANTOM
 48
0.2
100
AcDbCircle
 10
369.2711179999998
 20
137.2701179999999
 30
0.0
 40
2.399999999999999
  0
LINE
  5
39E
330
1F3
100
AcDbEntity
  8
5
  6
PHANTOM
 48
0.2
100
AcDbLine
 10
377.6711119999998
 20
130.770118
 30
0.0
 11
374.033731
 21
130.770118
 31
0.0
  0
LINE
  5
39F
330
1F3
100
AcDbEntity
  8
5
  6
PHANTOM
 48
0.2
100
AcDbLine
 10
379.2711179999998
 20
119.7701179999999
 30
0.0
 11
377.6711119999998
 21
119.7701179999999
 31
0.0
  0
LINE
  5
3A0
330
1F3
100
AcDbEntity
  8
5
  6
PHANTOM
 48
0.2
100
AcDbLine
 10
27.732483
 20
154.7701179999999
 30
0.0
 11
27.732483
 21
119.7701179999999
 31
0.0
  0
LINE
  5
3A1
330
1F3
100
AcDbEntity
  8
5
  6
PHANTOM
 48
0.2
100
AcDbLine
 10
29.332489
 20
154.7701179999999
 30
0.0
 11
29.332489
 21
143.7701179999999
 31
0.0
  0
LINE
  5
3A2
330
1F3
100
AcDbEntity
  8
4
  6
CENTER
 48
0.1
100
AcDbLine
 10
24.73248299999999
 20
127.270118
 30
0.0
 11
32.332489
 21
127.270118
 31
0.0
  0
LINE
  5
3A3
330
1F3
100
AcDbEntity
  8
4
  6
CENTER
 48
0.1
100
AcDbLine
 10
24.73248299999999
 20
147.270118
 30
0.0
 11
32.332489
 21
147.270118
 31
0.0
  0
LINE
  5
3A4
330
1F3
100
AcDbEntity
  8
4
  6
CENTER
 48
0.2
100
AcDbLine
 10
28.23248299999999
 20
137.2701179999999
 30
0.0
 11
47.232483
 21
137.2701179999999
 31
0.0
  0
LINE
  5
3A5
330
1F3
100
AcDbEntity
  8
4
  6
CENTER
 48
0.2
100
AcDbLine
 10
37.732483
 20
146.7701179999999
 30
0.0
 11
37.732483
 21
127.7701179999999
 31
0.0
  0
LINE
  5
3A6
330
1F3
100
AcDbEntity
  8
5
  6
PHANTOM
 48
0.2
100
AcDbLine
 10
27.732483
 20
119.7701179999999
 30
0.0
 11
29.332489
 21
119.7701179999999
 31
0.0
  0
LINE
  5
3A7
330
1F3
100
AcDbEntity
  8
5
  6
PHANTOM
 48
0.2
100
AcDbLine
 10
27.732483
 20
130.770118
 30
0.0
 11
32.96987
 21
130.770118
 31
0.0
  0
LINE
  5
3A8
330
1F3
100
AcDbEntity
  8
5
  6
PHANTOM
 48
0.2
100
AcDbLine
 10
29.332489
 20
130.770118
 30
0.0
 11
29.332489
 21
119.7701179999999
 31
0.0
  0
LINE
  5
3A9
330
1F3
100
AcDbEntity
  8
5
  6
PHANTOM
 48
0.2
100
AcDbLine
 10
27.732483
 20
143.7701179999999
 30
0.0
 11
31.42869000000001
 21
143.7701179999999
 31
0.0
  0
LINE
  5
3AA
330
1F3
100
AcDbEntity
  8
5
  6
PHANTOM
 48
0.2
100
AcDbLine
 10
27.732483
 20
154.7701179999999
 30
0.0
 11
29.332489
 21
154.7701179999999
 31
0.0
  0
ENDSEC
  0
SECTION
  2
OBJECTS
  0
DICTIONARY
  5
1E1
330
0
100
AcDbDictionary
281
     1
  3
ACAD_CIP_PREVIOUS_PRODUCT_INFO
350
610
  3
ACAD_COLOR
350
5F2
  3
ACAD_DETAILVIEWSTYLE
350
60B
  3
ACAD_GROUP
350
1E2
  3
ACAD_LAYOUT
350
1EE
  3
ACAD_MATERIAL
350
5C0
  3
ACAD_MLEADERSTYLE
350
607
  3
ACAD_MLINESTYLE
350
1EB
  3
ACAD_PLOTSETTINGS
350
1ED
  3
ACAD_PLOTSTYLENAME
350
5BE
  3
ACAD_SCALELIST
350
5F5
  3
ACAD_SECTIONVIEWSTYLE
350
609
  3
ACAD_TABLESTYLE
350
5F3
  3
ACAD_VISUALSTYLE
350
5D9
  3
ACDB_RECOMPOSE_DATA
350
62E
  3
AcDbVariableDictionary
350
621
  3
DWGPROPS
350
62F
  0
DICTIONARY
  5
611
330
1E5
100
AcDbDictionary
280
     1
281
     1
  3
ADSK_XREC_LAYER_RECONCILED
360
612
  0
DICTIONARY
  5
613
330
1FB
100
AcDbDictionary
280
     1
281
     1
  3
ADSK_XREC_LAYER_RECONCILED
360
614
  0
DICTIONARY
  5
615
330
1FC
100
AcDbDictionary
280
     1
281
     1
  3
ADSK_XREC_LAYER_RECONCILED
360
616
  0
DICTIONARY
  5
617
330
1FD
100
AcDbDictionary
280
     1
281
     1
  3
ADSK_XREC_LAYER_RECONCILED
360
618
  0
DICTIONARY
  5
619
330
1FE
100
AcDbDictionary
280
     1
281
     1
  3
ADSK_XREC_LAYER_RECONCILED
360
61A
  0
DICTIONARY
  5
61B
330
1FF
100
AcDbDictionary
280
     1
281
     1
  3
ADSK_XREC_LAYER_RECONCILED
360
61C
  0
DICTIONARY
  5
61D
330
200
100
AcDbDictionary
280
     1
281
     1
  3
ADSK_XREC_LAYER_RECONCILED
360
61E
  0
DICTIONARY
  5
61F
330
201
100
AcDbDictionary
280
     1
281
     1
  3
ADSK_XREC_LAYER_RECONCILED
360
620
  0
DICTIONARY
  5
3B9
330
1F3
100
AcDbDictionary
281
     1
  3
ACAD_LAYOUTSELFREF
350
5BA
  0
DICTIONARY
  5
3B7
330
1EF
100
AcDbDictionary
281
     1
  3
ACAD_LAYOUTSELFREF
350
5B9
  0
XRECORD
  5
610
102
{ACAD_REACTORS
330
1E1
102
}
330
1E1
100
AcDbXrecord
280
     1
300
ACDLT
300
2014
300
ACDLT_F_S
  0
DICTIONARY
  5
5F2
102
{ACAD_REACTORS
330
1E1
102
}
330
1E1
100
AcDbDictionary
281
     1
  0
DICTIONARY
  5
60B
102
{ACAD_REACTORS
330
1E1
102
}
330
1E1
100
AcDbDictionary
281
     1
  3
Imperial24
350
60C
  0
DICTIONARY
  5
1E2
102
{ACAD_REACTORS
330
1E1
102
}
330
1E1
100
AcDbDictionary
281
     1
  0
DICTIONARY
  5
1EE
102
{ACAD_REACTORS
330
1E1
102
}
330
1E1
100
AcDbDictionary
281
     1
  3
Model
350
60D
  3
レイアウト1
350
60E
  0
DICTIONARY
  5
5C0
102
{ACAD_REACTORS
330
1E1
102
}
330
1E1
100
AcDbDictionary
281
     1
  3
ByBlock
350
5C9
  3
ByLayer
350
5C1
  3
Global
350
5D1
  0
DICTIONARY
  5
607
102
{ACAD_REACTORS
330
1E1
102
}
330
1E1
100
AcDbDictionary
281
     1
  3
Standard
350
608
  0
DICTIONARY
  5
1EB
102
{ACAD_REACTORS
330
1E1
102
}
330
1E1
100
AcDbDictionary
281
     1
  3
STANDARD
350
1EC
  0
DICTIONARY
  5
1ED
102
{ACAD_REACTORS
330
1E1
102
}
330
1E1
100
AcDbDictionary
281
     1
  0
ACDBDICTIONARYWDFLT
  5
5BE
102
{ACAD_REACTORS
330
1E1
102
}
330
1E1
100
AcDbDictionary
281
     1
  3
Normal
350
5BF
100
AcDbDictionaryWithDefault
340
5BF
  0
DICTIONARY
  5
5F5
102
{ACAD_REACTORS
330
1E1
102
}
330
1E1
100
AcDbDictionary
281
     1
  3
A0
350
5F6
  3
A1
350
5F7
  3
A2
350
5F8
  3
A3
350
5F9
  3
A4
350
5FA
  3
A5
350
5FB
  3
A6
350
5FC
  3
A7
350
5FD
  3
A8
350
5FE
  3
A9
350
5FF
  3
B0
350
600
  3
B1
350
601
  3
B2
350
602
  3
B3
350
603
  3
B4
350
604
  3
B5
350
605
  3
B6
350
606
  0
DICTIONARY
  5
609
102
{ACAD_REACTORS
330
1E1
102
}
330
1E1
100
AcDbDictionary
281
     1
  3
Imperial24
350
60A
  0
DICTIONARY
  5
5F3
102
{ACAD_REACTORS
330
1E1
102
}
330
1E1
100
AcDbDictionary
281
     1
  3
Standard
350
5F4
  0
DICTIONARY
  5
5D9
102
{ACAD_REACTORS
330
1E1
102
}
330
1E1
100
AcDbDictionary
281
     1
  3
2dWireframe
350
5DF
  3
Basic
350
5DE
  3
Brighten
350
5E5
  3
ColorChange
350
5E9
  3
Conceptual
350
5E2
  3
Dim
350
5E4
  3
EdgeColorOff
350
5F1
  3
Facepattern
350
5E8
  3
Flat
350
5DA
  3
FlatWithEdges
350
5DB
  3
Gouraud
350
5DC
  3
GouraudWithEdges
350
5DD
  3
Hidden
350
5E1
  3
JitterOff
350
5EF
  3
Linepattern
350
5E7
  3
OverhangOff
350
5F0
  3
Realistic
350
5E3
  3
Shaded
350
5EE
  3
Shaded with edges
350
5ED
  3
Shades of Gray
350
5EA
  3
Sketchy
350
5EB
  3
Thicken
350
5E6
  3
Wireframe
350
5E0
  3
X-Ray
350
5EC
  0
XRECORD
  5
62E
102
{ACAD_REACTORS
330
1E1
102
}
330
1E1
100
AcDbXrecord
280
     1
 90
        1
330
5F4
  0
DICTIONARY
  5
621
102
{ACAD_REACTORS
330
1E1
102
}
330
1E1
100
AcDbDictionary
281
     1
  3
CANNOSCALE
350
626
  3
CMLEADERSTYLE
350
623
  3
CTABLESTYLE
350
622
  3
CVIEWDETAILSTYLE
350
624
  3
CVIEWSECTIONSTYLE
350
625
  3
DIMASSOC
350
629
  3
INDEXCTL
350
628
  3
SORTENTS
350
627
  3
XCLIPFRAME
350
62A
  0
XRECORD
  5
62F
102
{ACAD_REACTORS
330
1E1
102
}
330
1E1
100
AcDbXrecord
280
     1
  1
DWGPROPS COOKIE
  2

  3

  4

  6

  7

  8
Yoshitsune
  9

300
=
301
=
302
=
303
=
304
=
305
=
306
=
307
=
308
=
309
=
 40
0.0100508564814815
 41
2451069.705016319
 42
2457192.622919537
  1

 90
        0
  0
XRECORD
  5
612
102
{ACAD_REACTORS
330
611
102
}
330
611
100
AcDbXrecord
280
     1
290
     1
  0
XRECORD
  5
614
102
{ACAD_REACTORS
330
613
102
}
330
613
100
AcDbXrecord
280
     1
290
     1
  0
XRECORD
  5
616
102
{ACAD_REACTORS
330
615
102
}
330
615
100
AcDbXrecord
280
     1
290
     1
  0
XRECORD
  5
618
102
{ACAD_REACTORS
330
617
102
}
330
617
100
AcDbXrecord
280
     1
290
     1
  0
XRECORD
  5
61A
102
{ACAD_REACTORS
330
619
102
}
330
619
100
AcDbXrecord
280
     1
290
     1
  0
XRECORD
  5
61C
102
{ACAD_REACTORS
330
61B
102
}
330
61B
100
AcDbXrecord
280
     1
290
     1
  0
XRECORD
  5
61E
102
{ACAD_REACTORS
330
61D
102
}
330
61D
100
AcDbXrecord
280
     1
290
     1
  0
XRECORD
  5
620
102
{ACAD_REACTORS
330
61F
102
}
330
61F
100
AcDbXrecord
280
     1
290
     1
  0
XRECORD
  5
5BA
102
{ACAD_REACTORS
330
3B9
102
}
330
3B9
100
AcDbXrecord
280
     1
340
1F3
  0
XRECORD
  5
5B9
102
{ACAD_REACTORS
330
3B7
102
}
330
3B7
100
AcDbXrecord
280
     1
340
1EF
  0
ACDBDETAILVIEWSTYLE
  5
60C
102
{ACAD_XDICTIONARY
360
667
102
}
102
{ACAD_REACTORS
330
60B
102
}
330
60B
100
AcDbModelDocViewStyle
 70
     0
  3
Imperial24
290
     0
100
AcDbDetailViewStyle
 70
     0
 71
     0
 90
        3
 71
     1
340
1E6
 40
0.24
340
0
 40
0.24
300

 40
0.36
280
     3
 71
     2
340
1EA
 90
       25
 71
     3
340
1E6
 40
0.24
 90
        1
 40
0.75
 90
        1
300
%<\AcVar ViewType \f "%tc1">% %<\AcVar ViewDetailId>%\PSCALE %<\AcVar ViewScale \f "%sn">%
 71
     4
340
1EA
 90
       25
340
1EA
 90
       25
280
     0
  0
LAYOUT
  5
60D
102
{ACAD_XDICTIONARY
360
669
102
}
102
{ACAD_REACTORS
330
1EE
102
}
330
1EE
100
AcDbPlotSettings
  1

  2
Canon LBP9100C
  4

  6

 40
0.0
 41
0.0
 42
0.0
 43
0.0
 44
0.0
 45
0.0
 46
0.0
 47
0.0
 48
0.0
 49
0.0
140
0.0
141
0.0
142
1.0
143
1.0
 70
  1712
 72
     0
 73
     0
 74
     0
  7

 75
     0
147
1.0
148
0.0
149
0.0
100
AcDbLayout
  1
Model
 70
     1
 71
     0
 10
0.0
 20
0.0
 11
12.0
 21
9.0
 12
0.0
 22
0.0
 32
0.0
 14
0.0
 24
0.0
 34
0.0
 15
0.0
 25
0.0
 35
0.0
146
0.0
 13
0.0
 23
0.0
 33
0.0
 16
1.0
 26
0.0
 36
0.0
 17
0.0
 27
1.0
 37
0.0
 76
     0
330
1F3
331
5B8
  0
LAYOUT
  5
60E
102
{ACAD_XDICTIONARY
360
66B
102
}
102
{ACAD_REACTORS
330
1EE
102
}
330
1EE
100
AcDbPlotSettings
  1

  2
Canon LBP9100C
  4

  6

 40
0.0
 41
0.0
 42
0.0
 43
0.0
 44
0.0
 45
0.0
 46
0.0
 47
0.0
 48
0.0
 49
0.0
140
0.0
141
0.0
142
1.0
143
1.0
 70
   688
 72
     0
 73
     0
 74
     5
  7

 75
    16
147
1.0
148
0.0
149
0.0
100
AcDbLayout
  1
レイアウト1
 70
     0
 71
     1
 10
0.0
 20
0.0
 11
420.0
 21
297.0
 12
0.0
 22
0.0
 32
0.0
 14
1.000000000000000E+20
 24
1.000000000000000E+20
 34
1.000000000000000E+20
 15
-1.000000000000000E+20
 25
-1.000000000000000E+20
 35
-1.000000000000000E+20
146
0.0
 13
0.0
 23
0.0
 33
0.0
 16
1.0
 26
0.0
 36
0.0
 17
0.0
 27
1.0
 37
0.0
 76
     0
330
1EF
  0
MATERIAL
  5
5C9
102
{ACAD_XDICTIONARY
360
5CA
102
}
102
{ACAD_REACTORS
330
5C0
102
}
330
5C0
100
AcDbMaterial
  1
ByBlock
 72
     0
 43
0.0208333333333333
 43
0.0
 43
0.0
 43
0.0
 43
0.0
 43
0.0208333333333333
 43
0.0
 43
0.0
 43
0.0
 43
0.0
 43
1.0
 43
0.0
 43
0.0
 43
0.0
 43
0.0
 43
1.0
 77
     0
 47
0.0208333333333333
 47
0.0
 47
0.0
 47
0.0
 47
0.0
 47
0.0208333333333333
 47
0.0
 47
0.0
 47
0.0
 47
0.0
 47
1.0
 47
0.0
 47
0.0
 47
0.0
 47
0.0
 47
1.0
171
     0
 49
0.0208333333333333
 49
0.0
 49
0.0
 49
0.0
 49
0.0
 49
0.0208333333333333
 49
0.0
 49
0.0
 49
0.0
 49
0.0
 49
1.0
 49
0.0
 49
0.0
 49
0.0
 49
0.0
 49
1.0
175
     0
142
0.0208333333333333
142
0.0
142
0.0
142
0.0
142
0.0
142
0.0208333333333333
142
0.0
142
0.0
142
0.0
142
0.0
142
1.0
142
0.0
142
0.0
142
0.0
142
0.0
142
1.0
179
     0
144
0.0208333333333333
144
0.0
144
0.0
144
0.0
144
0.0
144
0.0208333333333333
144
0.0
144
0.0
144
0.0
144
0.0
144
1.0
144
0.0
144
0.0
144
0.0
144
0.0
144
1.0
147
0.0208333333333333
147
0.0
147
0.0
147
0.0
147
0.0
147
0.0208333333333333
147
0.0
147
0.0
147
0.0
147
0.0
147
1.0
147
0.0
147
0.0
147
0.0
147
0.0
147
1.0
  0
MATERIAL
  5
5C1
102
{ACAD_XDICTIONARY
360
5C2
102
}
102
{ACAD_REACTORS
330
5C0
102
}
330
5C0
100
AcDbMaterial
  1
ByLayer
 72
     0
 43
0.0208333333333333
 43
0.0
 43
0.0
 43
0.0
 43
0.0
 43
0.0208333333333333
 43
0.0
 43
0.0
 43
0.0
 43
0.0
 43
1.0
 43
0.0
 43
0.0
 43
0.0
 43
0.0
 43
1.0
 77
     0
 47
0.0208333333333333
 47
0.0
 47
0.0
 47
0.0
 47
0.0
 47
0.0208333333333333
 47
0.0
 47
0.0
 47
0.0
 47
0.0
 47
1.0
 47
0.0
 47
0.0
 47
0.0
 47
0.0
 47
1.0
171
     0
 49
0.0208333333333333
 49
0.0
 49
0.0
 49
0.0
 49
0.0
 49
0.0208333333333333
 49
0.0
 49
0.0
 49
0.0
 49
0.0
 49
1.0
 49
0.0
 49
0.0
 49
0.0
 49
0.0
 49
1.0
175
     0
142
0.0208333333333333
142
0.0
142
0.0
142
0.0
142
0.0
142
0.0208333333333333
142
0.0
142
0.0
142
0.0
142
0.0
142
1.0
142
0.0
142
0.0
142
0.0
142
0.0
142
1.0
179
     0
144
0.0208333333333333
144
0.0
144
0.0
144
0.0
144
0.0
144
0.0208333333333333
144
0.0
144
0.0
144
0.0
144
0.0
144
1.0
144
0.0
144
0.0
144
0.0
144
0.0
144
1.0
147
0.0208333333333333
147
0.0
147
0.0
147
0.0
147
0.0
147
0.0208333333333333
147
0.0
147
0.0
147
0.0
147
0.0
147
1.0
147
0.0
147
0.0
147
0.0
147
0.0
147
1.0
  0
MATERIAL
  5
5D1
102
{ACAD_XDICTIONARY
360
5D2
102
}
102
{ACAD_REACTORS
330
5C0
102
}
330
5C0
100
AcDbMaterial
  1
Global
 72
     0
 43
0.0208333333333333
 43
0.0
 43
0.0
 43
0.0
 43
0.0
 43
0.0208333333333333
 43
0.0
 43
0.0
 43
0.0
 43
0.0
 43
1.0
 43
0.0
 43
0.0
 43
0.0
 43
0.0
 43
1.0
 77
     0
 47
0.0208333333333333
 47
0.0
 47
0.0
 47
0.0
 47
0.0
 47
0.0208333333333333
 47
0.0
 47
0.0
 47
0.0
 47
0.0
 47
1.0
 47
0.0
 47
0.0
 47
0.0
 47
0.0
 47
1.0
171
     0
 49
0.0208333333333333
 49
0.0
 49
0.0
 49
0.0
 49
0.0
 49
0.0208333333333333
 49
0.0
 49
0.0
 49
0.0
 49
0.0
 49
1.0
 49
0.0
 49
0.0
 49
0.0
 49
0.0
 49
1.0
175
     0
142
0.0208333333333333
142
0.0
142
0.0
142
0.0
142
0.0
142
0.0208333333333333
142
0.0
142
0.0
142
0.0
142
0.0
142
1.0
142
0.0
142
0.0
142
0.0
142
0.0
142
1.0
179
     0
144
0.0208333333333333
144
0.0
144
0.0
144
0.0
144
0.0
144
0.0208333333333333
144
0.0
144
0.0
144
0.0
144
0.0
144
1.0
144
0.0
144
0.0
144
0.0
144
0.0
144
1.0
147
0.0208333333333333
147
0.0
147
0.0
147
0.0
147
0.0
147
0.0208333333333333
147
0.0
147
0.0
147
0.0
147
0.0
147
1.0
147
0.0
147
0.0
147
0.0
147
0.0
147
1.0
  0
MLEADERSTYLE
  5
608
102
{ACAD_REACTORS
330
607
102
}
330
607
100
AcDbMLeaderStyle
170
     2
171
     1
172
     0
 90
        2
 40
0.0
 41
0.0
173
     1
 91
-1056964608
340
1E8
 92
       -2
290
     1
 42
0.09
291
     1
 43
0.36
  3
Standard
 44
0.18
300

342
1E6
174
     1
178
     6
175
     1
176
     0
 93
-1056964608
 45
0.18
292
     0
297
     0
 46
0.18
 94
-1056964608
 47
1.0
 49
1.0
140
1.0
293
     1
141
0.0
294
     1
177
     0
142
1.0
295
     0
296
     0
143
0.125
1001
ACAD_MLEADERVER
1070
     2
  0
MLINESTYLE
  5
1EC
102
{ACAD_REACTORS
330
1EB
102
}
330
1EB
100
AcDbMlineStyle
  2
STANDARD
 70
     0
  3

 62
   256
 51
90.0
 52
90.0
 71
     2
 49
0.5
 62
   256
  6
BYLAYER
 49
-0.5
 62
   256
  6
BYLAYER
  0
ACDBPLACEHOLDER
  5
5BF
102
{ACAD_REACTORS
330
5BE
102
}
330
5BE
  0
SCALE
  5
5F6
102
{ACAD_REACTORS
330
5F5
102
}
330
5F5
100
AcDbScale
 70
     0
300
1:1
140
1.0
141
1.0
290
     1
  0
SCALE
  5
5F7
102
{ACAD_REACTORS
330
5F5
102
}
330
5F5
100
AcDbScale
 70
     0
300
1/128" = 1'-0"
140
0.0078125
141
12.0
290
     0
  0
SCALE
  5
5F8
102
{ACAD_REACTORS
330
5F5
102
}
330
5F5
100
AcDbScale
 70
     0
300
1/64" = 1'-0"
140
0.015625
141
12.0
290
     0
  0
SCALE
  5
5F9
102
{ACAD_REACTORS
330
5F5
102
}
330
5F5
100
AcDbScale
 70
     0
300
1/32" = 1'-0"
140
0.03125
141
12.0
290
     0
  0
SCALE
  5
5FA
102
{ACAD_REACTORS
330
5F5
102
}
330
5F5
100
AcDbScale
 70
     0
300
1/16" = 1'-0"
140
0.0625
141
12.0
290
     0
  0
SCALE
  5
5FB
102
{ACAD_REACTORS
330
5F5
102
}
330
5F5
100
AcDbScale
 70
     0
300
3/32" = 1'-0"
140
0.09375
141
12.0
290
     0
  0
SCALE
  5
5FC
102
{ACAD_REACTORS
330
5F5
102
}
330
5F5
100
AcDbScale
 70
     0
300
1/8" = 1'-0"
140
0.125
141
12.0
290
     0
  0
SCALE
  5
5FD
102
{ACAD_REACTORS
330
5F5
102
}
330
5F5
100
AcDbScale
 70
     0
300
3/16" = 1'-0"
140
0.1875
141
12.0
290
     0
  0
SCALE
  5
5FE
102
{ACAD_REACTORS
330
5F5
102
}
330
5F5
100
AcDbScale
 70
     0
300
1/4" = 1'-0"
140
0.25
141
12.0
290
     0
  0
SCALE
  5
5FF
102
{ACAD_REACTORS
330
5F5
102
}
330
5F5
100
AcDbScale
 70
     0
300
3/8" = 1'-0"
140
0.375
141
12.0
290
     0
  0
SCALE
  5
600
102
{ACAD_REACTORS
330
5F5
102
}
330
5F5
100
AcDbScale
 70
     0
300
1/2" = 1'-0"
140
0.5
141
12.0
290
     0
  0
SCALE
  5
601
102
{ACAD_REACTORS
330
5F5
102
}
330
5F5
100
AcDbScale
 70
     0
300
3/4" = 1'-0"
140
0.75
141
12.0
290
     0
  0
SCALE
  5
602
102
{ACAD_REACTORS
330
5F5
102
}
330
5F5
100
AcDbScale
 70
     0
300
1" = 1'-0"
140
1.0
141
12.0
290
     0
  0
SCALE
  5
603
102
{ACAD_REACTORS
330
5F5
102
}
330
5F5
100
AcDbScale
 70
     0
300
1-1/2" = 1'-0"
140
1.5
141
12.0
290
     0
  0
SCALE
  5
604
102
{ACAD_REACTORS
330
5F5
102
}
330
5F5
100
AcDbScale
 70
     0
300
3" = 1'-0"
140
3.0
141
12.0
290
     0
  0
SCALE
  5
605
102
{ACAD_REACTORS
330
5F5
102
}
330
5F5
100
AcDbScale
 70
     0
300
6" = 1'-0"
140
6.0
141
12.0
290
     0
  0
SCALE
  5
606
102
{ACAD_REACTORS
330
5F5
102
}
330
5F5
100
AcDbScale
 70
     0
300
1'-0" = 1'-0"
140
12.0
141
12.0
290
     0
  0
ACDBSECTIONVIEWSTYLE
  5
60A
102
{ACAD_XDICTIONARY
360
665
102
}
102
{ACAD_REACTORS
330
609
102
}
330
609
100
AcDbModelDocViewStyle
 70
     0
  3
Imperial24
290
     0
100
AcDbSectionViewStyle
 70
     0
 71
     0
 90
       78
 71
     1
340
1E6
 40
0.24
340
0
340
0
 40
0.24
300
I, O, Q, S, X, Z
 40
0.48
 90
        3
 40
0.18
 90
        1
 71
     2
340
1EA
 90
       25
340
1EA
 90
       50
 40
0.24
 40
0.0
 40
0.24
 71
     3
340
1E6
 40
0.24
 90
        1
 40
0.75
 90
        1
300
%<\AcVar ViewType \f "%tc1">% %<\AcVar ViewSectionStartId>%-%<\AcVar ViewSectionEndId>%\PSCALE %<\AcVar ViewScale \f "%sn">%
 71
     4
300
ANSI31
 40
1.0
 90
        0
290
     0
290
     0
 90
        6
 40
0.0
 40
1.570796326794896
 40
0.2617993877991494
 40
1.308996938995747
 40
-0.2617993877991494
 40
1.832595714594046
  0
TABLESTYLE
  5
5F4
102
{ACAD_XDICTIONARY
360
62C
102
}
102
{ACAD_REACTORS
330
5F3
102
}
330
5F3
100
AcDbTableStyle
  3
Standard
 70
     0
 71
     0
 40
0.06
 41
0.06
280
     0
281
     0
  7
STANDARD
140
0.18
170
     2
 62
     0
 63
     7
283
     0
274
    -2
284
     1
 64
     0
275
    -2
285
     1
 65
     0
276
    -2
286
     1
 66
     0
277
    -2
287
     1
 67
     0
278
    -2
288
     1
 68
     0
279
    -2
289
     1
 69
     0
  7
STANDARD
140
0.25
170
     5
 62
     0
 63
     7
283
     0
274
    -2
284
     1
 64
     0
275
    -2
285
     1
 65
     0
276
    -2
286
     1
 66
     0
277
    -2
287
     1
 67
     0
278
    -2
288
     1
 68
     0
279
    -2
289
     1
 69
     0
  7
STANDARD
140
0.18
170
     5
 62
     0
 63
     7
283
     0
274
    -2
284
     1
 64
     0
275
    -2
285
     1
 65
     0
276
    -2
286
     1
 66
     0
277
    -2
287
     1
 67
     0
278
    -2
288
     1
 68
     0
279
    -2
289
     1
 69
     0
  0
VISUALSTYLE
  5
5DF
102
{ACAD_XDICTIONARY
360
63D
102
}
102
{ACAD_REACTORS
330
5D9
102
}
330
5D9
100
AcDbVisualStyle
  2
2dWireframe
 70
     4
 71
     0
 72
     2
 73
     0
 90
        0
 40
-0.6
 41
-30.0
 62
     5
 63
     7
 74
     1
 91
        4
 64
     7
 65
   257
 75
     1
175
     1
 42
1.0
 92
        0
 66
   257
 43
1.0
 76
     1
 77
     6
 78
     2
 67
     7
 79
     5
170
     0
171
     0
290
     0
174
     0
 93
        1
 44
0.0
173
     0
291
     0
 45
0.0
1001
ACAD
1000
AcDbSavedByObjectVersion
1070
     0
  0
VISUALSTYLE
  5
5DE
102
{ACAD_XDICTIONARY
360
63B
102
}
102
{ACAD_REACTORS
330
5D9
102
}
330
5D9
100
AcDbVisualStyle
  2
Basic
 70
     7
 71
     1
 72
     0
 73
     1
 90
        0
 40
-0.6
 41
-30.0
 62
     5
 63
     7
 74
     0
 91
        4
 64
     7
 65
   257
 75
     1
175
     1
 42
1.0
 92
        8
 66
     7
 43
1.0
 76
     1
 77
     6
 78
     2
 67
     7
 79
     5
170
     0
171
     0
290
     0
174
     0
 93
        1
 44
0.0
173
     0
291
     1
 45
0.0
1001
ACAD
1000
AcDbSavedByObjectVersion
1070
     0
  0
VISUALSTYLE
  5
5E5
102
{ACAD_XDICTIONARY
360
649
102
}
102
{ACAD_REACTORS
330
5D9
102
}
330
5D9
100
AcDbVisualStyle
  2
Brighten
 70
    12
 71
     2
 72
     2
 73
     0
 90
        0
 40
-0.6
 41
-30.0
 62
     5
 63
     7
 74
     1
 91
        4
 64
     7
 65
   257
 75
     1
175
     1
 42
1.0
 92
        8
 66
     7
 43
1.0
 76
     1
 77
     6
 78
     2
 67
     7
 79
     5
170
     0
171
     0
290
     0
174
     0
 93
        1
 44
50.0
173
     0
291
     1
 45
0.0
1001
ACAD
1000
AcDbSavedByObjectVersion
1070
     0
  0
VISUALSTYLE
  5
5E9
102
{ACAD_XDICTIONARY
360
651
102
}
102
{ACAD_REACTORS
330
5D9
102
}
330
5D9
100
AcDbVisualStyle
  2
ColorChange
 70
    16
 71
     2
 72
     2
 73
     3
 90
        0
 40
-0.6
 41
-30.0
 62
     5
 63
     8
 74
     1
 91
        4
 64
     7
 65
   257
 75
     1
175
     1
 42
1.0
 92
        8
 66
     8
 43
1.0
 76
     1
 77
     6
 78
     2
 67
     7
 79
     5
170
     0
171
     0
290
     0
174
     0
 93
        1
 44
0.0
173
     0
291
     1
 45
0.0
1001
ACAD
1000
AcDbSavedByObjectVersion
1070
     0
  0
VISUALSTYLE
  5
5E2
102
{ACAD_XDICTIONARY
360
643
102
}
102
{ACAD_REACTORS
330
5D9
102
}
330
5D9
100
AcDbVisualStyle
  2
Conceptual
 70
     9
 71
     3
 72
     2
 73
     0
 90
        0
 40
-0.6
 41
-30.0
 62
     5
 63
     7
 74
     2
 91
        2
 64
     7
 65
   257
 75
     1
175
     1
 42
179.0
 92
        8
 66
     7
 43
1.0
 76
     1
 77
     6
 78
     2
 67
     7
 79
     3
170
     0
171
     0
290
     0
174
     0
 93
        1
 44
0.0
173
     0
291
     0
 45
0.0
1001
ACAD
1000
AcDbSavedByObjectVersion
1070
     0
  0
VISUALSTYLE
  5
5E4
102
{ACAD_XDICTIONARY
360
647
102
}
102
{ACAD_REACTORS
330
5D9
102
}
330
5D9
100
AcDbVisualStyle
  2
Dim
 70
    11
 71
     2
 72
     2
 73
     0
 90
        0
 40
-0.6
 41
-30.0
 62
     5
 63
     7
 74
     1
 91
        4
 64
     7
 65
   257
 75
     1
175
     1
 42
1.0
 92
        8
 66
     7
 43
1.0
 76
     1
 77
     6
 78
     2
 67
     7
 79
     5
170
     0
171
     0
290
     0
174
     0
 93
        1
 44
-50.0
173
     0
291
     1
 45
0.0
1001
ACAD
1000
AcDbSavedByObjectVersion
1070
     0
  0
VISUALSTYLE
  5
5F1
102
{ACAD_XDICTIONARY
360
661
102
}
102
{ACAD_REACTORS
330
5D9
102
}
330
5D9
100
AcDbVisualStyle
  2
EdgeColorOff
 70
    22
 71
     2
 72
     2
 73
     0
 90
        0
 40
-0.6
 41
-30.0
 62
     5
 63
     7
 74
     1
 91
        4
 64
     7
 65
   257
 75
     1
175
     1
 42
1.0
 92
        8
 66
     7
 43
1.0
 76
     1
 77
     6
 78
     2
 67
     7
 79
     5
170
     0
171
     0
290
     0
174
     0
 93
        1
 44
0.0
173
     0
291
     1
 45
0.0
1001
ACAD
1000
AcDbSavedByObjectVersion
1070
     0
  0
VISUALSTYLE
  5
5E8
102
{ACAD_XDICTIONARY
360
64F
102
}
102
{ACAD_REACTORS
330
5D9
102
}
330
5D9
100
AcDbVisualStyle
  2
Facepattern
 70
    15
 71
     2
 72
     2
 73
     0
 90
        0
 40
-0.6
 41
-30.0
 62
     5
 63
     7
 74
     1
 91
        4
 64
     7
 65
   257
 75
     1
175
     1
 42
1.0
 92
        8
 66
     7
 43
1.0
 76
     1
 77
     6
 78
     2
 67
     7
 79
     5
170
     0
171
     0
290
     0
174
     0
 93
        1
 44
0.0
173
     0
291
     1
 45
0.0
1001
ACAD
1000
AcDbSavedByObjectVersion
1070
     0
  0
VISUALSTYLE
  5
5DA
102
{ACAD_XDICTIONARY
360
633
102
}
102
{ACAD_REACTORS
330
5D9
102
}
330
5D9
100
AcDbVisualStyle
  2
Flat
 70
     0
 71
     2
 72
     1
 73
     1
 90
        2
 40
-0.6
 41
30.0
 62
     5
 63
     7
 74
     0
 91
        0
 64
     7
 65
   257
 75
     1
175
     1
 42
1.0
 92
        8
 66
     7
 43
1.0
 76
     1
 77
     6
 78
     2
 67
     7
 79
     5
170
     0
171
     0
290
     0
174
     0
 93
       13
 44
0.0
173
     0
291
     1
 45
0.0
1001
ACAD
1000
AcDbSavedByObjectVersion
1070
     0
  0
VISUALSTYLE
  5
5DB
102
{ACAD_XDICTIONARY
360
635
102
}
102
{ACAD_REACTORS
330
5D9
102
}
330
5D9
100
AcDbVisualStyle
  2
FlatWithEdges
 70
     1
 71
     2
 72
     1
 73
     1
 90
        2
 40
-0.6
 41
30.0
 62
     5
 63
     7
 74
     1
 91
        0
 64
     7
 65
   257
 75
     1
175
     1
 42
1.0
 92
        0
 66
   257
 43
1.0
 76
     1
 77
     6
 78
     2
 67
     7
 79
     5
170
     0
171
     0
290
     0
174
     0
 93
       13
 44
0.0
173
     0
291
     1
 45
0.0
1001
ACAD
1000
AcDbSavedByObjectVersion
1070
     0
  0
VISUALSTYLE
  5
5DC
102
{ACAD_XDICTIONARY
360
637
102
}
102
{ACAD_REACTORS
330
5D9
102
}
330
5D9
100
AcDbVisualStyle
  2
Gouraud
 70
     2
 71
     2
 72
     2
 73
     1
 90
        2
 40
-0.6
 41
30.0
 62
     5
 63
     7
 74
     0
 91
        0
 64
     7
 65
   257
 75
     1
175
     1
 42
1.0
 92
        0
 66
     7
 43
1.0
 76
     1
 77
     6
 78
     2
 67
     7
 79
     5
170
     0
171
     0
290
     0
174
     0
 93
       13
 44
0.0
173
     0
291
     1
 45
0.0
1001
ACAD
1000
AcDbSavedByObjectVersion
1070
     0
  0
VISUALSTYLE
  5
5DD
102
{ACAD_XDICTIONARY
360
639
102
}
102
{ACAD_REACTORS
330
5D9
102
}
330
5D9
100
AcDbVisualStyle
  2
GouraudWithEdges
 70
     3
 71
     2
 72
     2
 73
     1
 90
        2
 40
-0.6
 41
30.0
 62
     5
 63
     7
 74
     1
 91
        0
 64
     7
 65
   257
 75
     1
175
     1
 42
1.0
 92
        0
 66
   257
 43
1.0
 76
     1
 77
     6
 78
     2
 67
     7
 79
     5
170
     0
171
     0
290
     0
174
     0
 93
       13
 44
0.0
173
     0
291
     1
 45
0.0
1001
ACAD
1000
AcDbSavedByObjectVersion
1070
     0
  0
VISUALSTYLE
  5
5E1
102
{ACAD_XDICTIONARY
360
641
102
}
102
{ACAD_REACTORS
330
5D9
102
}
330
5D9
100
AcDbVisualStyle
  2
Hidden
 70
     6
 71
     1
 72
     2
 73
     2
 90
        0
 40
-0.6
 41
-30.0
 62
     5
 63
     7
 74
     2
 91
        2
 64
     7
 65
   257
 75
     2
175
     1
 42
40.0
 92
        0
 66
   257
 43
1.0
 76
     1
 77
     6
 78
     2
 67
     7
 79
     3
170
     0
171
     0
290
     0
174
     0
 93
        1
 44
0.0
173
     0
291
     0
 45
0.0
1001
ACAD
1000
AcDbSavedByObjectVersion
1070
     0
  0
VISUALSTYLE
  5
5EF
102
{ACAD_XDICTIONARY
360
65D
102
}
102
{ACAD_REACTORS
330
5D9
102
}
330
5D9
100
AcDbVisualStyle
  2
JitterOff
 70
    20
 71
     2
 72
     2
 73
     0
 90
        0
 40
-0.6
 41
-30.0
 62
     5
 63
     7
 74
     1
 91
        4
 64
     7
 65
   257
 75
     1
175
     1
 42
1.0
 92
       10
 66
     7
 43
1.0
 76
     1
 77
     6
 78
     2
 67
     7
 79
     5
170
     0
171
     0
290
     0
174
     0
 93
        1
 44
0.0
173
     0
291
     1
 45
0.0
1001
ACAD
1000
AcDbSavedByObjectVersion
1070
     0
  0
VISUALSTYLE
  5
5E7
102
{ACAD_XDICTIONARY
360
64D
102
}
102
{ACAD_REACTORS
330
5D9
102
}
330
5D9
100
AcDbVisualStyle
  2
Linepattern
 70
    14
 71
     2
 72
     2
 73
     0
 90
        0
 40
-0.6
 41
-30.0
 62
     5
 63
     7
 74
     1
 91
        4
 64
     7
 65
   257
 75
     7
175
     7
 42
1.0
 92
        8
 66
     7
 43
1.0
 76
     1
 77
     6
 78
     2
 67
     7
 79
     5
170
     0
171
     0
290
     0
174
     0
 93
        1
 44
0.0
173
     0
291
     1
 45
0.0
1001
ACAD
1000
AcDbSavedByObjectVersion
1070
     0
  0
VISUALSTYLE
  5
5F0
102
{ACAD_XDICTIONARY
360
65F
102
}
102
{ACAD_REACTORS
330
5D9
102
}
330
5D9
100
AcDbVisualStyle
  2
OverhangOff
 70
    21
 71
     2
 72
     2
 73
     0
 90
        0
 40
-0.6
 41
-30.0
 62
     5
 63
     7
 74
     1
 91
        4
 64
     7
 65
   257
 75
     1
175
     1
 42
1.0
 92
        9
 66
     7
 43
1.0
 76
     1
 77
     6
 78
     2
 67
     7
 79
     5
170
     0
171
     0
290
     0
174
     0
 93
        1
 44
0.0
173
     0
291
     1
 45
0.0
1001
ACAD
1000
AcDbSavedByObjectVersion
1070
     0
  0
VISUALSTYLE
  5
5E3
102
{ACAD_XDICTIONARY
360
645
102
}
102
{ACAD_REACTORS
330
5D9
102
}
330
5D9
100
AcDbVisualStyle
  2
Realistic
 70
     8
 71
     2
 72
     3
 73
     0
 90
        2
 40
-0.6
 41
30.0
 62
     5
 63
     7
 74
     0
 91
        0
 64
     7
 65
   257
 75
     1
175
     1
 42
1.0
 92
        8
 66
   257
 43
1.0
 76
     1
 77
     6
 78
     2
 67
     7
 79
     3
170
     0
171
     0
290
     0
174
     0
 93
       13
 44
0.0
173
     0
291
     0
 45
0.0
1001
ACAD
1000
AcDbSavedByObjectVersion
1070
     0
  0
VISUALSTYLE
  5
5EE
102
{ACAD_XDICTIONARY
360
65B
102
}
102
{ACAD_REACTORS
330
5D9
102
}
330
5D9
100
AcDbVisualStyle
  2
Shaded
 70
    27
 71
     2
 72
     2
 73
     1
 90
        2
 40
-0.6
 41
30.0
 62
     5
 63
     7
 74
     0
 91
        4
 64
     7
 65
   257
 75
     1
175
     1
 42
1.0
 92
        8
 66
   257
 43
1.0
 76
     1
 77
     6
 78
     2
 67
     8
 79
     3
170
     0
171
     0
290
     0
174
     0
 93
        5
 44
0.0
173
     0
291
     0
 45
0.0
1001
ACAD
1000
AcDbSavedByObjectVersion
1070
     0
  0
VISUALSTYLE
  5
5ED
102
{ACAD_XDICTIONARY
360
659
102
}
102
{ACAD_REACTORS
330
5D9
102
}
330
5D9
100
AcDbVisualStyle
  2
Shaded with edges
 70
    26
 71
     2
 72
     2
 73
     1
 90
        2
 40
-0.6
 41
30.0
 62
     5
 63
     7
 74
     1
 91
       10
 64
     7
 65
   257
 75
     2
175
     1
 42
1.0
 92
        8
 66
   257
 43
1.0
 76
     1
 77
     6
 78
     2
 67
     7
 79
     3
170
     0
171
     0
290
     0
174
     0
 93
        5
 44
0.0
173
     0
291
     0
 45
0.0
1001
ACAD
1000
AcDbSavedByObjectVersion
1070
     0
  0
VISUALSTYLE
  5
5EA
102
{ACAD_XDICTIONARY
360
653
102
}
102
{ACAD_REACTORS
330
5D9
102
}
330
5D9
100
AcDbVisualStyle
  2
Shades of Gray
 70
    23
 71
     2
 72
     2
 73
     3
 90
        0
 40
-0.6
 41
-30.0
 62
     5
 63
     7
 74
     2
 91
        2
 64
     7
 65
     7
 75
     1
175
     1
 42
40.0
 92
        8
 66
     7
 43
1.0
 76
     1
 77
     6
 78
     2
 67
     7
 79
     3
170
     0
171
     0
290
     0
174
     0
 93
        1
 44
0.0
173
     0
291
     0
 45
0.0
1001
ACAD
1000
AcDbSavedByObjectVersion
1070
     0
  0
VISUALSTYLE
  5
5EB
102
{ACAD_XDICTIONARY
360
655
102
}
102
{ACAD_REACTORS
330
5D9
102
}
330
5D9
100
AcDbVisualStyle
  2
Sketchy
 70
    24
 71
     1
 72
     2
 73
     2
 90
        0
 40
-0.6
 41
-30.0
 62
     5
 63
     7
 74
     2
 91
        2
 64
     7
 65
     7
 75
     1
175
     1
 42
40.0
 92
       11
 66
     7
 43
1.0
 76
     1
 77
     6
 78
     2
 67
     7
 79
     6
170
     0
171
     0
290
     0
174
     0
 93
        1
 44
0.0
173
     0
291
     0
 45
0.0
1001
ACAD
1000
AcDbSavedByObjectVersion
1070
     0
  0
VISUALSTYLE
  5
5E6
102
{ACAD_XDICTIONARY
360
64B
102
}
102
{ACAD_REACTORS
330
5D9
102
}
330
5D9
100
AcDbVisualStyle
  2
Thicken
 70
    13
 71
     2
 72
     2
 73
     0
 90
        0
 40
-0.6
 41
-30.0
 62
     5
 63
     7
 74
     1
 91
        4
 64
     7
 65
   257
 75
     1
175
     1
 42
1.0
 92
       12
 66
     7
 43
1.0
 76
     1
 77
     6
 78
     2
 67
     7
 79
     5
170
     0
171
     0
290
     0
174
     0
 93
        1
 44
0.0
173
     0
291
     1
 45
0.0
1001
ACAD
1000
AcDbSavedByObjectVersion
1070
     0
  0
VISUALSTYLE
  5
5E0
102
{ACAD_XDICTIONARY
360
63F
102
}
102
{ACAD_REACTORS
330
5D9
102
}
330
5D9
100
AcDbVisualStyle
  2
Wireframe
 70
     5
 71
     0
 72
     2
 73
     0
 90
        0
 40
-0.6
 41
-30.0
 62
     5
 63
     7
 74
     1
 91
        4
 64
     7
 65
   257
 75
     1
175
     1
 42
1.0
 92
        0
 66
   257
 43
1.0
 76
     1
 77
     6
 78
     2
 67
     7
 79
     3
170
     0
171
     0
290
     0
174
     0
 93
        1
 44
0.0
173
     0
291
     0
 45
0.0
1001
ACAD
1000
AcDbSavedByObjectVersion
1070
     0
  0
VISUALSTYLE
  5
5EC
102
{ACAD_XDICTIONARY
360
657
102
}
102
{ACAD_REACTORS
330
5D9
102
}
330
5D9
100
AcDbVisualStyle
  2
X-Ray
 70
    25
 71
     2
 72
     2
 73
     1
 90
        1
 40
0.5
 41
-30.0
 62
     5
 63
     7
 74
     1
 91
        0
 64
     7
 65
   257
 75
     1
175
     1
 42
1.0
 92
        8
 66
     7
 43
1.0
 76
     1
 77
     6
 78
     2
 67
     7
 79
     3
170
     0
171
     0
290
     0
174
     0
 93
       13
 44
0.0
173
     0
291
     0
 45
0.0
1001
ACAD
1000
AcDbSavedByObjectVersion
1070
     0
  0
DICTIONARYVAR
  5
626
102
{ACAD_REACTORS
330
621
102
}
330
621
100
DictionaryVariables
280
     0
  1
1:1
  0
DICTIONARYVAR
  5
623
102
{ACAD_REACTORS
330
621
102
}
330
621
100
DictionaryVariables
280
     0
  1
STANDARD
  0
DICTIONARYVAR
  5
622
102
{ACAD_REACTORS
330
621
102
}
330
621
100
DictionaryVariables
280
     0
  1
STANDARD
  0
DICTIONARYVAR
  5
624
102
{ACAD_REACTORS
330
621
102
}
330
621
100
DictionaryVariables
280
     0
  1
Imperial24
  0
DICTIONARYVAR
  5
625
102
{ACAD_REACTORS
330
621
102
}
330
621
100
DictionaryVariables
280
     0
  1
Imperial24
  0
DICTIONARYVAR
  5
629
102
{ACAD_REACTORS
330
621
102
}
330
621
100
DictionaryVariables
280
     0
  1
1
  0
DICTIONARYVAR
  5
628
102
{ACAD_REACTORS
330
621
102
}
330
621
100
DictionaryVariables
280
     0
  1
0
  0
DICTIONARYVAR
  5
627
102
{ACAD_REACTORS
330
621
102
}
330
621
100
DictionaryVariables
280
     0
  1
127
  0
DICTIONARYVAR
  5
62A
102
{ACAD_REACTORS
330
621
102
}
330
621
100
DictionaryVariables
280
     0
  1
2
  0
DICTIONARY
  5
667
330
60C
100
AcDbDictionary
280
     1
281
     1
  3
ACAD_XREC_ROUNDTRIP
360
668
  0
DICTIONARY
  5
669
330
60D
100
AcDbDictionary
280
     1
281
     1
  3
ACAD_XREC_ROUNDTRIP
360
66A
  0
DICTIONARY
  5
66B
330
60E
100
AcDbDictionary
280
     1
281
     1
  3
ACAD_XREC_ROUNDTRIP
360
66C
  0
DICTIONARY
  5
5CA
330
5C9
100
AcDbDictionary
280
     1
281
     1
  3
ACAD_XREC_ROUNDTRIP
360
631
  3
BUMPTILE
360
5CC
  3
DIFFUSETILE
360
5CB
  3
OPACITYTILE
360
5CF
  3
REFLECTIONTILE
360
5CE
  3
REFRACTIONTILE
360
5D0
  3
SPECULARTILE
360
5CD
  0
DICTIONARY
  5
5C2
330
5C1
100
AcDbDictionary
280
     1
281
     1
  3
ACAD_XREC_ROUNDTRIP
360
630
  3
BUMPTILE
360
5C4
  3
DIFFUSETILE
360
5C3
  3
OPACITYTILE
360
5C7
  3
REFLECTIONTILE
360
5C6
  3
REFRACTIONTILE
360
5C8
  3
SPECULARTILE
360
5C5
  0
DICTIONARY
  5
5D2
330
5D1
100
AcDbDictionary
280
     1
281
     1
  3
ACAD_XREC_ROUNDTRIP
360
632
  3
BUMPTILE
360
5D4
  3
DIFFUSETILE
360
5D3
  3
OPACITYTILE
360
5D7
  3
REFLECTIONTILE
360
5D6
  3
REFRACTIONTILE
360
5D8
  3
SPECULARTILE
360
5D5
  0
DICTIONARY
  5
665
330
60A
100
AcDbDictionary
280
     1
281
     1
  3
ACAD_XREC_ROUNDTRIP
360
666
  0
DICTIONARY
  5
62C
330
5F4
100
AcDbDictionary
280
     1
281
     1
  3
ACAD_ROUNDTRIP_2008_TABLESTYLE_CELLSTYLEMAP
360
62D
  3
ACAD_XREC_ROUNDTRIP
360
663
  0
DICTIONARY
  5
63D
330
5DF
100
AcDbDictionary
280
     1
281
     1
  3
ACAD_XREC_ROUNDTRIP
360
63E
  0
DICTIONARY
  5
63B
330
5DE
100
AcDbDictionary
280
     1
281
     1
  3
ACAD_XREC_ROUNDTRIP
360
63C
  0
DICTIONARY
  5
649
330
5E5
100
AcDbDictionary
280
     1
281
     1
  3
ACAD_XREC_ROUNDTRIP
360
64A
  0
DICTIONARY
  5
651
330
5E9
100
AcDbDictionary
280
     1
281
     1
  3
ACAD_XREC_ROUNDTRIP
360
652
  0
DICTIONARY
  5
643
330
5E2
100
AcDbDictionary
280
     1
281
     1
  3
ACAD_XREC_ROUNDTRIP
360
644
  0
DICTIONARY
  5
647
330
5E4
100
AcDbDictionary
280
     1
281
     1
  3
ACAD_XREC_ROUNDTRIP
360
648
  0
DICTIONARY
  5
661
330
5F1
100
AcDbDictionary
280
     1
281
     1
  3
ACAD_XREC_ROUNDTRIP
360
662
  0
DICTIONARY
  5
64F
330
5E8
100
AcDbDictionary
280
     1
281
     1
  3
ACAD_XREC_ROUNDTRIP
360
650
  0
DICTIONARY
  5
633
330
5DA
100
AcDbDictionary
280
     1
281
     1
  3
ACAD_XREC_ROUNDTRIP
360
634
  0
DICTIONARY
  5
635
330
5DB
100
AcDbDictionary
280
     1
281
     1
  3
ACAD_XREC_ROUNDTRIP
360
636
  0
DICTIONARY
  5
637
330
5DC
100
AcDbDictionary
280
     1
281
     1
  3
ACAD_XREC_ROUNDTRIP
360
638
  0
DICTIONARY
  5
639
330
5DD
100
AcDbDictionary
280
     1
281
     1
  3
ACAD_XREC_ROUNDTRIP
360
63A
  0
DICTIONARY
  5
641
330
5E1
100
AcDbDictionary
280
     1
281
     1
  3
ACAD_XREC_ROUNDTRIP
360
642
  0
DICTIONARY
  5
65D
330
5EF
100
AcDbDictionary
280
     1
281
     1
  3
ACAD_XREC_ROUNDTRIP
360
65E
  0
DICTIONARY
  5
64D
330
5E7
100
AcDbDictionary
280
     1
281
     1
  3
ACAD_XREC_ROUNDTRIP
360
64E
  0
DICTIONARY
  5
65F
330
5F0
100
AcDbDictionary
280
     1
281
     1
  3
ACAD_XREC_ROUNDTRIP
360
660
  0
DICTIONARY
  5
645
330
5E3
100
AcDbDictionary
280
     1
281
     1
  3
ACAD_XREC_ROUNDTRIP
360
646
  0
DICTIONARY
  5
65B
330
5EE
100
AcDbDictionary
280
     1
281
     1
  3
ACAD_XREC_ROUNDTRIP
360
65C
  0
DICTIONARY
  5
659
330
5ED
100
AcDbDictionary
280
     1
281
     1
  3
ACAD_XREC_ROUNDTRIP
360
65A
  0
DICTIONARY
  5
653
330
5EA
100
AcDbDictionary
280
     1
281
     1
  3
ACAD_XREC_ROUNDTRIP
360
654
  0
DICTIONARY
  5
655
330
5EB
100
AcDbDictionary
280
     1
281
     1
  3
ACAD_XREC_ROUNDTRIP
360
656
  0
DICTIONARY
  5
64B
330
5E6
100
AcDbDictionary
280
     1
281
     1
  3
ACAD_XREC_ROUNDTRIP
360
64C
  0
DICTIONARY
  5
63F
330
5E0
100
AcDbDictionary
280
     1
281
     1
  3
ACAD_XREC_ROUNDTRIP
360
640
  0
DICTIONARY
  5
657
330
5EC
100
AcDbDictionary
280
     1
281
     1
  3
ACAD_XREC_ROUNDTRIP
360
658
  0
XRECORD
  5
668
102
{ACAD_REACTORS
330
667
102
}
330
667
100
AcDbXrecord
280
     1
102
DISPLAYNAME
  1
Imperial24
102
FLAGS
 90
        0
  0
XRECORD
  5
66A
102
{ACAD_REACTORS
330
669
102
}
330
669
100
AcDbXrecord
280
     1
102
SHADEPLOT
 70
     0
102
SHADEPLOTRESLEVEL
 70
     2
102
SHADEPLOTCUSTOMDPI
 70
   300
  0
XRECORD
  5
66C
102
{ACAD_REACTORS
330
66B
102
}
330
66B
100
AcDbXrecord
280
     1
102
SHADEPLOT
 70
     0
102
SHADEPLOTRESLEVEL
 70
     2
102
SHADEPLOTCUSTOMDPI
 70
   300
  0
XRECORD
  5
631
102
{ACAD_REACTORS
330
5CA
102
}
330
5CA
100
AcDbXrecord
280
     1
102
MATERIAL
148
0.0
149
0.0
149
0.0
 93
        0
 94
      127
282
     0
 72
     0
 77
     0
171
     0
175
     0
179
     0
273
     0
  0
XRECORD
  5
5CC
102
{ACAD_REACTORS
330
5CA
102
}
330
5CA
100
AcDbXrecord
280
     1
270
     1
271
     1
  0
XRECORD
  5
5CB
102
{ACAD_REACTORS
330
5CA
102
}
330
5CA
100
AcDbXrecord
280
     1
270
     1
271
     1
  0
XRECORD
  5
5CF
102
{ACAD_REACTORS
330
5CA
102
}
330
5CA
100
AcDbXrecord
280
     1
270
     1
271
     1
  0
XRECORD
  5
5CE
102
{ACAD_REACTORS
330
5CA
102
}
330
5CA
100
AcDbXrecord
280
     1
270
     1
271
     1
  0
XRECORD
  5
5D0
102
{ACAD_REACTORS
330
5CA
102
}
330
5CA
100
AcDbXrecord
280
     1
270
     1
271
     1
  0
XRECORD
  5
5CD
102
{ACAD_REACTORS
330
5CA
102
}
330
5CA
100
AcDbXrecord
280
     1
270
     1
271
     1
  0
XRECORD
  5
630
102
{ACAD_REACTORS
330
5C2
102
}
330
5C2
100
AcDbXrecord
280
     1
102
MATERIAL
148
0.0
149
0.0
149
0.0
 93
        0
 94
      127
282
     0
 72
     0
 77
     0
171
     0
175
     0
179
     0
273
     0
  0
XRECORD
  5
5C4
102
{ACAD_REACTORS
330
5C2
102
}
330
5C2
100
AcDbXrecord
280
     1
270
     1
271
     1
  0
XRECORD
  5
5C3
102
{ACAD_REACTORS
330
5C2
102
}
330
5C2
100
AcDbXrecord
280
     1
270
     1
271
     1
  0
XRECORD
  5
5C7
102
{ACAD_REACTORS
330
5C2
102
}
330
5C2
100
AcDbXrecord
280
     1
270
     1
271
     1
  0
XRECORD
  5
5C6
102
{ACAD_REACTORS
330
5C2
102
}
330
5C2
100
AcDbXrecord
280
     1
270
     1
271
     1
  0
XRECORD
  5
5C8
102
{ACAD_REACTORS
330
5C2
102
}
330
5C2
100
AcDbXrecord
280
     1
270
     1
271
     1
  0
XRECORD
  5
5C5
102
{ACAD_REACTORS
330
5C2
102
}
330
5C2
100
AcDbXrecord
280
     1
270
     1
271
     1
  0
XRECORD
  5
632
102
{ACAD_REACTORS
330
5D2
102
}
330
5D2
100
AcDbXrecord
280
     1
102
MATERIAL
148
0.0
149
0.0
149
0.0
 93
        0
 94
      127
282
     0
 72
     0
 77
     0
171
     0
175
     0
179
     0
273
     0
  0
XRECORD
  5
5D4
102
{ACAD_REACTORS
330
5D2
102
}
330
5D2
100
AcDbXrecord
280
     1
270
     1
271
     1
  0
XRECORD
  5
5D3
102
{ACAD_REACTORS
330
5D2
102
}
330
5D2
100
AcDbXrecord
280
     1
270
     1
271
     1
  0
XRECORD
  5
5D7
102
{ACAD_REACTORS
330
5D2
102
}
330
5D2
100
AcDbXrecord
280
     1
270
     1
271
     1
  0
XRECORD
  5
5D6
102
{ACAD_REACTORS
330
5D2
102
}
330
5D2
100
AcDbXrecord
280
     1
270
     1
271
     1
  0
XRECORD
  5
5D8
102
{ACAD_REACTORS
330
5D2
102
}
330
5D2
100
AcDbXrecord
280
     1
270
     1
271
     1
  0
XRECORD
  5
5D5
102
{ACAD_REACTORS
330
5D2
102
}
330
5D2
100
AcDbXrecord
280
     1
270
     1
271
     1
  0
XRECORD
  5
666
102
{ACAD_REACTORS
330
665
102
}
330
665
100
AcDbXrecord
280
     1
102
DISPLAYNAME
  1
Imperial24
102
FLAGS
 90
        0
  0
CELLSTYLEMAP
  5
62D
102
{ACAD_REACTORS
330
62C
102
}
330
62C
100
AcDbCellStyleMap
 90
        3
300
CELLSTYLE
  1
TABLEFORMAT_BEGIN
 90
        5
170
     1
 91
        0
 92
    32768
 62
   257
 93
        1
300
CONTENTFORMAT
  1
CONTENTFORMAT_BEGIN
 90
        0
 91
        0
 92
      512
 93
        0
300

 40
0.0
140
1.0
 94
        5
 62
     0
340
1E6
144
0.25
309
CONTENTFORMAT_END
171
     0
 94
        0
309
TABLEFORMAT_END
  1
CELLSTYLE_BEGIN
 90
        1
 91
        1
300
_TITLE
309
CELLSTYLE_END
300
CELLSTYLE
  1
TABLEFORMAT_BEGIN
 90
        5
170
     1
 91
        0
 92
        0
 62
   257
 93
        1
300
CONTENTFORMAT
  1
CONTENTFORMAT_BEGIN
 90
        0
 91
        0
 92
      512
 93
        0
300

 40
0.0
140
1.0
 94
        5
 62
     0
340
1E6
144
0.18
309
CONTENTFORMAT_END
171
     0
 94
        0
309
TABLEFORMAT_END
  1
CELLSTYLE_BEGIN
 90
        2
 91
        1
300
_HEADER
309
CELLSTYLE_END
300
CELLSTYLE
  1
TABLEFORMAT_BEGIN
 90
        5
170
     1
 91
        0
 92
        0
 62
   257
 93
        1
300
CONTENTFORMAT
  1
CONTENTFORMAT_BEGIN
 90
        0
 91
        0
 92
      512
 93
        0
300

 40
0.0
140
1.0
 94
        2
 62
     0
340
1E6
144
0.18
309
CONTENTFORMAT_END
171
     0
 94
        0
309
TABLEFORMAT_END
  1
CELLSTYLE_BEGIN
 90
        3
 91
        2
300
_DATA
309
CELLSTYLE_END
  0
XRECORD
  5
663
102
{ACAD_REACTORS
330
62C
102
}
330
62C
100
AcDbXrecord
280
     1
102
ACAD_ROUNDTRIP_PRE2007_TABLESTYLE
 90
      512
 91
        0
  1

 92
      512
 93
        0
  2

 94
      512
 95
        0
  3

  0
XRECORD
  5
63E
102
{ACAD_REACTORS
330
63D
102
}
330
63D
100
AcDbXrecord
280
     1
102
RTVSPost2010Prop28
280
     1
102
RTVSPost2010PropOp28
 70
     1
102
RTVSPost2010Prop29
280
     1
102
RTVSPost2010PropOp29
 70
     1
102
RTVSPost2010Prop30
280
     0
102
RTVSPost2010PropOp30
 70
     1
102
RTVSPost2010Prop31
280
     0
102
RTVSPost2010PropOp31
 70
     1
102
RTVSPost2010Prop32
280
     0
102
RTVSPost2010PropOp32
 70
     1
102
RTVSPost2010Prop33
280
     0
102
RTVSPost2010PropOp33
 70
     1
102
RTVSPost2010Prop34
280
     0
102
RTVSPost2010PropOp34
 70
     1
102
RTVSPost2010Prop35
280
     0
102
RTVSPost2010PropOp35
 70
     1
102
RTVSPost2010Prop36
280
     0
102
RTVSPost2010PropOp36
 70
     1
102
RTVSPost2010Prop37
 90
       50
102
RTVSPost2010PropOp37
 70
     1
102
RTVSPost2010Prop38
140
0.0
102
RTVSPost2010PropOp38
 70
     1
102
RTVSPost2010Prop39
140
1.0
102
RTVSPost2010PropOp39
 70
     1
102
RTVSPost2010Prop40
 90
        0
102
RTVSPost2010PropOp40
 70
     1
102
RTVSPost2010Prop41ColorIndex
 90
       18
102
RTVSPost2010Prop41ColorRGB
 90
        0
102
RTVSPost2010PropOp41
 70
     1
102
RTVSPost2010Prop42
 90
       50
102
RTVSPost2010PropOp42
 70
     1
102
RTVSPost2010Prop43
 90
        3
102
RTVSPost2010PropOp43
 70
     1
102
RTVSPost2010Prop44ColorIndex
 90
        5
102
RTVSPost2010Prop44ColorRGB
 90
      255
102
RTVSPost2010PropOp44
 70
     1
102
RTVSPost2010Prop45
280
     0
102
RTVSPost2010PropOp45
 70
     1
102
RTVSPost2010Prop46
 90
       50
102
RTVSPost2010PropOp46
 70
     1
102
RTVSPost2010Prop47
 90
       50
102
RTVSPost2010PropOp47
 70
     1
102
RTVSPost2010Prop48
 90
       50
102
RTVSPost2010PropOp48
 70
     1
102
RTVSPost2010Prop49
280
     0
102
RTVSPost2010PropOp49
 70
     1
102
RTVSPost2010Prop50
 90
       50
102
RTVSPost2010PropOp50
 70
     1
102
RTVSPost2010Prop51ColorIndex
 90
      256
102
RTVSPost2010Prop51ColorRGB
 90
-16777216
102
RTVSPost2010PropOp51
 70
     0
102
RTVSPost2010Prop52
140
1.0
102
RTVSPost2010PropOp52
 70
     0
102
RTVSPost2010Prop53
 90
        2
102
RTVSPost2010PropOp53
 70
     1
102
RTVSPost2010Prop54
  1
strokes_ogs.tif
102
RTVSPost2010PropOp54
 70
     1
102
RTVSPost2010Prop55
280
     0
102
RTVSPost2010PropOp55
 70
     1
102
RTVSPost2010Prop56
140
1.0
102
RTVSPost2010PropOp56
 70
     1
102
RTVSPost2010Prop57
140
1.0
102
RTVSPost2010PropOp57
 70
     1
102
RTVSPropertyOp0
 70
     1
102
RTVSPropertyOp1
 70
     1
102
RTVSPropertyOp2
 70
     1
102
RTVSPropertyOp3
 70
     1
102
RTVSPropertyOp4
 70
     1
102
RTVSPropertyOp5
 70
     1
102
RTVSPropertyOp6
 70
     1
102
RTVSPropertyOp7
 70
     1
102
RTVSPropertyOp8
 70
     1
102
RTVSPropertyOp9
 70
     1
102
RTVSPropertyOp10
 70
     1
102
RTVSPropertyOp11
 70
     1
102
RTVSPropertyOp12
 70
     1
102
RTVSPropertyOp13
 70
     1
102
RTVSPropertyOp14
 70
     1
102
RTVSPropertyOp15
 70
     1
102
RTVSPropertyOp16
 70
     1
102
RTVSPropertyOp17
 70
     1
102
RTVSPropertyOp18
 70
     1
102
RTVSPropertyOp19
 70
     1
102
RTVSPropertyOp20
 70
     1
102
RTVSPropertyOp21
 70
     1
102
RTVSPropertyOp22
 70
     1
102
RTVSPropertyOp23
 70
     1
102
RTVSPropertyOp24
 70
     1
102
RTVSPropertyOp25
 70
     1
102
RTVSPropertyOp26
 70
     1
102
RTVSPropertyOp27
 70
     1
102
RTVSPropertyOp28
 70
     1
102
RTVSPropertyOp29
 70
     1
102
RTVSPropertyOp30
 70
     1
102
RTVSPropertyOp31
 70
     1
102
RTVSPropertyOp32
 70
     1
102
RTVSPropertyOp33
 70
     1
102
RTVSPropertyOp34
 70
     1
102
RTVSPropertyOp35
 70
     1
102
RTVSPropertyOp36
 70
     1
102
RTVSPropertyOp37
 70
     1
102
RTVSPropertyOp38
 70
     1
102
RTVSPropertyOp39
 70
     1
102
RTVSPropertyOp40
 70
     1
102
RTVSPropertyOp41
 70
     1
102
RTVSPropertyOp42
 70
     1
102
RTVSPropertyOp43
 70
     1
102
RTVSPropertyOp44
 70
     1
102
RTVSPropertyOp45
 70
     1
102
RTVSPropertyOp46
 70
     1
102
RTVSPropertyOp47
 70
     1
102
RTVSPropertyOp48
 70
     1
102
RTVSPropertyOp49
 70
     1
102
RTVSPropertyOp50
 70
     1
102
RTVSPropertyOp51
 70
     0
102
RTVSPropertyOp52
 70
     0
102
RTVSPropertyOp53
 70
     1
102
RTVSPropertyOp54
 70
     1
102
RTVSPropertyOp55
 70
     1
102
RTVSPropertyOp56
 70
     1
102
RTVSPropertyOp57
 70
     1
102
RTVSPropertyOp58
 70
     1
102
RTVSPropertyOp59
 70
     1
102
RTVSPropertyOp60
 70
     1
102
RTVSPropertyOp61
 70
     1
102
RTVSPropertyOp62
 70
     1
  0
XRECORD
  5
63C
102
{ACAD_REACTORS
330
63B
102
}
330
63B
100
AcDbXrecord
280
     1
102
RTVSPost2010Prop28
280
     0
102
RTVSPost2010PropOp28
 70
     1
102
RTVSPost2010Prop29
280
     1
102
RTVSPost2010PropOp29
 70
     1
102
RTVSPost2010Prop30
280
     1
102
RTVSPost2010PropOp30
 70
     1
102
RTVSPost2010Prop31
280
     0
102
RTVSPost2010PropOp31
 70
     1
102
RTVSPost2010Prop32
280
     0
102
RTVSPost2010PropOp32
 70
     1
102
RTVSPost2010Prop33
280
     0
102
RTVSPost2010PropOp33
 70
     1
102
RTVSPost2010Prop34
280
     0
102
RTVSPost2010PropOp34
 70
     1
102
RTVSPost2010Prop35
280
     0
102
RTVSPost2010PropOp35
 70
     1
102
RTVSPost2010Prop36
280
     0
102
RTVSPost2010PropOp36
 70
     1
102
RTVSPost2010Prop37
 90
       50
102
RTVSPost2010PropOp37
 70
     1
102
RTVSPost2010Prop38
140
0.0
102
RTVSPost2010PropOp38
 70
     1
102
RTVSPost2010Prop39
140
1.0
102
RTVSPost2010PropOp39
 70
     1
102
RTVSPost2010Prop40
 90
        0
102
RTVSPost2010PropOp40
 70
     1
102
RTVSPost2010Prop41ColorIndex
 90
       18
102
RTVSPost2010Prop41ColorRGB
 90
        0
102
RTVSPost2010PropOp41
 70
     1
102
RTVSPost2010Prop42
 90
       50
102
RTVSPost2010PropOp42
 70
     1
102
RTVSPost2010Prop43
 90
        3
102
RTVSPost2010PropOp43
 70
     1
102
RTVSPost2010Prop44ColorIndex
 90
        5
102
RTVSPost2010Prop44ColorRGB
 90
      255
102
RTVSPost2010PropOp44
 70
     1
102
RTVSPost2010Prop45
280
     0
102
RTVSPost2010PropOp45
 70
     1
102
RTVSPost2010Prop46
 90
       50
102
RTVSPost2010PropOp46
 70
     1
102
RTVSPost2010Prop47
 90
       50
102
RTVSPost2010PropOp47
 70
     1
102
RTVSPost2010Prop48
 90
       50
102
RTVSPost2010PropOp48
 70
     1
102
RTVSPost2010Prop49
280
     0
102
RTVSPost2010PropOp49
 70
     1
102
RTVSPost2010Prop50
 90
       50
102
RTVSPost2010PropOp50
 70
     1
102
RTVSPost2010Prop51ColorIndex
 90
      256
102
RTVSPost2010Prop51ColorRGB
 90
-16777216
102
RTVSPost2010PropOp51
 70
     0
102
RTVSPost2010Prop52
140
1.0
102
RTVSPost2010PropOp52
 70
     0
102
RTVSPost2010Prop53
 90
        2
102
RTVSPost2010PropOp53
 70
     1
102
RTVSPost2010Prop54
  1
strokes_ogs.tif
102
RTVSPost2010PropOp54
 70
     1
102
RTVSPost2010Prop55
280
     0
102
RTVSPost2010PropOp55
 70
     1
102
RTVSPost2010Prop56
140
1.0
102
RTVSPost2010PropOp56
 70
     1
102
RTVSPost2010Prop57
140
1.0
102
RTVSPost2010PropOp57
 70
     1
102
RTVSPropertyOp0
 70
     1
102
RTVSPropertyOp1
 70
     1
102
RTVSPropertyOp2
 70
     1
102
RTVSPropertyOp3
 70
     1
102
RTVSPropertyOp4
 70
     1
102
RTVSPropertyOp5
 70
     1
102
RTVSPropertyOp6
 70
     1
102
RTVSPropertyOp7
 70
     1
102
RTVSPropertyOp8
 70
     1
102
RTVSPropertyOp9
 70
     1
102
RTVSPropertyOp10
 70
     1
102
RTVSPropertyOp11
 70
     1
102
RTVSPropertyOp12
 70
     1
102
RTVSPropertyOp13
 70
     1
102
RTVSPropertyOp14
 70
     1
102
RTVSPropertyOp15
 70
     1
102
RTVSPropertyOp16
 70
     1
102
RTVSPropertyOp17
 70
     1
102
RTVSPropertyOp18
 70
     1
102
RTVSPropertyOp19
 70
     1
102
RTVSPropertyOp20
 70
     1
102
RTVSPropertyOp21
 70
     1
102
RTVSPropertyOp22
 70
     1
102
RTVSPropertyOp23
 70
     1
102
RTVSPropertyOp24
 70
     1
102
RTVSPropertyOp25
 70
     1
102
RTVSPropertyOp26
 70
     1
102
RTVSPropertyOp27
 70
     1
102
RTVSPropertyOp28
 70
     1
102
RTVSPropertyOp29
 70
     1
102
RTVSPropertyOp30
 70
     1
102
RTVSPropertyOp31
 70
     1
102
RTVSPropertyOp32
 70
     1
102
RTVSPropertyOp33
 70
     1
102
RTVSPropertyOp34
 70
     1
102
RTVSPropertyOp35
 70
     1
102
RTVSPropertyOp36
 70
     1
102
RTVSPropertyOp37
 70
     1
102
RTVSPropertyOp38
 70
     1
102
RTVSPropertyOp39
 70
     1
102
RTVSPropertyOp40
 70
     1
102
RTVSPropertyOp41
 70
     1
102
RTVSPropertyOp42
 70
     1
102
RTVSPropertyOp43
 70
     1
102
RTVSPropertyOp44
 70
     1
102
RTVSPropertyOp45
 70
     1
102
RTVSPropertyOp46
 70
     1
102
RTVSPropertyOp47
 70
     1
102
RTVSPropertyOp48
 70
     1
102
RTVSPropertyOp49
 70
     1
102
RTVSPropertyOp50
 70
     1
102
RTVSPropertyOp51
 70
     0
102
RTVSPropertyOp52
 70
     0
102
RTVSPropertyOp53
 70
     1
102
RTVSPropertyOp54
 70
     1
102
RTVSPropertyOp55
 70
     1
102
RTVSPropertyOp56
 70
     1
102
RTVSPropertyOp57
 70
     1
102
RTVSPropertyOp58
 70
     1
102
RTVSPropertyOp59
 70
     1
102
RTVSPropertyOp60
 70
     1
102
RTVSPropertyOp61
 70
     1
102
RTVSPropertyOp62
 70
     1
  0
XRECORD
  5
64A
102
{ACAD_REACTORS
330
649
102
}
330
649
100
AcDbXrecord
280
     1
102
RTVSPost2010Prop28
280
     0
102
RTVSPost2010PropOp28
 70
     1
102
RTVSPost2010Prop29
280
     1
102
RTVSPost2010PropOp29
 70
     1
102
RTVSPost2010Prop30
280
     1
102
RTVSPost2010PropOp30
 70
     1
102
RTVSPost2010Prop31
280
     0
102
RTVSPost2010PropOp31
 70
     1
102
RTVSPost2010Prop32
280
     0
102
RTVSPost2010PropOp32
 70
     1
102
RTVSPost2010Prop33
280
     0
102
RTVSPost2010PropOp33
 70
     1
102
RTVSPost2010Prop34
280
     0
102
RTVSPost2010PropOp34
 70
     1
102
RTVSPost2010Prop35
280
     0
102
RTVSPost2010PropOp35
 70
     1
102
RTVSPost2010Prop36
280
     0
102
RTVSPost2010PropOp36
 70
     1
102
RTVSPost2010Prop37
 90
       50
102
RTVSPost2010PropOp37
 70
     1
102
RTVSPost2010Prop38
140
0.0
102
RTVSPost2010PropOp38
 70
     1
102
RTVSPost2010Prop39
140
1.0
102
RTVSPost2010PropOp39
 70
     1
102
RTVSPost2010Prop40
 90
        0
102
RTVSPost2010PropOp40
 70
     1
102
RTVSPost2010Prop41ColorIndex
 90
       18
102
RTVSPost2010Prop41ColorRGB
 90
        0
102
RTVSPost2010PropOp41
 70
     1
102
RTVSPost2010Prop42
 90
       50
102
RTVSPost2010PropOp42
 70
     1
102
RTVSPost2010Prop43
 90
        3
102
RTVSPost2010PropOp43
 70
     1
102
RTVSPost2010Prop44ColorIndex
 90
        5
102
RTVSPost2010Prop44ColorRGB
 90
      255
102
RTVSPost2010PropOp44
 70
     1
102
RTVSPost2010Prop45
280
     0
102
RTVSPost2010PropOp45
 70
     1
102
RTVSPost2010Prop46
 90
       50
102
RTVSPost2010PropOp46
 70
     1
102
RTVSPost2010Prop47
 90
       50
102
RTVSPost2010PropOp47
 70
     1
102
RTVSPost2010Prop48
 90
       50
102
RTVSPost2010PropOp48
 70
     1
102
RTVSPost2010Prop49
280
     0
102
RTVSPost2010PropOp49
 70
     1
102
RTVSPost2010Prop50
 90
       50
102
RTVSPost2010PropOp50
 70
     1
102
RTVSPost2010Prop51ColorIndex
 90
      256
102
RTVSPost2010Prop51ColorRGB
 90
-16777216
102
RTVSPost2010PropOp51
 70
     0
102
RTVSPost2010Prop52
140
1.0
102
RTVSPost2010PropOp52
 70
     0
102
RTVSPost2010Prop53
 90
        2
102
RTVSPost2010PropOp53
 70
     1
102
RTVSPost2010Prop54
  1
strokes_ogs.tif
102
RTVSPost2010PropOp54
 70
     1
102
RTVSPost2010Prop55
280
     0
102
RTVSPost2010PropOp55
 70
     1
102
RTVSPost2010Prop56
140
1.0
102
RTVSPost2010PropOp56
 70
     1
102
RTVSPost2010Prop57
140
1.0
102
RTVSPost2010PropOp57
 70
     1
102
RTVSPropertyOp0
 70
     1
102
RTVSPropertyOp1
 70
     1
102
RTVSPropertyOp2
 70
     1
102
RTVSPropertyOp3
 70
     1
102
RTVSPropertyOp4
 70
     1
102
RTVSPropertyOp5
 70
     1
102
RTVSPropertyOp6
 70
     1
102
RTVSPropertyOp7
 70
     1
102
RTVSPropertyOp8
 70
     1
102
RTVSPropertyOp9
 70
     1
102
RTVSPropertyOp10
 70
     1
102
RTVSPropertyOp11
 70
     1
102
RTVSPropertyOp12
 70
     1
102
RTVSPropertyOp13
 70
     1
102
RTVSPropertyOp14
 70
     1
102
RTVSPropertyOp15
 70
     1
102
RTVSPropertyOp16
 70
     1
102
RTVSPropertyOp17
 70
     1
102
RTVSPropertyOp18
 70
     1
102
RTVSPropertyOp19
 70
     1
102
RTVSPropertyOp20
 70
     1
102
RTVSPropertyOp21
 70
     1
102
RTVSPropertyOp22
 70
     1
102
RTVSPropertyOp23
 70
     1
102
RTVSPropertyOp24
 70
     1
102
RTVSPropertyOp25
 70
     1
102
RTVSPropertyOp26
 70
     1
102
RTVSPropertyOp27
 70
     1
102
RTVSPropertyOp28
 70
     1
102
RTVSPropertyOp29
 70
     1
102
RTVSPropertyOp30
 70
     1
102
RTVSPropertyOp31
 70
     1
102
RTVSPropertyOp32
 70
     1
102
RTVSPropertyOp33
 70
     1
102
RTVSPropertyOp34
 70
     1
102
RTVSPropertyOp35
 70
     1
102
RTVSPropertyOp36
 70
     1
102
RTVSPropertyOp37
 70
     1
102
RTVSPropertyOp38
 70
     1
102
RTVSPropertyOp39
 70
     1
102
RTVSPropertyOp40
 70
     1
102
RTVSPropertyOp41
 70
     1
102
RTVSPropertyOp42
 70
     1
102
RTVSPropertyOp43
 70
     1
102
RTVSPropertyOp44
 70
     1
102
RTVSPropertyOp45
 70
     1
102
RTVSPropertyOp46
 70
     1
102
RTVSPropertyOp47
 70
     1
102
RTVSPropertyOp48
 70
     1
102
RTVSPropertyOp49
 70
     1
102
RTVSPropertyOp50
 70
     1
102
RTVSPropertyOp51
 70
     0
102
RTVSPropertyOp52
 70
     0
102
RTVSPropertyOp53
 70
     1
102
RTVSPropertyOp54
 70
     1
102
RTVSPropertyOp55
 70
     1
102
RTVSPropertyOp56
 70
     1
102
RTVSPropertyOp57
 70
     1
102
RTVSPropertyOp58
 70
     1
102
RTVSPropertyOp59
 70
     1
102
RTVSPropertyOp60
 70
     1
102
RTVSPropertyOp61
 70
     1
102
RTVSPropertyOp62
 70
     1
  0
XRECORD
  5
652
102
{ACAD_REACTORS
330
651
102
}
330
651
100
AcDbXrecord
280
     1
102
RTVSPost2010Prop28
280
     0
102
RTVSPost2010PropOp28
 70
     1
102
RTVSPost2010Prop29
280
     1
102
RTVSPost2010PropOp29
 70
     1
102
RTVSPost2010Prop30
280
     1
102
RTVSPost2010PropOp30
 70
     1
102
RTVSPost2010Prop31
280
     0
102
RTVSPost2010PropOp31
 70
     1
102
RTVSPost2010Prop32
280
     0
102
RTVSPost2010PropOp32
 70
     1
102
RTVSPost2010Prop33
280
     0
102
RTVSPost2010PropOp33
 70
     1
102
RTVSPost2010Prop34
280
     0
102
RTVSPost2010PropOp34
 70
     1
102
RTVSPost2010Prop35
280
     0
102
RTVSPost2010PropOp35
 70
     1
102
RTVSPost2010Prop36
280
     0
102
RTVSPost2010PropOp36
 70
     1
102
RTVSPost2010Prop37
 90
       50
102
RTVSPost2010PropOp37
 70
     1
102
RTVSPost2010Prop38
140
0.0
102
RTVSPost2010PropOp38
 70
     1
102
RTVSPost2010Prop39
140
1.0
102
RTVSPost2010PropOp39
 70
     1
102
RTVSPost2010Prop40
 90
        0
102
RTVSPost2010PropOp40
 70
     1
102
RTVSPost2010Prop41ColorIndex
 90
       18
102
RTVSPost2010Prop41ColorRGB
 90
        0
102
RTVSPost2010PropOp41
 70
     1
102
RTVSPost2010Prop42
 90
       50
102
RTVSPost2010PropOp42
 70
     1
102
RTVSPost2010Prop43
 90
        3
102
RTVSPost2010PropOp43
 70
     1
102
RTVSPost2010Prop44ColorIndex
 90
        5
102
RTVSPost2010Prop44ColorRGB
 90
      255
102
RTVSPost2010PropOp44
 70
     1
102
RTVSPost2010Prop45
280
     0
102
RTVSPost2010PropOp45
 70
     1
102
RTVSPost2010Prop46
 90
       50
102
RTVSPost2010PropOp46
 70
     1
102
RTVSPost2010Prop47
 90
       50
102
RTVSPost2010PropOp47
 70
     1
102
RTVSPost2010Prop48
 90
       50
102
RTVSPost2010PropOp48
 70
     1
102
RTVSPost2010Prop49
280
     0
102
RTVSPost2010PropOp49
 70
     1
102
RTVSPost2010Prop50
 90
       50
102
RTVSPost2010PropOp50
 70
     1
102
RTVSPost2010Prop51ColorIndex
 90
      256
102
RTVSPost2010Prop51ColorRGB
 90
-16777216
102
RTVSPost2010PropOp51
 70
     0
102
RTVSPost2010Prop52
140
1.0
102
RTVSPost2010PropOp52
 70
     0
102
RTVSPost2010Prop53
 90
        2
102
RTVSPost2010PropOp53
 70
     1
102
RTVSPost2010Prop54
  1
strokes_ogs.tif
102
RTVSPost2010PropOp54
 70
     1
102
RTVSPost2010Prop55
280
     0
102
RTVSPost2010PropOp55
 70
     1
102
RTVSPost2010Prop56
140
1.0
102
RTVSPost2010PropOp56
 70
     1
102
RTVSPost2010Prop57
140
1.0
102
RTVSPost2010PropOp57
 70
     1
102
RTVSPropertyOp0
 70
     1
102
RTVSPropertyOp1
 70
     1
102
RTVSPropertyOp2
 70
     1
102
RTVSPropertyOp3
 70
     1
102
RTVSPropertyOp4
 70
     1
102
RTVSPropertyOp5
 70
     1
102
RTVSPropertyOp6
 70
     1
102
RTVSPropertyOp7
 70
     1
102
RTVSPropertyOp8
 70
     1
102
RTVSPropertyOp9
 70
     1
102
RTVSPropertyOp10
 70
     1
102
RTVSPropertyOp11
 70
     1
102
RTVSPropertyOp12
 70
     1
102
RTVSPropertyOp13
 70
     1
102
RTVSPropertyOp14
 70
     1
102
RTVSPropertyOp15
 70
     1
102
RTVSPropertyOp16
 70
     1
102
RTVSPropertyOp17
 70
     1
102
RTVSPropertyOp18
 70
     1
102
RTVSPropertyOp19
 70
     1
102
RTVSPropertyOp20
 70
     1
102
RTVSPropertyOp21
 70
     1
102
RTVSPropertyOp22
 70
     1
102
RTVSPropertyOp23
 70
     1
102
RTVSPropertyOp24
 70
     1
102
RTVSPropertyOp25
 70
     1
102
RTVSPropertyOp26
 70
     1
102
RTVSPropertyOp27
 70
     1
102
RTVSPropertyOp28
 70
     1
102
RTVSPropertyOp29
 70
     1
102
RTVSPropertyOp30
 70
     1
102
RTVSPropertyOp31
 70
     1
102
RTVSPropertyOp32
 70
     1
102
RTVSPropertyOp33
 70
     1
102
RTVSPropertyOp34
 70
     1
102
RTVSPropertyOp35
 70
     1
102
RTVSPropertyOp36
 70
     1
102
RTVSPropertyOp37
 70
     1
102
RTVSPropertyOp38
 70
     1
102
RTVSPropertyOp39
 70
     1
102
RTVSPropertyOp40
 70
     1
102
RTVSPropertyOp41
 70
     1
102
RTVSPropertyOp42
 70
     1
102
RTVSPropertyOp43
 70
     1
102
RTVSPropertyOp44
 70
     1
102
RTVSPropertyOp45
 70
     1
102
RTVSPropertyOp46
 70
     1
102
RTVSPropertyOp47
 70
     1
102
RTVSPropertyOp48
 70
     1
102
RTVSPropertyOp49
 70
     1
102
RTVSPropertyOp50
 70
     1
102
RTVSPropertyOp51
 70
     0
102
RTVSPropertyOp52
 70
     0
102
RTVSPropertyOp53
 70
     1
102
RTVSPropertyOp54
 70
     1
102
RTVSPropertyOp55
 70
     1
102
RTVSPropertyOp56
 70
     1
102
RTVSPropertyOp57
 70
     1
102
RTVSPropertyOp58
 70
     1
102
RTVSPropertyOp59
 70
     1
102
RTVSPropertyOp60
 70
     1
102
RTVSPropertyOp61
 70
     1
102
RTVSPropertyOp62
 70
     1
  0
XRECORD
  5
644
102
{ACAD_REACTORS
330
643
102
}
330
643
100
AcDbXrecord
280
     1
102
RTVSPost2010Prop28
280
     0
102
RTVSPost2010PropOp28
 70
     1
102
RTVSPost2010Prop29
280
     1
102
RTVSPost2010PropOp29
 70
     1
102
RTVSPost2010Prop30
280
     1
102
RTVSPost2010PropOp30
 70
     1
102
RTVSPost2010Prop31
280
     0
102
RTVSPost2010PropOp31
 70
     1
102
RTVSPost2010Prop32
280
     0
102
RTVSPost2010PropOp32
 70
     1
102
RTVSPost2010Prop33
280
     0
102
RTVSPost2010PropOp33
 70
     1
102
RTVSPost2010Prop34
280
     0
102
RTVSPost2010PropOp34
 70
     1
102
RTVSPost2010Prop35
280
     0
102
RTVSPost2010PropOp35
 70
     1
102
RTVSPost2010Prop36
280
     0
102
RTVSPost2010PropOp36
 70
     1
102
RTVSPost2010Prop37
 90
       50
102
RTVSPost2010PropOp37
 70
     1
102
RTVSPost2010Prop38
140
0.0
102
RTVSPost2010PropOp38
 70
     1
102
RTVSPost2010Prop39
140
1.0
102
RTVSPost2010PropOp39
 70
     1
102
RTVSPost2010Prop40
 90
        0
102
RTVSPost2010PropOp40
 70
     1
102
RTVSPost2010Prop41ColorIndex
 90
       18
102
RTVSPost2010Prop41ColorRGB
 90
        0
102
RTVSPost2010PropOp41
 70
     1
102
RTVSPost2010Prop42
 90
       50
102
RTVSPost2010PropOp42
 70
     1
102
RTVSPost2010Prop43
 90
        3
102
RTVSPost2010PropOp43
 70
     1
102
RTVSPost2010Prop44ColorIndex
 90
        5
102
RTVSPost2010Prop44ColorRGB
 90
      255
102
RTVSPost2010PropOp44
 70
     1
102
RTVSPost2010Prop45
280
     0
102
RTVSPost2010PropOp45
 70
     1
102
RTVSPost2010Prop46
 90
       50
102
RTVSPost2010PropOp46
 70
     1
102
RTVSPost2010Prop47
 90
       50
102
RTVSPost2010PropOp47
 70
     1
102
RTVSPost2010Prop48
 90
       50
102
RTVSPost2010PropOp48
 70
     1
102
RTVSPost2010Prop49
280
     0
102
RTVSPost2010PropOp49
 70
     1
102
RTVSPost2010Prop50
 90
       50
102
RTVSPost2010PropOp50
 70
     1
102
RTVSPost2010Prop51ColorIndex
 90
      256
102
RTVSPost2010Prop51ColorRGB
 90
-16777216
102
RTVSPost2010PropOp51
 70
     0
102
RTVSPost2010Prop52
140
1.0
102
RTVSPost2010PropOp52
 70
     0
102
RTVSPost2010Prop53
 90
        2
102
RTVSPost2010PropOp53
 70
     1
102
RTVSPost2010Prop54
  1
strokes_ogs.tif
102
RTVSPost2010PropOp54
 70
     1
102
RTVSPost2010Prop55
280
     0
102
RTVSPost2010PropOp55
 70
     1
102
RTVSPost2010Prop56
140
1.0
102
RTVSPost2010PropOp56
 70
     1
102
RTVSPost2010Prop57
140
1.0
102
RTVSPost2010PropOp57
 70
     1
102
RTVSPropertyOp0
 70
     1
102
RTVSPropertyOp1
 70
     1
102
RTVSPropertyOp2
 70
     1
102
RTVSPropertyOp3
 70
     1
102
RTVSPropertyOp4
 70
     1
102
RTVSPropertyOp5
 70
     1
102
RTVSPropertyOp6
 70
     1
102
RTVSPropertyOp7
 70
     1
102
RTVSPropertyOp8
 70
     1
102
RTVSPropertyOp9
 70
     1
102
RTVSPropertyOp10
 70
     1
102
RTVSPropertyOp11
 70
     1
102
RTVSPropertyOp12
 70
     1
102
RTVSPropertyOp13
 70
     1
102
RTVSPropertyOp14
 70
     1
102
RTVSPropertyOp15
 70
     1
102
RTVSPropertyOp16
 70
     1
102
RTVSPropertyOp17
 70
     1
102
RTVSPropertyOp18
 70
     1
102
RTVSPropertyOp19
 70
     1
102
RTVSPropertyOp20
 70
     1
102
RTVSPropertyOp21
 70
     1
102
RTVSPropertyOp22
 70
     1
102
RTVSPropertyOp23
 70
     1
102
RTVSPropertyOp24
 70
     1
102
RTVSPropertyOp25
 70
     1
102
RTVSPropertyOp26
 70
     1
102
RTVSPropertyOp27
 70
     1
102
RTVSPropertyOp28
 70
     1
102
RTVSPropertyOp29
 70
     1
102
RTVSPropertyOp30
 70
     1
102
RTVSPropertyOp31
 70
     1
102
RTVSPropertyOp32
 70
     1
102
RTVSPropertyOp33
 70
     1
102
RTVSPropertyOp34
 70
     1
102
RTVSPropertyOp35
 70
     1
102
RTVSPropertyOp36
 70
     1
102
RTVSPropertyOp37
 70
     1
102
RTVSPropertyOp38
 70
     1
102
RTVSPropertyOp39
 70
     1
102
RTVSPropertyOp40
 70
     1
102
RTVSPropertyOp41
 70
     1
102
RTVSPropertyOp42
 70
     1
102
RTVSPropertyOp43
 70
     1
102
RTVSPropertyOp44
 70
     1
102
RTVSPropertyOp45
 70
     1
102
RTVSPropertyOp46
 70
     1
102
RTVSPropertyOp47
 70
     1
102
RTVSPropertyOp48
 70
     1
102
RTVSPropertyOp49
 70
     1
102
RTVSPropertyOp50
 70
     1
102
RTVSPropertyOp51
 70
     0
102
RTVSPropertyOp52
 70
     0
102
RTVSPropertyOp53
 70
     1
102
RTVSPropertyOp54
 70
     1
102
RTVSPropertyOp55
 70
     1
102
RTVSPropertyOp56
 70
     1
102
RTVSPropertyOp57
 70
     1
102
RTVSPropertyOp58
 70
     1
102
RTVSPropertyOp59
 70
     1
102
RTVSPropertyOp60
 70
     1
102
RTVSPropertyOp61
 70
     1
102
RTVSPropertyOp62
 70
     1
  0
XRECORD
  5
648
102
{ACAD_REACTORS
330
647
102
}
330
647
100
AcDbXrecord
280
     1
102
RTVSPost2010Prop28
280
     0
102
RTVSPost2010PropOp28
 70
     1
102
RTVSPost2010Prop29
280
     1
102
RTVSPost2010PropOp29
 70
     1
102
RTVSPost2010Prop30
280
     1
102
RTVSPost2010PropOp30
 70
     1
102
RTVSPost2010Prop31
280
     0
102
RTVSPost2010PropOp31
 70
     1
102
RTVSPost2010Prop32
280
     0
102
RTVSPost2010PropOp32
 70
     1
102
RTVSPost2010Prop33
280
     0
102
RTVSPost2010PropOp33
 70
     1
102
RTVSPost2010Prop34
280
     0
102
RTVSPost2010PropOp34
 70
     1
102
RTVSPost2010Prop35
280
     0
102
RTVSPost2010PropOp35
 70
     1
102
RTVSPost2010Prop36
280
     0
102
RTVSPost2010PropOp36
 70
     1
102
RTVSPost2010Prop37
 90
       50
102
RTVSPost2010PropOp37
 70
     1
102
RTVSPost2010Prop38
140
0.0
102
RTVSPost2010PropOp38
 70
     1
102
RTVSPost2010Prop39
140
1.0
102
RTVSPost2010PropOp39
 70
     1
102
RTVSPost2010Prop40
 90
        0
102
RTVSPost2010PropOp40
 70
     1
102
RTVSPost2010Prop41ColorIndex
 90
       18
102
RTVSPost2010Prop41ColorRGB
 90
        0
102
RTVSPost2010PropOp41
 70
     1
102
RTVSPost2010Prop42
 90
       50
102
RTVSPost2010PropOp42
 70
     1
102
RTVSPost2010Prop43
 90
        3
102
RTVSPost2010PropOp43
 70
     1
102
RTVSPost2010Prop44ColorIndex
 90
        5
102
RTVSPost2010Prop44ColorRGB
 90
      255
102
RTVSPost2010PropOp44
 70
     1
102
RTVSPost2010Prop45
280
     0
102
RTVSPost2010PropOp45
 70
     1
102
RTVSPost2010Prop46
 90
       50
102
RTVSPost2010PropOp46
 70
     1
102
RTVSPost2010Prop47
 90
       50
102
RTVSPost2010PropOp47
 70
     1
102
RTVSPost2010Prop48
 90
       50
102
RTVSPost2010PropOp48
 70
     1
102
RTVSPost2010Prop49
280
     0
102
RTVSPost2010PropOp49
 70
     1
102
RTVSPost2010Prop50
 90
       50
102
RTVSPost2010PropOp50
 70
     1
102
RTVSPost2010Prop51ColorIndex
 90
      256
102
RTVSPost2010Prop51ColorRGB
 90
-16777216
102
RTVSPost2010PropOp51
 70
     0
102
RTVSPost2010Prop52
140
1.0
102
RTVSPost2010PropOp52
 70
     0
102
RTVSPost2010Prop53
 90
        2
102
RTVSPost2010PropOp53
 70
     1
102
RTVSPost2010Prop54
  1
strokes_ogs.tif
102
RTVSPost2010PropOp54
 70
     1
102
RTVSPost2010Prop55
280
     0
102
RTVSPost2010PropOp55
 70
     1
102
RTVSPost2010Prop56
140
1.0
102
RTVSPost2010PropOp56
 70
     1
102
RTVSPost2010Prop57
140
1.0
102
RTVSPost2010PropOp57
 70
     1
102
RTVSPropertyOp0
 70
     1
102
RTVSPropertyOp1
 70
     1
102
RTVSPropertyOp2
 70
     1
102
RTVSPropertyOp3
 70
     1
102
RTVSPropertyOp4
 70
     1
102
RTVSPropertyOp5
 70
     1
102
RTVSPropertyOp6
 70
     1
102
RTVSPropertyOp7
 70
     1
102
RTVSPropertyOp8
 70
     1
102
RTVSPropertyOp9
 70
     1
102
RTVSPropertyOp10
 70
     1
102
RTVSPropertyOp11
 70
     1
102
RTVSPropertyOp12
 70
     1
102
RTVSPropertyOp13
 70
     1
102
RTVSPropertyOp14
 70
     1
102
RTVSPropertyOp15
 70
     1
102
RTVSPropertyOp16
 70
     1
102
RTVSPropertyOp17
 70
     1
102
RTVSPropertyOp18
 70
     1
102
RTVSPropertyOp19
 70
     1
102
RTVSPropertyOp20
 70
     1
102
RTVSPropertyOp21
 70
     1
102
RTVSPropertyOp22
 70
     1
102
RTVSPropertyOp23
 70
     1
102
RTVSPropertyOp24
 70
     1
102
RTVSPropertyOp25
 70
     1
102
RTVSPropertyOp26
 70
     1
102
RTVSPropertyOp27
 70
     1
102
RTVSPropertyOp28
 70
     1
102
RTVSPropertyOp29
 70
     1
102
RTVSPropertyOp30
 70
     1
102
RTVSPropertyOp31
 70
     1
102
RTVSPropertyOp32
 70
     1
102
RTVSPropertyOp33
 70
     1
102
RTVSPropertyOp34
 70
     1
102
RTVSPropertyOp35
 70
     1
102
RTVSPropertyOp36
 70
     1
102
RTVSPropertyOp37
 70
     1
102
RTVSPropertyOp38
 70
     1
102
RTVSPropertyOp39
 70
     1
102
RTVSPropertyOp40
 70
     1
102
RTVSPropertyOp41
 70
     1
102
RTVSPropertyOp42
 70
     1
102
RTVSPropertyOp43
 70
     1
102
RTVSPropertyOp44
 70
     1
102
RTVSPropertyOp45
 70
     1
102
RTVSPropertyOp46
 70
     1
102
RTVSPropertyOp47
 70
     1
102
RTVSPropertyOp48
 70
     1
102
RTVSPropertyOp49
 70
     1
102
RTVSPropertyOp50
 70
     1
102
RTVSPropertyOp51
 70
     0
102
RTVSPropertyOp52
 70
     0
102
RTVSPropertyOp53
 70
     1
102
RTVSPropertyOp54
 70
     1
102
RTVSPropertyOp55
 70
     1
102
RTVSPropertyOp56
 70
     1
102
RTVSPropertyOp57
 70
     1
102
RTVSPropertyOp58
 70
     1
102
RTVSPropertyOp59
 70
     1
102
RTVSPropertyOp60
 70
     1
102
RTVSPropertyOp61
 70
     1
102
RTVSPropertyOp62
 70
     1
  0
XRECORD
  5
662
102
{ACAD_REACTORS
330
661
102
}
330
661
100
AcDbXrecord
280
     1
102
RTVSPost2010Prop28
280
     0
102
RTVSPost2010PropOp28
 70
     1
102
RTVSPost2010Prop29
280
     1
102
RTVSPost2010PropOp29
 70
     1
102
RTVSPost2010Prop30
280
     1
102
RTVSPost2010PropOp30
 70
     1
102
RTVSPost2010Prop31
280
     0
102
RTVSPost2010PropOp31
 70
     1
102
RTVSPost2010Prop32
280
     0
102
RTVSPost2010PropOp32
 70
     1
102
RTVSPost2010Prop33
280
     0
102
RTVSPost2010PropOp33
 70
     1
102
RTVSPost2010Prop34
280
     0
102
RTVSPost2010PropOp34
 70
     1
102
RTVSPost2010Prop35
280
     0
102
RTVSPost2010PropOp35
 70
     1
102
RTVSPost2010Prop36
280
     0
102
RTVSPost2010PropOp36
 70
     1
102
RTVSPost2010Prop37
 90
       50
102
RTVSPost2010PropOp37
 70
     0
102
RTVSPost2010Prop38
140
0.0
102
RTVSPost2010PropOp38
 70
     0
102
RTVSPost2010Prop39
140
1.0
102
RTVSPost2010PropOp39
 70
     0
102
RTVSPost2010Prop40
 90
        0
102
RTVSPost2010PropOp40
 70
     0
102
RTVSPost2010Prop41ColorIndex
 90
       18
102
RTVSPost2010Prop41ColorRGB
 90
        0
102
RTVSPost2010PropOp41
 70
     0
102
RTVSPost2010Prop42
 90
       50
102
RTVSPost2010PropOp42
 70
     0
102
RTVSPost2010Prop43
 90
        3
102
RTVSPost2010PropOp43
 70
     0
102
RTVSPost2010Prop44ColorIndex
 90
        5
102
RTVSPost2010Prop44ColorRGB
 90
      255
102
RTVSPost2010PropOp44
 70
     0
102
RTVSPost2010Prop45
280
     0
102
RTVSPost2010PropOp45
 70
     1
102
RTVSPost2010Prop46
 90
       50
102
RTVSPost2010PropOp46
 70
     0
102
RTVSPost2010Prop47
 90
       50
102
RTVSPost2010PropOp47
 70
     0
102
RTVSPost2010Prop48
 90
       50
102
RTVSPost2010PropOp48
 70
     0
102
RTVSPost2010Prop49
280
     0
102
RTVSPost2010PropOp49
 70
     1
102
RTVSPost2010Prop50
 90
       50
102
RTVSPost2010PropOp50
 70
     0
102
RTVSPost2010Prop51ColorIndex
 90
      256
102
RTVSPost2010Prop51ColorRGB
 90
-16777216
102
RTVSPost2010PropOp51
 70
     0
102
RTVSPost2010Prop52
140
1.0
102
RTVSPost2010PropOp52
 70
     0
102
RTVSPost2010Prop53
 90
        2
102
RTVSPost2010PropOp53
 70
     0
102
RTVSPost2010Prop54
  1
strokes_ogs.tif
102
RTVSPost2010PropOp54
 70
     0
102
RTVSPost2010Prop55
280
     0
102
RTVSPost2010PropOp55
 70
     1
102
RTVSPost2010Prop56
140
1.0
102
RTVSPost2010PropOp56
 70
     0
102
RTVSPost2010Prop57
140
1.0
102
RTVSPost2010PropOp57
 70
     0
102
RTVSPropertyOp0
 70
     0
102
RTVSPropertyOp1
 70
     0
102
RTVSPropertyOp2
 70
     0
102
RTVSPropertyOp3
 70
     0
102
RTVSPropertyOp4
 70
     0
102
RTVSPropertyOp5
 70
     0
102
RTVSPropertyOp6
 70
     0
102
RTVSPropertyOp7
 70
     0
102
RTVSPropertyOp8
 70
     0
102
RTVSPropertyOp9
 70
     0
102
RTVSPropertyOp10
 70
     0
102
RTVSPropertyOp11
 70
     0
102
RTVSPropertyOp12
 70
     0
102
RTVSPropertyOp13
 70
     0
102
RTVSPropertyOp14
 70
     2
102
RTVSPropertyOp15
 70
     0
102
RTVSPropertyOp16
 70
     0
102
RTVSPropertyOp17
 70
     0
102
RTVSPropertyOp18
 70
     0
102
RTVSPropertyOp19
 70
     0
102
RTVSPropertyOp20
 70
     0
102
RTVSPropertyOp21
 70
     0
102
RTVSPropertyOp22
 70
     0
102
RTVSPropertyOp23
 70
     0
102
RTVSPropertyOp24
 70
     0
102
RTVSPropertyOp25
 70
     0
102
RTVSPropertyOp26
 70
     0
102
RTVSPropertyOp27
 70
     0
102
RTVSPropertyOp28
 70
     1
102
RTVSPropertyOp29
 70
     1
102
RTVSPropertyOp30
 70
     1
102
RTVSPropertyOp31
 70
     1
102
RTVSPropertyOp32
 70
     1
102
RTVSPropertyOp33
 70
     1
102
RTVSPropertyOp34
 70
     1
102
RTVSPropertyOp35
 70
     1
102
RTVSPropertyOp36
 70
     1
102
RTVSPropertyOp37
 70
     0
102
RTVSPropertyOp38
 70
     0
102
RTVSPropertyOp39
 70
     0
102
RTVSPropertyOp40
 70
     0
102
RTVSPropertyOp41
 70
     0
102
RTVSPropertyOp42
 70
     0
102
RTVSPropertyOp43
 70
     0
102
RTVSPropertyOp44
 70
     0
102
RTVSPropertyOp45
 70
     1
102
RTVSPropertyOp46
 70
     0
102
RTVSPropertyOp47
 70
     0
102
RTVSPropertyOp48
 70
     0
102
RTVSPropertyOp49
 70
     1
102
RTVSPropertyOp50
 70
     0
102
RTVSPropertyOp51
 70
     0
102
RTVSPropertyOp52
 70
     0
102
RTVSPropertyOp53
 70
     0
102
RTVSPropertyOp54
 70
     0
102
RTVSPropertyOp55
 70
     1
102
RTVSPropertyOp56
 70
     0
102
RTVSPropertyOp57
 70
     0
102
RTVSPropertyOp58
 70
     0
102
RTVSPropertyOp59
 70
     0
102
RTVSPropertyOp60
 70
     0
102
RTVSPropertyOp61
 70
     0
102
RTVSPropertyOp62
 70
     0
  0
XRECORD
  5
650
102
{ACAD_REACTORS
330
64F
102
}
330
64F
100
AcDbXrecord
280
     1
102
RTVSPost2010Prop28
280
     0
102
RTVSPost2010PropOp28
 70
     1
102
RTVSPost2010Prop29
280
     1
102
RTVSPost2010PropOp29
 70
     1
102
RTVSPost2010Prop30
280
     1
102
RTVSPost2010PropOp30
 70
     1
102
RTVSPost2010Prop31
280
     0
102
RTVSPost2010PropOp31
 70
     1
102
RTVSPost2010Prop32
280
     0
102
RTVSPost2010PropOp32
 70
     1
102
RTVSPost2010Prop33
280
     0
102
RTVSPost2010PropOp33
 70
     1
102
RTVSPost2010Prop34
280
     0
102
RTVSPost2010PropOp34
 70
     1
102
RTVSPost2010Prop35
280
     0
102
RTVSPost2010PropOp35
 70
     1
102
RTVSPost2010Prop36
280
     0
102
RTVSPost2010PropOp36
 70
     1
102
RTVSPost2010Prop37
 90
       50
102
RTVSPost2010PropOp37
 70
     1
102
RTVSPost2010Prop38
140
0.0
102
RTVSPost2010PropOp38
 70
     1
102
RTVSPost2010Prop39
140
1.0
102
RTVSPost2010PropOp39
 70
     1
102
RTVSPost2010Prop40
 90
        0
102
RTVSPost2010PropOp40
 70
     1
102
RTVSPost2010Prop41ColorIndex
 90
       18
102
RTVSPost2010Prop41ColorRGB
 90
        0
102
RTVSPost2010PropOp41
 70
     1
102
RTVSPost2010Prop42
 90
       50
102
RTVSPost2010PropOp42
 70
     1
102
RTVSPost2010Prop43
 90
        3
102
RTVSPost2010PropOp43
 70
     1
102
RTVSPost2010Prop44ColorIndex
 90
        5
102
RTVSPost2010Prop44ColorRGB
 90
      255
102
RTVSPost2010PropOp44
 70
     1
102
RTVSPost2010Prop45
280
     0
102
RTVSPost2010PropOp45
 70
     1
102
RTVSPost2010Prop46
 90
       50
102
RTVSPost2010PropOp46
 70
     1
102
RTVSPost2010Prop47
 90
       50
102
RTVSPost2010PropOp47
 70
     1
102
RTVSPost2010Prop48
 90
       50
102
RTVSPost2010PropOp48
 70
     1
102
RTVSPost2010Prop49
280
     0
102
RTVSPost2010PropOp49
 70
     1
102
RTVSPost2010Prop50
 90
       50
102
RTVSPost2010PropOp50
 70
     1
102
RTVSPost2010Prop51ColorIndex
 90
      256
102
RTVSPost2010Prop51ColorRGB
 90
-16777216
102
RTVSPost2010PropOp51
 70
     0
102
RTVSPost2010Prop52
140
1.0
102
RTVSPost2010PropOp52
 70
     0
102
RTVSPost2010Prop53
 90
        2
102
RTVSPost2010PropOp53
 70
     1
102
RTVSPost2010Prop54
  1
strokes_ogs.tif
102
RTVSPost2010PropOp54
 70
     1
102
RTVSPost2010Prop55
280
     0
102
RTVSPost2010PropOp55
 70
     1
102
RTVSPost2010Prop56
140
1.0
102
RTVSPost2010PropOp56
 70
     1
102
RTVSPost2010Prop57
140
1.0
102
RTVSPost2010PropOp57
 70
     1
102
RTVSPropertyOp0
 70
     1
102
RTVSPropertyOp1
 70
     1
102
RTVSPropertyOp2
 70
     1
102
RTVSPropertyOp3
 70
     1
102
RTVSPropertyOp4
 70
     1
102
RTVSPropertyOp5
 70
     1
102
RTVSPropertyOp6
 70
     1
102
RTVSPropertyOp7
 70
     1
102
RTVSPropertyOp8
 70
     1
102
RTVSPropertyOp9
 70
     1
102
RTVSPropertyOp10
 70
     1
102
RTVSPropertyOp11
 70
     1
102
RTVSPropertyOp12
 70
     1
102
RTVSPropertyOp13
 70
     1
102
RTVSPropertyOp14
 70
     1
102
RTVSPropertyOp15
 70
     1
102
RTVSPropertyOp16
 70
     1
102
RTVSPropertyOp17
 70
     1
102
RTVSPropertyOp18
 70
     1
102
RTVSPropertyOp19
 70
     1
102
RTVSPropertyOp20
 70
     1
102
RTVSPropertyOp21
 70
     1
102
RTVSPropertyOp22
 70
     1
102
RTVSPropertyOp23
 70
     1
102
RTVSPropertyOp24
 70
     1
102
RTVSPropertyOp25
 70
     1
102
RTVSPropertyOp26
 70
     1
102
RTVSPropertyOp27
 70
     1
102
RTVSPropertyOp28
 70
     1
102
RTVSPropertyOp29
 70
     1
102
RTVSPropertyOp30
 70
     1
102
RTVSPropertyOp31
 70
     1
102
RTVSPropertyOp32
 70
     1
102
RTVSPropertyOp33
 70
     1
102
RTVSPropertyOp34
 70
     1
102
RTVSPropertyOp35
 70
     1
102
RTVSPropertyOp36
 70
     1
102
RTVSPropertyOp37
 70
     1
102
RTVSPropertyOp38
 70
     1
102
RTVSPropertyOp39
 70
     1
102
RTVSPropertyOp40
 70
     1
102
RTVSPropertyOp41
 70
     1
102
RTVSPropertyOp42
 70
     1
102
RTVSPropertyOp43
 70
     1
102
RTVSPropertyOp44
 70
     1
102
RTVSPropertyOp45
 70
     1
102
RTVSPropertyOp46
 70
     1
102
RTVSPropertyOp47
 70
     1
102
RTVSPropertyOp48
 70
     1
102
RTVSPropertyOp49
 70
     1
102
RTVSPropertyOp50
 70
     1
102
RTVSPropertyOp51
 70
     0
102
RTVSPropertyOp52
 70
     0
102
RTVSPropertyOp53
 70
     1
102
RTVSPropertyOp54
 70
     1
102
RTVSPropertyOp55
 70
     1
102
RTVSPropertyOp56
 70
     1
102
RTVSPropertyOp57
 70
     1
102
RTVSPropertyOp58
 70
     1
102
RTVSPropertyOp59
 70
     1
102
RTVSPropertyOp60
 70
     1
102
RTVSPropertyOp61
 70
     1
102
RTVSPropertyOp62
 70
     1
  0
XRECORD
  5
634
102
{ACAD_REACTORS
330
633
102
}
330
633
100
AcDbXrecord
280
     1
102
RTVSPost2010Prop28
280
     0
102
RTVSPost2010PropOp28
 70
     1
102
RTVSPost2010Prop29
280
     1
102
RTVSPost2010PropOp29
 70
     1
102
RTVSPost2010Prop30
280
     1
102
RTVSPost2010PropOp30
 70
     1
102
RTVSPost2010Prop31
280
     0
102
RTVSPost2010PropOp31
 70
     1
102
RTVSPost2010Prop32
280
     0
102
RTVSPost2010PropOp32
 70
     1
102
RTVSPost2010Prop33
280
     0
102
RTVSPost2010PropOp33
 70
     1
102
RTVSPost2010Prop34
280
     0
102
RTVSPost2010PropOp34
 70
     1
102
RTVSPost2010Prop35
280
     0
102
RTVSPost2010PropOp35
 70
     1
102
RTVSPost2010Prop36
280
     0
102
RTVSPost2010PropOp36
 70
     1
102
RTVSPost2010Prop37
 90
       50
102
RTVSPost2010PropOp37
 70
     1
102
RTVSPost2010Prop38
140
0.0
102
RTVSPost2010PropOp38
 70
     1
102
RTVSPost2010Prop39
140
1.0
102
RTVSPost2010PropOp39
 70
     1
102
RTVSPost2010Prop40
 90
        0
102
RTVSPost2010PropOp40
 70
     1
102
RTVSPost2010Prop41ColorIndex
 90
       18
102
RTVSPost2010Prop41ColorRGB
 90
        0
102
RTVSPost2010PropOp41
 70
     1
102
RTVSPost2010Prop42
 90
       50
102
RTVSPost2010PropOp42
 70
     1
102
RTVSPost2010Prop43
 90
        3
102
RTVSPost2010PropOp43
 70
     1
102
RTVSPost2010Prop44ColorIndex
 90
        5
102
RTVSPost2010Prop44ColorRGB
 90
      255
102
RTVSPost2010PropOp44
 70
     1
102
RTVSPost2010Prop45
280
     0
102
RTVSPost2010PropOp45
 70
     1
102
RTVSPost2010Prop46
 90
       50
102
RTVSPost2010PropOp46
 70
     1
102
RTVSPost2010Prop47
 90
       50
102
RTVSPost2010PropOp47
 70
     1
102
RTVSPost2010Prop48
 90
       50
102
RTVSPost2010PropOp48
 70
     1
102
RTVSPost2010Prop49
280
     0
102
RTVSPost2010PropOp49
 70
     1
102
RTVSPost2010Prop50
 90
       50
102
RTVSPost2010PropOp50
 70
     1
102
RTVSPost2010Prop51ColorIndex
 90
      256
102
RTVSPost2010Prop51ColorRGB
 90
-16777216
102
RTVSPost2010PropOp51
 70
     0
102
RTVSPost2010Prop52
140
1.0
102
RTVSPost2010PropOp52
 70
     0
102
RTVSPost2010Prop53
 90
        2
102
RTVSPost2010PropOp53
 70
     1
102
RTVSPost2010Prop54
  1
strokes_ogs.tif
102
RTVSPost2010PropOp54
 70
     1
102
RTVSPost2010Prop55
280
     0
102
RTVSPost2010PropOp55
 70
     1
102
RTVSPost2010Prop56
140
1.0
102
RTVSPost2010PropOp56
 70
     1
102
RTVSPost2010Prop57
140
1.0
102
RTVSPost2010PropOp57
 70
     1
102
RTVSPropertyOp0
 70
     1
102
RTVSPropertyOp1
 70
     1
102
RTVSPropertyOp2
 70
     1
102
RTVSPropertyOp3
 70
     1
102
RTVSPropertyOp4
 70
     1
102
RTVSPropertyOp5
 70
     1
102
RTVSPropertyOp6
 70
     1
102
RTVSPropertyOp7
 70
     1
102
RTVSPropertyOp8
 70
     1
102
RTVSPropertyOp9
 70
     1
102
RTVSPropertyOp10
 70
     1
102
RTVSPropertyOp11
 70
     1
102
RTVSPropertyOp12
 70
     1
102
RTVSPropertyOp13
 70
     1
102
RTVSPropertyOp14
 70
     1
102
RTVSPropertyOp15
 70
     1
102
RTVSPropertyOp16
 70
     1
102
RTVSPropertyOp17
 70
     1
102
RTVSPropertyOp18
 70
     1
102
RTVSPropertyOp19
 70
     1
102
RTVSPropertyOp20
 70
     1
102
RTVSPropertyOp21
 70
     1
102
RTVSPropertyOp22
 70
     1
102
RTVSPropertyOp23
 70
     1
102
RTVSPropertyOp24
 70
     1
102
RTVSPropertyOp25
 70
     1
102
RTVSPropertyOp26
 70
     1
102
RTVSPropertyOp27
 70
     1
102
RTVSPropertyOp28
 70
     1
102
RTVSPropertyOp29
 70
     1
102
RTVSPropertyOp30
 70
     1
102
RTVSPropertyOp31
 70
     1
102
RTVSPropertyOp32
 70
     1
102
RTVSPropertyOp33
 70
     1
102
RTVSPropertyOp34
 70
     1
102
RTVSPropertyOp35
 70
     1
102
RTVSPropertyOp36
 70
     1
102
RTVSPropertyOp37
 70
     1
102
RTVSPropertyOp38
 70
     1
102
RTVSPropertyOp39
 70
     1
102
RTVSPropertyOp40
 70
     1
102
RTVSPropertyOp41
 70
     1
102
RTVSPropertyOp42
 70
     1
102
RTVSPropertyOp43
 70
     1
102
RTVSPropertyOp44
 70
     1
102
RTVSPropertyOp45
 70
     1
102
RTVSPropertyOp46
 70
     1
102
RTVSPropertyOp47
 70
     1
102
RTVSPropertyOp48
 70
     1
102
RTVSPropertyOp49
 70
     1
102
RTVSPropertyOp50
 70
     1
102
RTVSPropertyOp51
 70
     0
102
RTVSPropertyOp52
 70
     0
102
RTVSPropertyOp53
 70
     1
102
RTVSPropertyOp54
 70
     1
102
RTVSPropertyOp55
 70
     1
102
RTVSPropertyOp56
 70
     1
102
RTVSPropertyOp57
 70
     1
102
RTVSPropertyOp58
 70
     1
102
RTVSPropertyOp59
 70
     1
102
RTVSPropertyOp60
 70
     1
102
RTVSPropertyOp61
 70
     1
102
RTVSPropertyOp62
 70
     1
  0
XRECORD
  5
636
102
{ACAD_REACTORS
330
635
102
}
330
635
100
AcDbXrecord
280
     1
102
RTVSPost2010Prop28
280
     0
102
RTVSPost2010PropOp28
 70
     1
102
RTVSPost2010Prop29
280
     1
102
RTVSPost2010PropOp29
 70
     1
102
RTVSPost2010Prop30
280
     1
102
RTVSPost2010PropOp30
 70
     1
102
RTVSPost2010Prop31
280
     0
102
RTVSPost2010PropOp31
 70
     1
102
RTVSPost2010Prop32
280
     0
102
RTVSPost2010PropOp32
 70
     1
102
RTVSPost2010Prop33
280
     0
102
RTVSPost2010PropOp33
 70
     1
102
RTVSPost2010Prop34
280
     0
102
RTVSPost2010PropOp34
 70
     1
102
RTVSPost2010Prop35
280
     0
102
RTVSPost2010PropOp35
 70
     1
102
RTVSPost2010Prop36
280
     0
102
RTVSPost2010PropOp36
 70
     1
102
RTVSPost2010Prop37
 90
       50
102
RTVSPost2010PropOp37
 70
     1
102
RTVSPost2010Prop38
140
0.0
102
RTVSPost2010PropOp38
 70
     1
102
RTVSPost2010Prop39
140
1.0
102
RTVSPost2010PropOp39
 70
     1
102
RTVSPost2010Prop40
 90
        0
102
RTVSPost2010PropOp40
 70
     1
102
RTVSPost2010Prop41ColorIndex
 90
       18
102
RTVSPost2010Prop41ColorRGB
 90
        0
102
RTVSPost2010PropOp41
 70
     1
102
RTVSPost2010Prop42
 90
       50
102
RTVSPost2010PropOp42
 70
     1
102
RTVSPost2010Prop43
 90
        3
102
RTVSPost2010PropOp43
 70
     1
102
RTVSPost2010Prop44ColorIndex
 90
        5
102
RTVSPost2010Prop44ColorRGB
 90
      255
102
RTVSPost2010PropOp44
 70
     1
102
RTVSPost2010Prop45
280
     0
102
RTVSPost2010PropOp45
 70
     1
102
RTVSPost2010Prop46
 90
       50
102
RTVSPost2010PropOp46
 70
     1
102
RTVSPost2010Prop47
 90
       50
102
RTVSPost2010PropOp47
 70
     1
102
RTVSPost2010Prop48
 90
       50
102
RTVSPost2010PropOp48
 70
     1
102
RTVSPost2010Prop49
280
     0
102
RTVSPost2010PropOp49
 70
     1
102
RTVSPost2010Prop50
 90
       50
102
RTVSPost2010PropOp50
 70
     1
102
RTVSPost2010Prop51ColorIndex
 90
      256
102
RTVSPost2010Prop51ColorRGB
 90
-16777216
102
RTVSPost2010PropOp51
 70
     0
102
RTVSPost2010Prop52
140
1.0
102
RTVSPost2010PropOp52
 70
     0
102
RTVSPost2010Prop53
 90
        2
102
RTVSPost2010PropOp53
 70
     1
102
RTVSPost2010Prop54
  1
strokes_ogs.tif
102
RTVSPost2010PropOp54
 70
     1
102
RTVSPost2010Prop55
280
     0
102
RTVSPost2010PropOp55
 70
     1
102
RTVSPost2010Prop56
140
1.0
102
RTVSPost2010PropOp56
 70
     1
102
RTVSPost2010Prop57
140
1.0
102
RTVSPost2010PropOp57
 70
     1
102
RTVSPropertyOp0
 70
     1
102
RTVSPropertyOp1
 70
     1
102
RTVSPropertyOp2
 70
     1
102
RTVSPropertyOp3
 70
     1
102
RTVSPropertyOp4
 70
     1
102
RTVSPropertyOp5
 70
     1
102
RTVSPropertyOp6
 70
     1
102
RTVSPropertyOp7
 70
     1
102
RTVSPropertyOp8
 70
     1
102
RTVSPropertyOp9
 70
     1
102
RTVSPropertyOp10
 70
     1
102
RTVSPropertyOp11
 70
     1
102
RTVSPropertyOp12
 70
     1
102
RTVSPropertyOp13
 70
     1
102
RTVSPropertyOp14
 70
     1
102
RTVSPropertyOp15
 70
     1
102
RTVSPropertyOp16
 70
     1
102
RTVSPropertyOp17
 70
     1
102
RTVSPropertyOp18
 70
     1
102
RTVSPropertyOp19
 70
     1
102
RTVSPropertyOp20
 70
     1
102
RTVSPropertyOp21
 70
     1
102
RTVSPropertyOp22
 70
     1
102
RTVSPropertyOp23
 70
     1
102
RTVSPropertyOp24
 70
     1
102
RTVSPropertyOp25
 70
     1
102
RTVSPropertyOp26
 70
     1
102
RTVSPropertyOp27
 70
     1
102
RTVSPropertyOp28
 70
     1
102
RTVSPropertyOp29
 70
     1
102
RTVSPropertyOp30
 70
     1
102
RTVSPropertyOp31
 70
     1
102
RTVSPropertyOp32
 70
     1
102
RTVSPropertyOp33
 70
     1
102
RTVSPropertyOp34
 70
     1
102
RTVSPropertyOp35
 70
     1
102
RTVSPropertyOp36
 70
     1
102
RTVSPropertyOp37
 70
     1
102
RTVSPropertyOp38
 70
     1
102
RTVSPropertyOp39
 70
     1
102
RTVSPropertyOp40
 70
     1
102
RTVSPropertyOp41
 70
     1
102
RTVSPropertyOp42
 70
     1
102
RTVSPropertyOp43
 70
     1
102
RTVSPropertyOp44
 70
     1
102
RTVSPropertyOp45
 70
     1
102
RTVSPropertyOp46
 70
     1
102
RTVSPropertyOp47
 70
     1
102
RTVSPropertyOp48
 70
     1
102
RTVSPropertyOp49
 70
     1
102
RTVSPropertyOp50
 70
     1
102
RTVSPropertyOp51
 70
     0
102
RTVSPropertyOp52
 70
     0
102
RTVSPropertyOp53
 70
     1
102
RTVSPropertyOp54
 70
     1
102
RTVSPropertyOp55
 70
     1
102
RTVSPropertyOp56
 70
     1
102
RTVSPropertyOp57
 70
     1
102
RTVSPropertyOp58
 70
     1
102
RTVSPropertyOp59
 70
     1
102
RTVSPropertyOp60
 70
     1
102
RTVSPropertyOp61
 70
     1
102
RTVSPropertyOp62
 70
     1
  0
XRECORD
  5
638
102
{ACAD_REACTORS
330
637
102
}
330
637
100
AcDbXrecord
280
     1
102
RTVSPost2010Prop28
280
     0
102
RTVSPost2010PropOp28
 70
     1
102
RTVSPost2010Prop29
280
     1
102
RTVSPost2010PropOp29
 70
     1
102
RTVSPost2010Prop30
280
     1
102
RTVSPost2010PropOp30
 70
     1
102
RTVSPost2010Prop31
280
     0
102
RTVSPost2010PropOp31
 70
     1
102
RTVSPost2010Prop32
280
     0
102
RTVSPost2010PropOp32
 70
     1
102
RTVSPost2010Prop33
280
     0
102
RTVSPost2010PropOp33
 70
     1
102
RTVSPost2010Prop34
280
     0
102
RTVSPost2010PropOp34
 70
     1
102
RTVSPost2010Prop35
280
     0
102
RTVSPost2010PropOp35
 70
     1
102
RTVSPost2010Prop36
280
     0
102
RTVSPost2010PropOp36
 70
     1
102
RTVSPost2010Prop37
 90
       50
102
RTVSPost2010PropOp37
 70
     1
102
RTVSPost2010Prop38
140
0.0
102
RTVSPost2010PropOp38
 70
     1
102
RTVSPost2010Prop39
140
1.0
102
RTVSPost2010PropOp39
 70
     1
102
RTVSPost2010Prop40
 90
        0
102
RTVSPost2010PropOp40
 70
     1
102
RTVSPost2010Prop41ColorIndex
 90
       18
102
RTVSPost2010Prop41ColorRGB
 90
        0
102
RTVSPost2010PropOp41
 70
     1
102
RTVSPost2010Prop42
 90
       50
102
RTVSPost2010PropOp42
 70
     1
102
RTVSPost2010Prop43
 90
        3
102
RTVSPost2010PropOp43
 70
     1
102
RTVSPost2010Prop44ColorIndex
 90
        5
102
RTVSPost2010Prop44ColorRGB
 90
      255
102
RTVSPost2010PropOp44
 70
     1
102
RTVSPost2010Prop45
280
     0
102
RTVSPost2010PropOp45
 70
     1
102
RTVSPost2010Prop46
 90
       50
102
RTVSPost2010PropOp46
 70
     1
102
RTVSPost2010Prop47
 90
       50
102
RTVSPost2010PropOp47
 70
     1
102
RTVSPost2010Prop48
 90
       50
102
RTVSPost2010PropOp48
 70
     1
102
RTVSPost2010Prop49
280
     0
102
RTVSPost2010PropOp49
 70
     1
102
RTVSPost2010Prop50
 90
       50
102
RTVSPost2010PropOp50
 70
     1
102
RTVSPost2010Prop51ColorIndex
 90
      256
102
RTVSPost2010Prop51ColorRGB
 90
-16777216
102
RTVSPost2010PropOp51
 70
     0
102
RTVSPost2010Prop52
140
1.0
102
RTVSPost2010PropOp52
 70
     0
102
RTVSPost2010Prop53
 90
        2
102
RTVSPost2010PropOp53
 70
     1
102
RTVSPost2010Prop54
  1
strokes_ogs.tif
102
RTVSPost2010PropOp54
 70
     1
102
RTVSPost2010Prop55
280
     0
102
RTVSPost2010PropOp55
 70
     1
102
RTVSPost2010Prop56
140
1.0
102
RTVSPost2010PropOp56
 70
     1
102
RTVSPost2010Prop57
140
1.0
102
RTVSPost2010PropOp57
 70
     1
102
RTVSPropertyOp0
 70
     1
102
RTVSPropertyOp1
 70
     1
102
RTVSPropertyOp2
 70
     1
102
RTVSPropertyOp3
 70
     1
102
RTVSPropertyOp4
 70
     1
102
RTVSPropertyOp5
 70
     1
102
RTVSPropertyOp6
 70
     1
102
RTVSPropertyOp7
 70
     1
102
RTVSPropertyOp8
 70
     1
102
RTVSPropertyOp9
 70
     1
102
RTVSPropertyOp10
 70
     1
102
RTVSPropertyOp11
 70
     1
102
RTVSPropertyOp12
 70
     1
102
RTVSPropertyOp13
 70
     1
102
RTVSPropertyOp14
 70
     1
102
RTVSPropertyOp15
 70
     1
102
RTVSPropertyOp16
 70
     1
102
RTVSPropertyOp17
 70
     1
102
RTVSPropertyOp18
 70
     1
102
RTVSPropertyOp19
 70
     1
102
RTVSPropertyOp20
 70
     1
102
RTVSPropertyOp21
 70
     1
102
RTVSPropertyOp22
 70
     1
102
RTVSPropertyOp23
 70
     1
102
RTVSPropertyOp24
 70
     1
102
RTVSPropertyOp25
 70
     1
102
RTVSPropertyOp26
 70
     1
102
RTVSPropertyOp27
 70
     1
102
RTVSPropertyOp28
 70
     1
102
RTVSPropertyOp29
 70
     1
102
RTVSPropertyOp30
 70
     1
102
RTVSPropertyOp31
 70
     1
102
RTVSPropertyOp32
 70
     1
102
RTVSPropertyOp33
 70
     1
102
RTVSPropertyOp34
 70
     1
102
RTVSPropertyOp35
 70
     1
102
RTVSPropertyOp36
 70
     1
102
RTVSPropertyOp37
 70
     1
102
RTVSPropertyOp38
 70
     1
102
RTVSPropertyOp39
 70
     1
102
RTVSPropertyOp40
 70
     1
102
RTVSPropertyOp41
 70
     1
102
RTVSPropertyOp42
 70
     1
102
RTVSPropertyOp43
 70
     1
102
RTVSPropertyOp44
 70
     1
102
RTVSPropertyOp45
 70
     1
102
RTVSPropertyOp46
 70
     1
102
RTVSPropertyOp47
 70
     1
102
RTVSPropertyOp48
 70
     1
102
RTVSPropertyOp49
 70
     1
102
RTVSPropertyOp50
 70
     1
102
RTVSPropertyOp51
 70
     0
102
RTVSPropertyOp52
 70
     0
102
RTVSPropertyOp53
 70
     1
102
RTVSPropertyOp54
 70
     1
102
RTVSPropertyOp55
 70
     1
102
RTVSPropertyOp56
 70
     1
102
RTVSPropertyOp57
 70
     1
102
RTVSPropertyOp58
 70
     1
102
RTVSPropertyOp59
 70
     1
102
RTVSPropertyOp60
 70
     1
102
RTVSPropertyOp61
 70
     1
102
RTVSPropertyOp62
 70
     1
  0
XRECORD
  5
63A
102
{ACAD_REACTORS
330
639
102
}
330
639
100
AcDbXrecord
280
     1
102
RTVSPost2010Prop28
280
     0
102
RTVSPost2010PropOp28
 70
     1
102
RTVSPost2010Prop29
280
     1
102
RTVSPost2010PropOp29
 70
     1
102
RTVSPost2010Prop30
280
     1
102
RTVSPost2010PropOp30
 70
     1
102
RTVSPost2010Prop31
280
     0
102
RTVSPost2010PropOp31
 70
     1
102
RTVSPost2010Prop32
280
     0
102
RTVSPost2010PropOp32
 70
     1
102
RTVSPost2010Prop33
280
     0
102
RTVSPost2010PropOp33
 70
     1
102
RTVSPost2010Prop34
280
     0
102
RTVSPost2010PropOp34
 70
     1
102
RTVSPost2010Prop35
280
     0
102
RTVSPost2010PropOp35
 70
     1
102
RTVSPost2010Prop36
280
     0
102
RTVSPost2010PropOp36
 70
     1
102
RTVSPost2010Prop37
 90
       50
102
RTVSPost2010PropOp37
 70
     1
102
RTVSPost2010Prop38
140
0.0
102
RTVSPost2010PropOp38
 70
     1
102
RTVSPost2010Prop39
140
1.0
102
RTVSPost2010PropOp39
 70
     1
102
RTVSPost2010Prop40
 90
        0
102
RTVSPost2010PropOp40
 70
     1
102
RTVSPost2010Prop41ColorIndex
 90
       18
102
RTVSPost2010Prop41ColorRGB
 90
        0
102
RTVSPost2010PropOp41
 70
     1
102
RTVSPost2010Prop42
 90
       50
102
RTVSPost2010PropOp42
 70
     1
102
RTVSPost2010Prop43
 90
        3
102
RTVSPost2010PropOp43
 70
     1
102
RTVSPost2010Prop44ColorIndex
 90
        5
102
RTVSPost2010Prop44ColorRGB
 90
      255
102
RTVSPost2010PropOp44
 70
     1
102
RTVSPost2010Prop45
280
     0
102
RTVSPost2010PropOp45
 70
     1
102
RTVSPost2010Prop46
 90
       50
102
RTVSPost2010PropOp46
 70
     1
102
RTVSPost2010Prop47
 90
       50
102
RTVSPost2010PropOp47
 70
     1
102
RTVSPost2010Prop48
 90
       50
102
RTVSPost2010PropOp48
 70
     1
102
RTVSPost2010Prop49
280
     0
102
RTVSPost2010PropOp49
 70
     1
102
RTVSPost2010Prop50
 90
       50
102
RTVSPost2010PropOp50
 70
     1
102
RTVSPost2010Prop51ColorIndex
 90
      256
102
RTVSPost2010Prop51ColorRGB
 90
-16777216
102
RTVSPost2010PropOp51
 70
     0
102
RTVSPost2010Prop52
140
1.0
102
RTVSPost2010PropOp52
 70
     0
102
RTVSPost2010Prop53
 90
        2
102
RTVSPost2010PropOp53
 70
     1
102
RTVSPost2010Prop54
  1
strokes_ogs.tif
102
RTVSPost2010PropOp54
 70
     1
102
RTVSPost2010Prop55
280
     0
102
RTVSPost2010PropOp55
 70
     1
102
RTVSPost2010Prop56
140
1.0
102
RTVSPost2010PropOp56
 70
     1
102
RTVSPost2010Prop57
140
1.0
102
RTVSPost2010PropOp57
 70
     1
102
RTVSPropertyOp0
 70
     1
102
RTVSPropertyOp1
 70
     1
102
RTVSPropertyOp2
 70
     1
102
RTVSPropertyOp3
 70
     1
102
RTVSPropertyOp4
 70
     1
102
RTVSPropertyOp5
 70
     1
102
RTVSPropertyOp6
 70
     1
102
RTVSPropertyOp7
 70
     1
102
RTVSPropertyOp8
 70
     1
102
RTVSPropertyOp9
 70
     1
102
RTVSPropertyOp10
 70
     1
102
RTVSPropertyOp11
 70
     1
102
RTVSPropertyOp12
 70
     1
102
RTVSPropertyOp13
 70
     1
102
RTVSPropertyOp14
 70
     1
102
RTVSPropertyOp15
 70
     1
102
RTVSPropertyOp16
 70
     1
102
RTVSPropertyOp17
 70
     1
102
RTVSPropertyOp18
 70
     1
102
RTVSPropertyOp19
 70
     1
102
RTVSPropertyOp20
 70
     1
102
RTVSPropertyOp21
 70
     1
102
RTVSPropertyOp22
 70
     1
102
RTVSPropertyOp23
 70
     1
102
RTVSPropertyOp24
 70
     1
102
RTVSPropertyOp25
 70
     1
102
RTVSPropertyOp26
 70
     1
102
RTVSPropertyOp27
 70
     1
102
RTVSPropertyOp28
 70
     1
102
RTVSPropertyOp29
 70
     1
102
RTVSPropertyOp30
 70
     1
102
RTVSPropertyOp31
 70
     1
102
RTVSPropertyOp32
 70
     1
102
RTVSPropertyOp33
 70
     1
102
RTVSPropertyOp34
 70
     1
102
RTVSPropertyOp35
 70
     1
102
RTVSPropertyOp36
 70
     1
102
RTVSPropertyOp37
 70
     1
102
RTVSPropertyOp38
 70
     1
102
RTVSPropertyOp39
 70
     1
102
RTVSPropertyOp40
 70
     1
102
RTVSPropertyOp41
 70
     1
102
RTVSPropertyOp42
 70
     1
102
RTVSPropertyOp43
 70
     1
102
RTVSPropertyOp44
 70
     1
102
RTVSPropertyOp45
 70
     1
102
RTVSPropertyOp46
 70
     1
102
RTVSPropertyOp47
 70
     1
102
RTVSPropertyOp48
 70
     1
102
RTVSPropertyOp49
 70
     1
102
RTVSPropertyOp50
 70
     1
102
RTVSPropertyOp51
 70
     0
102
RTVSPropertyOp52
 70
     0
102
RTVSPropertyOp53
 70
     1
102
RTVSPropertyOp54
 70
     1
102
RTVSPropertyOp55
 70
     1
102
RTVSPropertyOp56
 70
     1
102
RTVSPropertyOp57
 70
     1
102
RTVSPropertyOp58
 70
     1
102
RTVSPropertyOp59
 70
     1
102
RTVSPropertyOp60
 70
     1
102
RTVSPropertyOp61
 70
     1
102
RTVSPropertyOp62
 70
     1
  0
XRECORD
  5
642
102
{ACAD_REACTORS
330
641
102
}
330
641
100
AcDbXrecord
280
     1
102
RTVSPost2010Prop28
280
     0
102
RTVSPost2010PropOp28
 70
     1
102
RTVSPost2010Prop29
280
     1
102
RTVSPost2010PropOp29
 70
     1
102
RTVSPost2010Prop30
280
     1
102
RTVSPost2010PropOp30
 70
     1
102
RTVSPost2010Prop31
280
     0
102
RTVSPost2010PropOp31
 70
     1
102
RTVSPost2010Prop32
280
     0
102
RTVSPost2010PropOp32
 70
     1
102
RTVSPost2010Prop33
280
     0
102
RTVSPost2010PropOp33
 70
     1
102
RTVSPost2010Prop34
280
     0
102
RTVSPost2010PropOp34
 70
     1
102
RTVSPost2010Prop35
280
     0
102
RTVSPost2010PropOp35
 70
     1
102
RTVSPost2010Prop36
280
     0
102
RTVSPost2010PropOp36
 70
     1
102
RTVSPost2010Prop37
 90
       50
102
RTVSPost2010PropOp37
 70
     1
102
RTVSPost2010Prop38
140
0.0
102
RTVSPost2010PropOp38
 70
     1
102
RTVSPost2010Prop39
140
1.0
102
RTVSPost2010PropOp39
 70
     1
102
RTVSPost2010Prop40
 90
        0
102
RTVSPost2010PropOp40
 70
     1
102
RTVSPost2010Prop41ColorIndex
 90
       18
102
RTVSPost2010Prop41ColorRGB
 90
        0
102
RTVSPost2010PropOp41
 70
     1
102
RTVSPost2010Prop42
 90
       50
102
RTVSPost2010PropOp42
 70
     1
102
RTVSPost2010Prop43
 90
        3
102
RTVSPost2010PropOp43
 70
     1
102
RTVSPost2010Prop44ColorIndex
 90
        5
102
RTVSPost2010Prop44ColorRGB
 90
      255
102
RTVSPost2010PropOp44
 70
     1
102
RTVSPost2010Prop45
280
     0
102
RTVSPost2010PropOp45
 70
     1
102
RTVSPost2010Prop46
 90
       50
102
RTVSPost2010PropOp46
 70
     1
102
RTVSPost2010Prop47
 90
       50
102
RTVSPost2010PropOp47
 70
     1
102
RTVSPost2010Prop48
 90
       50
102
RTVSPost2010PropOp48
 70
     1
102
RTVSPost2010Prop49
280
     0
102
RTVSPost2010PropOp49
 70
     1
102
RTVSPost2010Prop50
 90
       50
102
RTVSPost2010PropOp50
 70
     1
102
RTVSPost2010Prop51ColorIndex
 90
      256
102
RTVSPost2010Prop51ColorRGB
 90
-16777216
102
RTVSPost2010PropOp51
 70
     0
102
RTVSPost2010Prop52
140
1.0
102
RTVSPost2010PropOp52
 70
     0
102
RTVSPost2010Prop53
 90
        2
102
RTVSPost2010PropOp53
 70
     1
102
RTVSPost2010Prop54
  1
strokes_ogs.tif
102
RTVSPost2010PropOp54
 70
     1
102
RTVSPost2010Prop55
280
     0
102
RTVSPost2010PropOp55
 70
     1
102
RTVSPost2010Prop56
140
1.0
102
RTVSPost2010PropOp56
 70
     1
102
RTVSPost2010Prop57
140
1.0
102
RTVSPost2010PropOp57
 70
     1
102
RTVSPropertyOp0
 70
     1
102
RTVSPropertyOp1
 70
     1
102
RTVSPropertyOp2
 70
     1
102
RTVSPropertyOp3
 70
     1
102
RTVSPropertyOp4
 70
     1
102
RTVSPropertyOp5
 70
     1
102
RTVSPropertyOp6
 70
     1
102
RTVSPropertyOp7
 70
     1
102
RTVSPropertyOp8
 70
     1
102
RTVSPropertyOp9
 70
     1
102
RTVSPropertyOp10
 70
     1
102
RTVSPropertyOp11
 70
     1
102
RTVSPropertyOp12
 70
     1
102
RTVSPropertyOp13
 70
     1
102
RTVSPropertyOp14
 70
     1
102
RTVSPropertyOp15
 70
     1
102
RTVSPropertyOp16
 70
     1
102
RTVSPropertyOp17
 70
     1
102
RTVSPropertyOp18
 70
     1
102
RTVSPropertyOp19
 70
     1
102
RTVSPropertyOp20
 70
     1
102
RTVSPropertyOp21
 70
     1
102
RTVSPropertyOp22
 70
     1
102
RTVSPropertyOp23
 70
     1
102
RTVSPropertyOp24
 70
     1
102
RTVSPropertyOp25
 70
     1
102
RTVSPropertyOp26
 70
     1
102
RTVSPropertyOp27
 70
     1
102
RTVSPropertyOp28
 70
     1
102
RTVSPropertyOp29
 70
     1
102
RTVSPropertyOp30
 70
     1
102
RTVSPropertyOp31
 70
     1
102
RTVSPropertyOp32
 70
     1
102
RTVSPropertyOp33
 70
     1
102
RTVSPropertyOp34
 70
     1
102
RTVSPropertyOp35
 70
     1
102
RTVSPropertyOp36
 70
     1
102
RTVSPropertyOp37
 70
     1
102
RTVSPropertyOp38
 70
     1
102
RTVSPropertyOp39
 70
     1
102
RTVSPropertyOp40
 70
     1
102
RTVSPropertyOp41
 70
     1
102
RTVSPropertyOp42
 70
     1
102
RTVSPropertyOp43
 70
     1
102
RTVSPropertyOp44
 70
     1
102
RTVSPropertyOp45
 70
     1
102
RTVSPropertyOp46
 70
     1
102
RTVSPropertyOp47
 70
     1
102
RTVSPropertyOp48
 70
     1
102
RTVSPropertyOp49
 70
     1
102
RTVSPropertyOp50
 70
     1
102
RTVSPropertyOp51
 70
     0
102
RTVSPropertyOp52
 70
     0
102
RTVSPropertyOp53
 70
     1
102
RTVSPropertyOp54
 70
     1
102
RTVSPropertyOp55
 70
     1
102
RTVSPropertyOp56
 70
     1
102
RTVSPropertyOp57
 70
     1
102
RTVSPropertyOp58
 70
     1
102
RTVSPropertyOp59
 70
     1
102
RTVSPropertyOp60
 70
     1
102
RTVSPropertyOp61
 70
     1
102
RTVSPropertyOp62
 70
     1
  0
XRECORD
  5
65E
102
{ACAD_REACTORS
330
65D
102
}
330
65D
100
AcDbXrecord
280
     1
102
RTVSPost2010Prop28
280
     0
102
RTVSPost2010PropOp28
 70
     1
102
RTVSPost2010Prop29
280
     1
102
RTVSPost2010PropOp29
 70
     1
102
RTVSPost2010Prop30
280
     1
102
RTVSPost2010PropOp30
 70
     1
102
RTVSPost2010Prop31
280
     0
102
RTVSPost2010PropOp31
 70
     1
102
RTVSPost2010Prop32
280
     0
102
RTVSPost2010PropOp32
 70
     1
102
RTVSPost2010Prop33
280
     0
102
RTVSPost2010PropOp33
 70
     1
102
RTVSPost2010Prop34
280
     0
102
RTVSPost2010PropOp34
 70
     1
102
RTVSPost2010Prop35
280
     0
102
RTVSPost2010PropOp35
 70
     1
102
RTVSPost2010Prop36
280
     0
102
RTVSPost2010PropOp36
 70
     1
102
RTVSPost2010Prop37
 90
       50
102
RTVSPost2010PropOp37
 70
     0
102
RTVSPost2010Prop38
140
0.0
102
RTVSPost2010PropOp38
 70
     0
102
RTVSPost2010Prop39
140
1.0
102
RTVSPost2010PropOp39
 70
     0
102
RTVSPost2010Prop40
 90
        0
102
RTVSPost2010PropOp40
 70
     0
102
RTVSPost2010Prop41ColorIndex
 90
       18
102
RTVSPost2010Prop41ColorRGB
 90
        0
102
RTVSPost2010PropOp41
 70
     0
102
RTVSPost2010Prop42
 90
       50
102
RTVSPost2010PropOp42
 70
     0
102
RTVSPost2010Prop43
 90
        3
102
RTVSPost2010PropOp43
 70
     0
102
RTVSPost2010Prop44ColorIndex
 90
        5
102
RTVSPost2010Prop44ColorRGB
 90
      255
102
RTVSPost2010PropOp44
 70
     0
102
RTVSPost2010Prop45
280
     0
102
RTVSPost2010PropOp45
 70
     1
102
RTVSPost2010Prop46
 90
       50
102
RTVSPost2010PropOp46
 70
     0
102
RTVSPost2010Prop47
 90
       50
102
RTVSPost2010PropOp47
 70
     0
102
RTVSPost2010Prop48
 90
       50
102
RTVSPost2010PropOp48
 70
     0
102
RTVSPost2010Prop49
280
     0
102
RTVSPost2010PropOp49
 70
     1
102
RTVSPost2010Prop50
 90
       50
102
RTVSPost2010PropOp50
 70
     0
102
RTVSPost2010Prop51ColorIndex
 90
      256
102
RTVSPost2010Prop51ColorRGB
 90
-16777216
102
RTVSPost2010PropOp51
 70
     0
102
RTVSPost2010Prop52
140
1.0
102
RTVSPost2010PropOp52
 70
     0
102
RTVSPost2010Prop53
 90
        2
102
RTVSPost2010PropOp53
 70
     0
102
RTVSPost2010Prop54
  1
strokes_ogs.tif
102
RTVSPost2010PropOp54
 70
     0
102
RTVSPost2010Prop55
280
     0
102
RTVSPost2010PropOp55
 70
     1
102
RTVSPost2010Prop56
140
1.0
102
RTVSPost2010PropOp56
 70
     0
102
RTVSPost2010Prop57
140
1.0
102
RTVSPost2010PropOp57
 70
     0
102
RTVSPropertyOp0
 70
     0
102
RTVSPropertyOp1
 70
     0
102
RTVSPropertyOp2
 70
     0
102
RTVSPropertyOp3
 70
     0
102
RTVSPropertyOp4
 70
     0
102
RTVSPropertyOp5
 70
     0
102
RTVSPropertyOp6
 70
     0
102
RTVSPropertyOp7
 70
     0
102
RTVSPropertyOp8
 70
     0
102
RTVSPropertyOp9
 70
     0
102
RTVSPropertyOp10
 70
     0
102
RTVSPropertyOp11
 70
     0
102
RTVSPropertyOp12
 70
     0
102
RTVSPropertyOp13
 70
     0
102
RTVSPropertyOp14
 70
     2
102
RTVSPropertyOp15
 70
     0
102
RTVSPropertyOp16
 70
     0
102
RTVSPropertyOp17
 70
     0
102
RTVSPropertyOp18
 70
     0
102
RTVSPropertyOp19
 70
     0
102
RTVSPropertyOp20
 70
     0
102
RTVSPropertyOp21
 70
     0
102
RTVSPropertyOp22
 70
     0
102
RTVSPropertyOp23
 70
     0
102
RTVSPropertyOp24
 70
     0
102
RTVSPropertyOp25
 70
     0
102
RTVSPropertyOp26
 70
     0
102
RTVSPropertyOp27
 70
     0
102
RTVSPropertyOp28
 70
     1
102
RTVSPropertyOp29
 70
     1
102
RTVSPropertyOp30
 70
     1
102
RTVSPropertyOp31
 70
     1
102
RTVSPropertyOp32
 70
     1
102
RTVSPropertyOp33
 70
     1
102
RTVSPropertyOp34
 70
     1
102
RTVSPropertyOp35
 70
     1
102
RTVSPropertyOp36
 70
     1
102
RTVSPropertyOp37
 70
     0
102
RTVSPropertyOp38
 70
     0
102
RTVSPropertyOp39
 70
     0
102
RTVSPropertyOp40
 70
     0
102
RTVSPropertyOp41
 70
     0
102
RTVSPropertyOp42
 70
     0
102
RTVSPropertyOp43
 70
     0
102
RTVSPropertyOp44
 70
     0
102
RTVSPropertyOp45
 70
     1
102
RTVSPropertyOp46
 70
     0
102
RTVSPropertyOp47
 70
     0
102
RTVSPropertyOp48
 70
     0
102
RTVSPropertyOp49
 70
     1
102
RTVSPropertyOp50
 70
     0
102
RTVSPropertyOp51
 70
     0
102
RTVSPropertyOp52
 70
     0
102
RTVSPropertyOp53
 70
     0
102
RTVSPropertyOp54
 70
     0
102
RTVSPropertyOp55
 70
     1
102
RTVSPropertyOp56
 70
     0
102
RTVSPropertyOp57
 70
     0
102
RTVSPropertyOp58
 70
     0
102
RTVSPropertyOp59
 70
     0
102
RTVSPropertyOp60
 70
     0
102
RTVSPropertyOp61
 70
     0
102
RTVSPropertyOp62
 70
     0
  0
XRECORD
  5
64E
102
{ACAD_REACTORS
330
64D
102
}
330
64D
100
AcDbXrecord
280
     1
102
RTVSPost2010Prop28
280
     0
102
RTVSPost2010PropOp28
 70
     1
102
RTVSPost2010Prop29
280
     1
102
RTVSPost2010PropOp29
 70
     1
102
RTVSPost2010Prop30
280
     1
102
RTVSPost2010PropOp30
 70
     1
102
RTVSPost2010Prop31
280
     0
102
RTVSPost2010PropOp31
 70
     1
102
RTVSPost2010Prop32
280
     0
102
RTVSPost2010PropOp32
 70
     1
102
RTVSPost2010Prop33
280
     0
102
RTVSPost2010PropOp33
 70
     1
102
RTVSPost2010Prop34
280
     0
102
RTVSPost2010PropOp34
 70
     1
102
RTVSPost2010Prop35
280
     0
102
RTVSPost2010PropOp35
 70
     1
102
RTVSPost2010Prop36
280
     0
102
RTVSPost2010PropOp36
 70
     1
102
RTVSPost2010Prop37
 90
       50
102
RTVSPost2010PropOp37
 70
     1
102
RTVSPost2010Prop38
140
0.0
102
RTVSPost2010PropOp38
 70
     1
102
RTVSPost2010Prop39
140
1.0
102
RTVSPost2010PropOp39
 70
     1
102
RTVSPost2010Prop40
 90
        0
102
RTVSPost2010PropOp40
 70
     1
102
RTVSPost2010Prop41ColorIndex
 90
       18
102
RTVSPost2010Prop41ColorRGB
 90
        0
102
RTVSPost2010PropOp41
 70
     1
102
RTVSPost2010Prop42
 90
       50
102
RTVSPost2010PropOp42
 70
     1
102
RTVSPost2010Prop43
 90
        3
102
RTVSPost2010PropOp43
 70
     1
102
RTVSPost2010Prop44ColorIndex
 90
        5
102
RTVSPost2010Prop44ColorRGB
 90
      255
102
RTVSPost2010PropOp44
 70
     1
102
RTVSPost2010Prop45
280
     0
102
RTVSPost2010PropOp45
 70
     1
102
RTVSPost2010Prop46
 90
       50
102
RTVSPost2010PropOp46
 70
     1
102
RTVSPost2010Prop47
 90
       50
102
RTVSPost2010PropOp47
 70
     1
102
RTVSPost2010Prop48
 90
       50
102
RTVSPost2010PropOp48
 70
     1
102
RTVSPost2010Prop49
280
     0
102
RTVSPost2010PropOp49
 70
     1
102
RTVSPost2010Prop50
 90
       50
102
RTVSPost2010PropOp50
 70
     1
102
RTVSPost2010Prop51ColorIndex
 90
      256
102
RTVSPost2010Prop51ColorRGB
 90
-16777216
102
RTVSPost2010PropOp51
 70
     0
102
RTVSPost2010Prop52
140
1.0
102
RTVSPost2010PropOp52
 70
     0
102
RTVSPost2010Prop53
 90
        2
102
RTVSPost2010PropOp53
 70
     1
102
RTVSPost2010Prop54
  1
strokes_ogs.tif
102
RTVSPost2010PropOp54
 70
     1
102
RTVSPost2010Prop55
280
     0
102
RTVSPost2010PropOp55
 70
     1
102
RTVSPost2010Prop56
140
1.0
102
RTVSPost2010PropOp56
 70
     1
102
RTVSPost2010Prop57
140
1.0
102
RTVSPost2010PropOp57
 70
     1
102
RTVSPropertyOp0
 70
     1
102
RTVSPropertyOp1
 70
     1
102
RTVSPropertyOp2
 70
     1
102
RTVSPropertyOp3
 70
     1
102
RTVSPropertyOp4
 70
     1
102
RTVSPropertyOp5
 70
     1
102
RTVSPropertyOp6
 70
     1
102
RTVSPropertyOp7
 70
     1
102
RTVSPropertyOp8
 70
     1
102
RTVSPropertyOp9
 70
     1
102
RTVSPropertyOp10
 70
     1
102
RTVSPropertyOp11
 70
     1
102
RTVSPropertyOp12
 70
     1
102
RTVSPropertyOp13
 70
     1
102
RTVSPropertyOp14
 70
     1
102
RTVSPropertyOp15
 70
     1
102
RTVSPropertyOp16
 70
     1
102
RTVSPropertyOp17
 70
     1
102
RTVSPropertyOp18
 70
     1
102
RTVSPropertyOp19
 70
     1
102
RTVSPropertyOp20
 70
     1
102
RTVSPropertyOp21
 70
     1
102
RTVSPropertyOp22
 70
     1
102
RTVSPropertyOp23
 70
     1
102
RTVSPropertyOp24
 70
     1
102
RTVSPropertyOp25
 70
     1
102
RTVSPropertyOp26
 70
     1
102
RTVSPropertyOp27
 70
     1
102
RTVSPropertyOp28
 70
     1
102
RTVSPropertyOp29
 70
     1
102
RTVSPropertyOp30
 70
     1
102
RTVSPropertyOp31
 70
     1
102
RTVSPropertyOp32
 70
     1
102
RTVSPropertyOp33
 70
     1
102
RTVSPropertyOp34
 70
     1
102
RTVSPropertyOp35
 70
     1
102
RTVSPropertyOp36
 70
     1
102
RTVSPropertyOp37
 70
     1
102
RTVSPropertyOp38
 70
     1
102
RTVSPropertyOp39
 70
     1
102
RTVSPropertyOp40
 70
     1
102
RTVSPropertyOp41
 70
     1
102
RTVSPropertyOp42
 70
     1
102
RTVSPropertyOp43
 70
     1
102
RTVSPropertyOp44
 70
     1
102
RTVSPropertyOp45
 70
     1
102
RTVSPropertyOp46
 70
     1
102
RTVSPropertyOp47
 70
     1
102
RTVSPropertyOp48
 70
     1
102
RTVSPropertyOp49
 70
     1
102
RTVSPropertyOp50
 70
     1
102
RTVSPropertyOp51
 70
     0
102
RTVSPropertyOp52
 70
     0
102
RTVSPropertyOp53
 70
     1
102
RTVSPropertyOp54
 70
     1
102
RTVSPropertyOp55
 70
     1
102
RTVSPropertyOp56
 70
     1
102
RTVSPropertyOp57
 70
     1
102
RTVSPropertyOp58
 70
     1
102
RTVSPropertyOp59
 70
     1
102
RTVSPropertyOp60
 70
     1
102
RTVSPropertyOp61
 70
     1
102
RTVSPropertyOp62
 70
     1
  0
XRECORD
  5
660
102
{ACAD_REACTORS
330
65F
102
}
330
65F
100
AcDbXrecord
280
     1
102
RTVSPost2010Prop28
280
     0
102
RTVSPost2010PropOp28
 70
     1
102
RTVSPost2010Prop29
280
     1
102
RTVSPost2010PropOp29
 70
     1
102
RTVSPost2010Prop30
280
     1
102
RTVSPost2010PropOp30
 70
     1
102
RTVSPost2010Prop31
280
     0
102
RTVSPost2010PropOp31
 70
     1
102
RTVSPost2010Prop32
280
     0
102
RTVSPost2010PropOp32
 70
     1
102
RTVSPost2010Prop33
280
     0
102
RTVSPost2010PropOp33
 70
     1
102
RTVSPost2010Prop34
280
     0
102
RTVSPost2010PropOp34
 70
     1
102
RTVSPost2010Prop35
280
     0
102
RTVSPost2010PropOp35
 70
     1
102
RTVSPost2010Prop36
280
     0
102
RTVSPost2010PropOp36
 70
     1
102
RTVSPost2010Prop37
 90
       50
102
RTVSPost2010PropOp37
 70
     0
102
RTVSPost2010Prop38
140
0.0
102
RTVSPost2010PropOp38
 70
     0
102
RTVSPost2010Prop39
140
1.0
102
RTVSPost2010PropOp39
 70
     0
102
RTVSPost2010Prop40
 90
        0
102
RTVSPost2010PropOp40
 70
     0
102
RTVSPost2010Prop41ColorIndex
 90
       18
102
RTVSPost2010Prop41ColorRGB
 90
        0
102
RTVSPost2010PropOp41
 70
     0
102
RTVSPost2010Prop42
 90
       50
102
RTVSPost2010PropOp42
 70
     0
102
RTVSPost2010Prop43
 90
        3
102
RTVSPost2010PropOp43
 70
     0
102
RTVSPost2010Prop44ColorIndex
 90
        5
102
RTVSPost2010Prop44ColorRGB
 90
      255
102
RTVSPost2010PropOp44
 70
     0
102
RTVSPost2010Prop45
280
     0
102
RTVSPost2010PropOp45
 70
     1
102
RTVSPost2010Prop46
 90
       50
102
RTVSPost2010PropOp46
 70
     0
102
RTVSPost2010Prop47
 90
       50
102
RTVSPost2010PropOp47
 70
     0
102
RTVSPost2010Prop48
 90
       50
102
RTVSPost2010PropOp48
 70
     0
102
RTVSPost2010Prop49
280
     0
102
RTVSPost2010PropOp49
 70
     1
102
RTVSPost2010Prop50
 90
       50
102
RTVSPost2010PropOp50
 70
     0
102
RTVSPost2010Prop51ColorIndex
 90
      256
102
RTVSPost2010Prop51ColorRGB
 90
-16777216
102
RTVSPost2010PropOp51
 70
     0
102
RTVSPost2010Prop52
140
1.0
102
RTVSPost2010PropOp52
 70
     0
102
RTVSPost2010Prop53
 90
        2
102
RTVSPost2010PropOp53
 70
     0
102
RTVSPost2010Prop54
  1
strokes_ogs.tif
102
RTVSPost2010PropOp54
 70
     0
102
RTVSPost2010Prop55
280
     0
102
RTVSPost2010PropOp55
 70
     1
102
RTVSPost2010Prop56
140
1.0
102
RTVSPost2010PropOp56
 70
     0
102
RTVSPost2010Prop57
140
1.0
102
RTVSPost2010PropOp57
 70
     0
102
RTVSPropertyOp0
 70
     0
102
RTVSPropertyOp1
 70
     0
102
RTVSPropertyOp2
 70
     0
102
RTVSPropertyOp3
 70
     0
102
RTVSPropertyOp4
 70
     0
102
RTVSPropertyOp5
 70
     0
102
RTVSPropertyOp6
 70
     0
102
RTVSPropertyOp7
 70
     0
102
RTVSPropertyOp8
 70
     0
102
RTVSPropertyOp9
 70
     0
102
RTVSPropertyOp10
 70
     0
102
RTVSPropertyOp11
 70
     0
102
RTVSPropertyOp12
 70
     0
102
RTVSPropertyOp13
 70
     0
102
RTVSPropertyOp14
 70
     2
102
RTVSPropertyOp15
 70
     0
102
RTVSPropertyOp16
 70
     0
102
RTVSPropertyOp17
 70
     0
102
RTVSPropertyOp18
 70
     0
102
RTVSPropertyOp19
 70
     0
102
RTVSPropertyOp20
 70
     0
102
RTVSPropertyOp21
 70
     0
102
RTVSPropertyOp22
 70
     0
102
RTVSPropertyOp23
 70
     0
102
RTVSPropertyOp24
 70
     0
102
RTVSPropertyOp25
 70
     0
102
RTVSPropertyOp26
 70
     0
102
RTVSPropertyOp27
 70
     0
102
RTVSPropertyOp28
 70
     1
102
RTVSPropertyOp29
 70
     1
102
RTVSPropertyOp30
 70
     1
102
RTVSPropertyOp31
 70
     1
102
RTVSPropertyOp32
 70
     1
102
RTVSPropertyOp33
 70
     1
102
RTVSPropertyOp34
 70
     1
102
RTVSPropertyOp35
 70
     1
102
RTVSPropertyOp36
 70
     1
102
RTVSPropertyOp37
 70
     0
102
RTVSPropertyOp38
 70
     0
102
RTVSPropertyOp39
 70
     0
102
RTVSPropertyOp40
 70
     0
102
RTVSPropertyOp41
 70
     0
102
RTVSPropertyOp42
 70
     0
102
RTVSPropertyOp43
 70
     0
102
RTVSPropertyOp44
 70
     0
102
RTVSPropertyOp45
 70
     1
102
RTVSPropertyOp46
 70
     0
102
RTVSPropertyOp47
 70
     0
102
RTVSPropertyOp48
 70
     0
102
RTVSPropertyOp49
 70
     1
102
RTVSPropertyOp50
 70
     0
102
RTVSPropertyOp51
 70
     0
102
RTVSPropertyOp52
 70
     0
102
RTVSPropertyOp53
 70
     0
102
RTVSPropertyOp54
 70
     0
102
RTVSPropertyOp55
 70
     1
102
RTVSPropertyOp56
 70
     0
102
RTVSPropertyOp57
 70
     0
102
RTVSPropertyOp58
 70
     0
102
RTVSPropertyOp59
 70
     0
102
RTVSPropertyOp60
 70
     0
102
RTVSPropertyOp61
 70
     0
102
RTVSPropertyOp62
 70
     0
  0
XRECORD
  5
646
102
{ACAD_REACTORS
330
645
102
}
330
645
100
AcDbXrecord
280
     1
102
RTVSPost2010Prop28
280
     0
102
RTVSPost2010PropOp28
 70
     1
102
RTVSPost2010Prop29
280
     1
102
RTVSPost2010PropOp29
 70
     1
102
RTVSPost2010Prop30
280
     1
102
RTVSPost2010PropOp30
 70
     1
102
RTVSPost2010Prop31
280
     0
102
RTVSPost2010PropOp31
 70
     1
102
RTVSPost2010Prop32
280
     0
102
RTVSPost2010PropOp32
 70
     1
102
RTVSPost2010Prop33
280
     0
102
RTVSPost2010PropOp33
 70
     1
102
RTVSPost2010Prop34
280
     0
102
RTVSPost2010PropOp34
 70
     1
102
RTVSPost2010Prop35
280
     0
102
RTVSPost2010PropOp35
 70
     1
102
RTVSPost2010Prop36
280
     0
102
RTVSPost2010PropOp36
 70
     1
102
RTVSPost2010Prop37
 90
       50
102
RTVSPost2010PropOp37
 70
     1
102
RTVSPost2010Prop38
140
0.0
102
RTVSPost2010PropOp38
 70
     1
102
RTVSPost2010Prop39
140
1.0
102
RTVSPost2010PropOp39
 70
     1
102
RTVSPost2010Prop40
 90
        0
102
RTVSPost2010PropOp40
 70
     1
102
RTVSPost2010Prop41ColorIndex
 90
       18
102
RTVSPost2010Prop41ColorRGB
 90
        0
102
RTVSPost2010PropOp41
 70
     1
102
RTVSPost2010Prop42
 90
       50
102
RTVSPost2010PropOp42
 70
     1
102
RTVSPost2010Prop43
 90
        3
102
RTVSPost2010PropOp43
 70
     1
102
RTVSPost2010Prop44ColorIndex
 90
        5
102
RTVSPost2010Prop44ColorRGB
 90
      255
102
RTVSPost2010PropOp44
 70
     1
102
RTVSPost2010Prop45
280
     0
102
RTVSPost2010PropOp45
 70
     1
102
RTVSPost2010Prop46
 90
       50
102
RTVSPost2010PropOp46
 70
     1
102
RTVSPost2010Prop47
 90
       50
102
RTVSPost2010PropOp47
 70
     1
102
RTVSPost2010Prop48
 90
       50
102
RTVSPost2010PropOp48
 70
     1
102
RTVSPost2010Prop49
280
     0
102
RTVSPost2010PropOp49
 70
     1
102
RTVSPost2010Prop50
 90
       50
102
RTVSPost2010PropOp50
 70
     1
102
RTVSPost2010Prop51ColorIndex
 90
      256
102
RTVSPost2010Prop51ColorRGB
 90
-16777216
102
RTVSPost2010PropOp51
 70
     0
102
RTVSPost2010Prop52
140
1.0
102
RTVSPost2010PropOp52
 70
     0
102
RTVSPost2010Prop53
 90
        2
102
RTVSPost2010PropOp53
 70
     1
102
RTVSPost2010Prop54
  1
strokes_ogs.tif
102
RTVSPost2010PropOp54
 70
     1
102
RTVSPost2010Prop55
280
     0
102
RTVSPost2010PropOp55
 70
     1
102
RTVSPost2010Prop56
140
1.0
102
RTVSPost2010PropOp56
 70
     1
102
RTVSPost2010Prop57
140
1.0
102
RTVSPost2010PropOp57
 70
     1
102
RTVSPropertyOp0
 70
     1
102
RTVSPropertyOp1
 70
     1
102
RTVSPropertyOp2
 70
     1
102
RTVSPropertyOp3
 70
     1
102
RTVSPropertyOp4
 70
     1
102
RTVSPropertyOp5
 70
     1
102
RTVSPropertyOp6
 70
     1
102
RTVSPropertyOp7
 70
     1
102
RTVSPropertyOp8
 70
     1
102
RTVSPropertyOp9
 70
     1
102
RTVSPropertyOp10
 70
     1
102
RTVSPropertyOp11
 70
     1
102
RTVSPropertyOp12
 70
     1
102
RTVSPropertyOp13
 70
     1
102
RTVSPropertyOp14
 70
     1
102
RTVSPropertyOp15
 70
     1
102
RTVSPropertyOp16
 70
     1
102
RTVSPropertyOp17
 70
     1
102
RTVSPropertyOp18
 70
     1
102
RTVSPropertyOp19
 70
     1
102
RTVSPropertyOp20
 70
     1
102
RTVSPropertyOp21
 70
     1
102
RTVSPropertyOp22
 70
     1
102
RTVSPropertyOp23
 70
     1
102
RTVSPropertyOp24
 70
     1
102
RTVSPropertyOp25
 70
     1
102
RTVSPropertyOp26
 70
     1
102
RTVSPropertyOp27
 70
     1
102
RTVSPropertyOp28
 70
     1
102
RTVSPropertyOp29
 70
     1
102
RTVSPropertyOp30
 70
     1
102
RTVSPropertyOp31
 70
     1
102
RTVSPropertyOp32
 70
     1
102
RTVSPropertyOp33
 70
     1
102
RTVSPropertyOp34
 70
     1
102
RTVSPropertyOp35
 70
     1
102
RTVSPropertyOp36
 70
     1
102
RTVSPropertyOp37
 70
     1
102
RTVSPropertyOp38
 70
     1
102
RTVSPropertyOp39
 70
     1
102
RTVSPropertyOp40
 70
     1
102
RTVSPropertyOp41
 70
     1
102
RTVSPropertyOp42
 70
     1
102
RTVSPropertyOp43
 70
     1
102
RTVSPropertyOp44
 70
     1
102
RTVSPropertyOp45
 70
     1
102
RTVSPropertyOp46
 70
     1
102
RTVSPropertyOp47
 70
     1
102
RTVSPropertyOp48
 70
     1
102
RTVSPropertyOp49
 70
     1
102
RTVSPropertyOp50
 70
     1
102
RTVSPropertyOp51
 70
     0
102
RTVSPropertyOp52
 70
     0
102
RTVSPropertyOp53
 70
     1
102
RTVSPropertyOp54
 70
     1
102
RTVSPropertyOp55
 70
     1
102
RTVSPropertyOp56
 70
     1
102
RTVSPropertyOp57
 70
     1
102
RTVSPropertyOp58
 70
     1
102
RTVSPropertyOp59
 70
     1
102
RTVSPropertyOp60
 70
     1
102
RTVSPropertyOp61
 70
     1
102
RTVSPropertyOp62
 70
     1
  0
XRECORD
  5
65C
102
{ACAD_REACTORS
330
65B
102
}
330
65B
100
AcDbXrecord
280
     1
102
RTVSPost2010Prop28
280
     0
102
RTVSPost2010PropOp28
 70
     1
102
RTVSPost2010Prop29
280
     1
102
RTVSPost2010PropOp29
 70
     1
102
RTVSPost2010Prop30
280
     1
102
RTVSPost2010PropOp30
 70
     1
102
RTVSPost2010Prop31
280
     0
102
RTVSPost2010PropOp31
 70
     1
102
RTVSPost2010Prop32
280
     0
102
RTVSPost2010PropOp32
 70
     1
102
RTVSPost2010Prop33
280
     0
102
RTVSPost2010PropOp33
 70
     1
102
RTVSPost2010Prop34
280
     0
102
RTVSPost2010PropOp34
 70
     1
102
RTVSPost2010Prop35
280
     0
102
RTVSPost2010PropOp35
 70
     1
102
RTVSPost2010Prop36
280
     0
102
RTVSPost2010PropOp36
 70
     1
102
RTVSPost2010Prop37
 90
       50
102
RTVSPost2010PropOp37
 70
     1
102
RTVSPost2010Prop38
140
0.0
102
RTVSPost2010PropOp38
 70
     1
102
RTVSPost2010Prop39
140
1.0
102
RTVSPost2010PropOp39
 70
     1
102
RTVSPost2010Prop40
 90
        0
102
RTVSPost2010PropOp40
 70
     1
102
RTVSPost2010Prop41ColorIndex
 90
       18
102
RTVSPost2010Prop41ColorRGB
 90
        0
102
RTVSPost2010PropOp41
 70
     1
102
RTVSPost2010Prop42
 90
       50
102
RTVSPost2010PropOp42
 70
     1
102
RTVSPost2010Prop43
 90
        3
102
RTVSPost2010PropOp43
 70
     1
102
RTVSPost2010Prop44ColorIndex
 90
        5
102
RTVSPost2010Prop44ColorRGB
 90
      255
102
RTVSPost2010PropOp44
 70
     1
102
RTVSPost2010Prop45
280
     0
102
RTVSPost2010PropOp45
 70
     1
102
RTVSPost2010Prop46
 90
       50
102
RTVSPost2010PropOp46
 70
     1
102
RTVSPost2010Prop47
 90
       50
102
RTVSPost2010PropOp47
 70
     1
102
RTVSPost2010Prop48
 90
       50
102
RTVSPost2010PropOp48
 70
     1
102
RTVSPost2010Prop49
280
     0
102
RTVSPost2010PropOp49
 70
     1
102
RTVSPost2010Prop50
 90
       50
102
RTVSPost2010PropOp50
 70
     1
102
RTVSPost2010Prop51ColorIndex
 90
      256
102
RTVSPost2010Prop51ColorRGB
 90
-16777216
102
RTVSPost2010PropOp51
 70
     0
102
RTVSPost2010Prop52
140
1.0
102
RTVSPost2010PropOp52
 70
     0
102
RTVSPost2010Prop53
 90
        2
102
RTVSPost2010PropOp53
 70
     1
102
RTVSPost2010Prop54
  1
strokes_ogs.tif
102
RTVSPost2010PropOp54
 70
     1
102
RTVSPost2010Prop55
280
     0
102
RTVSPost2010PropOp55
 70
     1
102
RTVSPost2010Prop56
140
1.0
102
RTVSPost2010PropOp56
 70
     1
102
RTVSPost2010Prop57
140
1.0
102
RTVSPost2010PropOp57
 70
     1
102
RTVSPropertyOp0
 70
     1
102
RTVSPropertyOp1
 70
     1
102
RTVSPropertyOp2
 70
     1
102
RTVSPropertyOp3
 70
     1
102
RTVSPropertyOp4
 70
     1
102
RTVSPropertyOp5
 70
     1
102
RTVSPropertyOp6
 70
     1
102
RTVSPropertyOp7
 70
     1
102
RTVSPropertyOp8
 70
     1
102
RTVSPropertyOp9
 70
     1
102
RTVSPropertyOp10
 70
     1
102
RTVSPropertyOp11
 70
     1
102
RTVSPropertyOp12
 70
     1
102
RTVSPropertyOp13
 70
     1
102
RTVSPropertyOp14
 70
     1
102
RTVSPropertyOp15
 70
     1
102
RTVSPropertyOp16
 70
     1
102
RTVSPropertyOp17
 70
     1
102
RTVSPropertyOp18
 70
     1
102
RTVSPropertyOp19
 70
     1
102
RTVSPropertyOp20
 70
     1
102
RTVSPropertyOp21
 70
     1
102
RTVSPropertyOp22
 70
     1
102
RTVSPropertyOp23
 70
     1
102
RTVSPropertyOp24
 70
     1
102
RTVSPropertyOp25
 70
     1
102
RTVSPropertyOp26
 70
     1
102
RTVSPropertyOp27
 70
     1
102
RTVSPropertyOp28
 70
     1
102
RTVSPropertyOp29
 70
     1
102
RTVSPropertyOp30
 70
     1
102
RTVSPropertyOp31
 70
     1
102
RTVSPropertyOp32
 70
     1
102
RTVSPropertyOp33
 70
     1
102
RTVSPropertyOp34
 70
     1
102
RTVSPropertyOp35
 70
     1
102
RTVSPropertyOp36
 70
     1
102
RTVSPropertyOp37
 70
     1
102
RTVSPropertyOp38
 70
     1
102
RTVSPropertyOp39
 70
     1
102
RTVSPropertyOp40
 70
     1
102
RTVSPropertyOp41
 70
     1
102
RTVSPropertyOp42
 70
     1
102
RTVSPropertyOp43
 70
     1
102
RTVSPropertyOp44
 70
     1
102
RTVSPropertyOp45
 70
     1
102
RTVSPropertyOp46
 70
     1
102
RTVSPropertyOp47
 70
     1
102
RTVSPropertyOp48
 70
     1
102
RTVSPropertyOp49
 70
     1
102
RTVSPropertyOp50
 70
     1
102
RTVSPropertyOp51
 70
     0
102
RTVSPropertyOp52
 70
     0
102
RTVSPropertyOp53
 70
     1
102
RTVSPropertyOp54
 70
     1
102
RTVSPropertyOp55
 70
     1
102
RTVSPropertyOp56
 70
     1
102
RTVSPropertyOp57
 70
     1
102
RTVSPropertyOp58
 70
     1
102
RTVSPropertyOp59
 70
     1
102
RTVSPropertyOp60
 70
     1
102
RTVSPropertyOp61
 70
     1
102
RTVSPropertyOp62
 70
     1
  0
XRECORD
  5
65A
102
{ACAD_REACTORS
330
659
102
}
330
659
100
AcDbXrecord
280
     1
102
RTVSPost2010Prop28
280
     0
102
RTVSPost2010PropOp28
 70
     1
102
RTVSPost2010Prop29
280
     1
102
RTVSPost2010PropOp29
 70
     1
102
RTVSPost2010Prop30
280
     1
102
RTVSPost2010PropOp30
 70
     1
102
RTVSPost2010Prop31
280
     0
102
RTVSPost2010PropOp31
 70
     1
102
RTVSPost2010Prop32
280
     0
102
RTVSPost2010PropOp32
 70
     1
102
RTVSPost2010Prop33
280
     0
102
RTVSPost2010PropOp33
 70
     1
102
RTVSPost2010Prop34
280
     0
102
RTVSPost2010PropOp34
 70
     1
102
RTVSPost2010Prop35
280
     0
102
RTVSPost2010PropOp35
 70
     1
102
RTVSPost2010Prop36
280
     0
102
RTVSPost2010PropOp36
 70
     1
102
RTVSPost2010Prop37
 90
       50
102
RTVSPost2010PropOp37
 70
     1
102
RTVSPost2010Prop38
140
0.0
102
RTVSPost2010PropOp38
 70
     1
102
RTVSPost2010Prop39
140
1.0
102
RTVSPost2010PropOp39
 70
     1
102
RTVSPost2010Prop40
 90
        0
102
RTVSPost2010PropOp40
 70
     1
102
RTVSPost2010Prop41ColorIndex
 90
       18
102
RTVSPost2010Prop41ColorRGB
 90
        0
102
RTVSPost2010PropOp41
 70
     1
102
RTVSPost2010Prop42
 90
       50
102
RTVSPost2010PropOp42
 70
     1
102
RTVSPost2010Prop43
 90
        3
102
RTVSPost2010PropOp43
 70
     1
102
RTVSPost2010Prop44ColorIndex
 90
        5
102
RTVSPost2010Prop44ColorRGB
 90
      255
102
RTVSPost2010PropOp44
 70
     1
102
RTVSPost2010Prop45
280
     0
102
RTVSPost2010PropOp45
 70
     1
102
RTVSPost2010Prop46
 90
       50
102
RTVSPost2010PropOp46
 70
     1
102
RTVSPost2010Prop47
 90
       50
102
RTVSPost2010PropOp47
 70
     1
102
RTVSPost2010Prop48
 90
       50
102
RTVSPost2010PropOp48
 70
     1
102
RTVSPost2010Prop49
280
     0
102
RTVSPost2010PropOp49
 70
     1
102
RTVSPost2010Prop50
 90
       50
102
RTVSPost2010PropOp50
 70
     1
102
RTVSPost2010Prop51ColorIndex
 90
      256
102
RTVSPost2010Prop51ColorRGB
 90
-16777216
102
RTVSPost2010PropOp51
 70
     0
102
RTVSPost2010Prop52
140
1.0
102
RTVSPost2010PropOp52
 70
     0
102
RTVSPost2010Prop53
 90
        2
102
RTVSPost2010PropOp53
 70
     1
102
RTVSPost2010Prop54
  1
strokes_ogs.tif
102
RTVSPost2010PropOp54
 70
     1
102
RTVSPost2010Prop55
280
     0
102
RTVSPost2010PropOp55
 70
     1
102
RTVSPost2010Prop56
140
1.0
102
RTVSPost2010PropOp56
 70
     1
102
RTVSPost2010Prop57
140
1.0
102
RTVSPost2010PropOp57
 70
     1
102
RTVSPropertyOp0
 70
     1
102
RTVSPropertyOp1
 70
     1
102
RTVSPropertyOp2
 70
     1
102
RTVSPropertyOp3
 70
     1
102
RTVSPropertyOp4
 70
     1
102
RTVSPropertyOp5
 70
     1
102
RTVSPropertyOp6
 70
     1
102
RTVSPropertyOp7
 70
     1
102
RTVSPropertyOp8
 70
     1
102
RTVSPropertyOp9
 70
     1
102
RTVSPropertyOp10
 70
     1
102
RTVSPropertyOp11
 70
     1
102
RTVSPropertyOp12
 70
     1
102
RTVSPropertyOp13
 70
     1
102
RTVSPropertyOp14
 70
     1
102
RTVSPropertyOp15
 70
     1
102
RTVSPropertyOp16
 70
     1
102
RTVSPropertyOp17
 70
     1
102
RTVSPropertyOp18
 70
     1
102
RTVSPropertyOp19
 70
     1
102
RTVSPropertyOp20
 70
     1
102
RTVSPropertyOp21
 70
     1
102
RTVSPropertyOp22
 70
     1
102
RTVSPropertyOp23
 70
     1
102
RTVSPropertyOp24
 70
     1
102
RTVSPropertyOp25
 70
     1
102
RTVSPropertyOp26
 70
     1
102
RTVSPropertyOp27
 70
     1
102
RTVSPropertyOp28
 70
     1
102
RTVSPropertyOp29
 70
     1
102
RTVSPropertyOp30
 70
     1
102
RTVSPropertyOp31
 70
     1
102
RTVSPropertyOp32
 70
     1
102
RTVSPropertyOp33
 70
     1
102
RTVSPropertyOp34
 70
     1
102
RTVSPropertyOp35
 70
     1
102
RTVSPropertyOp36
 70
     1
102
RTVSPropertyOp37
 70
     1
102
RTVSPropertyOp38
 70
     1
102
RTVSPropertyOp39
 70
     1
102
RTVSPropertyOp40
 70
     1
102
RTVSPropertyOp41
 70
     1
102
RTVSPropertyOp42
 70
     1
102
RTVSPropertyOp43
 70
     1
102
RTVSPropertyOp44
 70
     1
102
RTVSPropertyOp45
 70
     1
102
RTVSPropertyOp46
 70
     1
102
RTVSPropertyOp47
 70
     1
102
RTVSPropertyOp48
 70
     1
102
RTVSPropertyOp49
 70
     1
102
RTVSPropertyOp50
 70
     1
102
RTVSPropertyOp51
 70
     0
102
RTVSPropertyOp52
 70
     0
102
RTVSPropertyOp53
 70
     1
102
RTVSPropertyOp54
 70
     1
102
RTVSPropertyOp55
 70
     1
102
RTVSPropertyOp56
 70
     1
102
RTVSPropertyOp57
 70
     1
102
RTVSPropertyOp58
 70
     1
102
RTVSPropertyOp59
 70
     1
102
RTVSPropertyOp60
 70
     1
102
RTVSPropertyOp61
 70
     1
102
RTVSPropertyOp62
 70
     1
  0
XRECORD
  5
654
102
{ACAD_REACTORS
330
653
102
}
330
653
100
AcDbXrecord
280
     1
102
RTVSPost2010Prop28
280
     0
102
RTVSPost2010PropOp28
 70
     1
102
RTVSPost2010Prop29
280
     1
102
RTVSPost2010PropOp29
 70
     1
102
RTVSPost2010Prop30
280
     1
102
RTVSPost2010PropOp30
 70
     1
102
RTVSPost2010Prop31
280
     0
102
RTVSPost2010PropOp31
 70
     1
102
RTVSPost2010Prop32
280
     0
102
RTVSPost2010PropOp32
 70
     1
102
RTVSPost2010Prop33
280
     0
102
RTVSPost2010PropOp33
 70
     1
102
RTVSPost2010Prop34
280
     0
102
RTVSPost2010PropOp34
 70
     1
102
RTVSPost2010Prop35
280
     0
102
RTVSPost2010PropOp35
 70
     1
102
RTVSPost2010Prop36
280
     0
102
RTVSPost2010PropOp36
 70
     1
102
RTVSPost2010Prop37
 90
       50
102
RTVSPost2010PropOp37
 70
     1
102
RTVSPost2010Prop38
140
0.0
102
RTVSPost2010PropOp38
 70
     1
102
RTVSPost2010Prop39
140
1.0
102
RTVSPost2010PropOp39
 70
     1
102
RTVSPost2010Prop40
 90
        0
102
RTVSPost2010PropOp40
 70
     1
102
RTVSPost2010Prop41ColorIndex
 90
       18
102
RTVSPost2010Prop41ColorRGB
 90
        0
102
RTVSPost2010PropOp41
 70
     1
102
RTVSPost2010Prop42
 90
       50
102
RTVSPost2010PropOp42
 70
     1
102
RTVSPost2010Prop43
 90
        3
102
RTVSPost2010PropOp43
 70
     1
102
RTVSPost2010Prop44ColorIndex
 90
        5
102
RTVSPost2010Prop44ColorRGB
 90
      255
102
RTVSPost2010PropOp44
 70
     1
102
RTVSPost2010Prop45
280
     0
102
RTVSPost2010PropOp45
 70
     1
102
RTVSPost2010Prop46
 90
       50
102
RTVSPost2010PropOp46
 70
     1
102
RTVSPost2010Prop47
 90
       50
102
RTVSPost2010PropOp47
 70
     1
102
RTVSPost2010Prop48
 90
       50
102
RTVSPost2010PropOp48
 70
     1
102
RTVSPost2010Prop49
280
     0
102
RTVSPost2010PropOp49
 70
     1
102
RTVSPost2010Prop50
 90
       50
102
RTVSPost2010PropOp50
 70
     1
102
RTVSPost2010Prop51ColorIndex
 90
      256
102
RTVSPost2010Prop51ColorRGB
 90
-16777216
102
RTVSPost2010PropOp51
 70
     0
102
RTVSPost2010Prop52
140
1.0
102
RTVSPost2010PropOp52
 70
     0
102
RTVSPost2010Prop53
 90
        2
102
RTVSPost2010PropOp53
 70
     1
102
RTVSPost2010Prop54
  1
strokes_ogs.tif
102
RTVSPost2010PropOp54
 70
     1
102
RTVSPost2010Prop55
280
     0
102
RTVSPost2010PropOp55
 70
     1
102
RTVSPost2010Prop56
140
1.0
102
RTVSPost2010PropOp56
 70
     1
102
RTVSPost2010Prop57
140
1.0
102
RTVSPost2010PropOp57
 70
     1
102
RTVSPropertyOp0
 70
     1
102
RTVSPropertyOp1
 70
     1
102
RTVSPropertyOp2
 70
     1
102
RTVSPropertyOp3
 70
     1
102
RTVSPropertyOp4
 70
     1
102
RTVSPropertyOp5
 70
     1
102
RTVSPropertyOp6
 70
     1
102
RTVSPropertyOp7
 70
     1
102
RTVSPropertyOp8
 70
     1
102
RTVSPropertyOp9
 70
     1
102
RTVSPropertyOp10
 70
     1
102
RTVSPropertyOp11
 70
     1
102
RTVSPropertyOp12
 70
     1
102
RTVSPropertyOp13
 70
     1
102
RTVSPropertyOp14
 70
     1
102
RTVSPropertyOp15
 70
     1
102
RTVSPropertyOp16
 70
     1
102
RTVSPropertyOp17
 70
     1
102
RTVSPropertyOp18
 70
     1
102
RTVSPropertyOp19
 70
     1
102
RTVSPropertyOp20
 70
     1
102
RTVSPropertyOp21
 70
     1
102
RTVSPropertyOp22
 70
     1
102
RTVSPropertyOp23
 70
     1
102
RTVSPropertyOp24
 70
     1
102
RTVSPropertyOp25
 70
     1
102
RTVSPropertyOp26
 70
     1
102
RTVSPropertyOp27
 70
     1
102
RTVSPropertyOp28
 70
     1
102
RTVSPropertyOp29
 70
     1
102
RTVSPropertyOp30
 70
     1
102
RTVSPropertyOp31
 70
     1
102
RTVSPropertyOp32
 70
     1
102
RTVSPropertyOp33
 70
     1
102
RTVSPropertyOp34
 70
     1
102
RTVSPropertyOp35
 70
     1
102
RTVSPropertyOp36
 70
     1
102
RTVSPropertyOp37
 70
     1
102
RTVSPropertyOp38
 70
     1
102
RTVSPropertyOp39
 70
     1
102
RTVSPropertyOp40
 70
     1
102
RTVSPropertyOp41
 70
     1
102
RTVSPropertyOp42
 70
     1
102
RTVSPropertyOp43
 70
     1
102
RTVSPropertyOp44
 70
     1
102
RTVSPropertyOp45
 70
     1
102
RTVSPropertyOp46
 70
     1
102
RTVSPropertyOp47
 70
     1
102
RTVSPropertyOp48
 70
     1
102
RTVSPropertyOp49
 70
     1
102
RTVSPropertyOp50
 70
     1
102
RTVSPropertyOp51
 70
     0
102
RTVSPropertyOp52
 70
     0
102
RTVSPropertyOp53
 70
     1
102
RTVSPropertyOp54
 70
     1
102
RTVSPropertyOp55
 70
     1
102
RTVSPropertyOp56
 70
     1
102
RTVSPropertyOp57
 70
     1
102
RTVSPropertyOp58
 70
     1
102
RTVSPropertyOp59
 70
     1
102
RTVSPropertyOp60
 70
     1
102
RTVSPropertyOp61
 70
     1
102
RTVSPropertyOp62
 70
     1
  0
XRECORD
  5
656
102
{ACAD_REACTORS
330
655
102
}
330
655
100
AcDbXrecord
280
     1
102
RTVSPost2010Prop28
280
     0
102
RTVSPost2010PropOp28
 70
     1
102
RTVSPost2010Prop29
280
     1
102
RTVSPost2010PropOp29
 70
     1
102
RTVSPost2010Prop30
280
     1
102
RTVSPost2010PropOp30
 70
     1
102
RTVSPost2010Prop31
280
     0
102
RTVSPost2010PropOp31
 70
     1
102
RTVSPost2010Prop32
280
     0
102
RTVSPost2010PropOp32
 70
     1
102
RTVSPost2010Prop33
280
     0
102
RTVSPost2010PropOp33
 70
     1
102
RTVSPost2010Prop34
280
     0
102
RTVSPost2010PropOp34
 70
     1
102
RTVSPost2010Prop35
280
     0
102
RTVSPost2010PropOp35
 70
     1
102
RTVSPost2010Prop36
280
     0
102
RTVSPost2010PropOp36
 70
     1
102
RTVSPost2010Prop37
 90
       50
102
RTVSPost2010PropOp37
 70
     1
102
RTVSPost2010Prop38
140
0.0
102
RTVSPost2010PropOp38
 70
     1
102
RTVSPost2010Prop39
140
1.0
102
RTVSPost2010PropOp39
 70
     1
102
RTVSPost2010Prop40
 90
        0
102
RTVSPost2010PropOp40
 70
     1
102
RTVSPost2010Prop41ColorIndex
 90
       18
102
RTVSPost2010Prop41ColorRGB
 90
        0
102
RTVSPost2010PropOp41
 70
     1
102
RTVSPost2010Prop42
 90
       50
102
RTVSPost2010PropOp42
 70
     1
102
RTVSPost2010Prop43
 90
        3
102
RTVSPost2010PropOp43
 70
     1
102
RTVSPost2010Prop44ColorIndex
 90
        5
102
RTVSPost2010Prop44ColorRGB
 90
      255
102
RTVSPost2010PropOp44
 70
     1
102
RTVSPost2010Prop45
280
     0
102
RTVSPost2010PropOp45
 70
     1
102
RTVSPost2010Prop46
 90
       50
102
RTVSPost2010PropOp46
 70
     1
102
RTVSPost2010Prop47
 90
       50
102
RTVSPost2010PropOp47
 70
     1
102
RTVSPost2010Prop48
 90
       50
102
RTVSPost2010PropOp48
 70
     1
102
RTVSPost2010Prop49
280
     0
102
RTVSPost2010PropOp49
 70
     1
102
RTVSPost2010Prop50
 90
       50
102
RTVSPost2010PropOp50
 70
     1
102
RTVSPost2010Prop51ColorIndex
 90
      256
102
RTVSPost2010Prop51ColorRGB
 90
-16777216
102
RTVSPost2010PropOp51
 70
     0
102
RTVSPost2010Prop52
140
1.0
102
RTVSPost2010PropOp52
 70
     0
102
RTVSPost2010Prop53
 90
        2
102
RTVSPost2010PropOp53
 70
     1
102
RTVSPost2010Prop54
  1
strokes_ogs.tif
102
RTVSPost2010PropOp54
 70
     1
102
RTVSPost2010Prop55
280
     0
102
RTVSPost2010PropOp55
 70
     1
102
RTVSPost2010Prop56
140
1.0
102
RTVSPost2010PropOp56
 70
     1
102
RTVSPost2010Prop57
140
1.0
102
RTVSPost2010PropOp57
 70
     1
102
RTVSPropertyOp0
 70
     1
102
RTVSPropertyOp1
 70
     1
102
RTVSPropertyOp2
 70
     1
102
RTVSPropertyOp3
 70
     1
102
RTVSPropertyOp4
 70
     1
102
RTVSPropertyOp5
 70
     1
102
RTVSPropertyOp6
 70
     1
102
RTVSPropertyOp7
 70
     1
102
RTVSPropertyOp8
 70
     1
102
RTVSPropertyOp9
 70
     1
102
RTVSPropertyOp10
 70
     1
102
RTVSPropertyOp11
 70
     1
102
RTVSPropertyOp12
 70
     1
102
RTVSPropertyOp13
 70
     1
102
RTVSPropertyOp14
 70
     1
102
RTVSPropertyOp15
 70
     1
102
RTVSPropertyOp16
 70
     1
102
RTVSPropertyOp17
 70
     1
102
RTVSPropertyOp18
 70
     1
102
RTVSPropertyOp19
 70
     1
102
RTVSPropertyOp20
 70
     1
102
RTVSPropertyOp21
 70
     1
102
RTVSPropertyOp22
 70
     1
102
RTVSPropertyOp23
 70
     1
102
RTVSPropertyOp24
 70
     1
102
RTVSPropertyOp25
 70
     1
102
RTVSPropertyOp26
 70
     1
102
RTVSPropertyOp27
 70
     1
102
RTVSPropertyOp28
 70
     1
102
RTVSPropertyOp29
 70
     1
102
RTVSPropertyOp30
 70
     1
102
RTVSPropertyOp31
 70
     1
102
RTVSPropertyOp32
 70
     1
102
RTVSPropertyOp33
 70
     1
102
RTVSPropertyOp34
 70
     1
102
RTVSPropertyOp35
 70
     1
102
RTVSPropertyOp36
 70
     1
102
RTVSPropertyOp37
 70
     1
102
RTVSPropertyOp38
 70
     1
102
RTVSPropertyOp39
 70
     1
102
RTVSPropertyOp40
 70
     1
102
RTVSPropertyOp41
 70
     1
102
RTVSPropertyOp42
 70
     1
102
RTVSPropertyOp43
 70
     1
102
RTVSPropertyOp44
 70
     1
102
RTVSPropertyOp45
 70
     1
102
RTVSPropertyOp46
 70
     1
102
RTVSPropertyOp47
 70
     1
102
RTVSPropertyOp48
 70
     1
102
RTVSPropertyOp49
 70
     1
102
RTVSPropertyOp50
 70
     1
102
RTVSPropertyOp51
 70
     0
102
RTVSPropertyOp52
 70
     0
102
RTVSPropertyOp53
 70
     1
102
RTVSPropertyOp54
 70
     1
102
RTVSPropertyOp55
 70
     1
102
RTVSPropertyOp56
 70
     1
102
RTVSPropertyOp57
 70
     1
102
RTVSPropertyOp58
 70
     1
102
RTVSPropertyOp59
 70
     1
102
RTVSPropertyOp60
 70
     1
102
RTVSPropertyOp61
 70
     1
102
RTVSPropertyOp62
 70
     1
  0
XRECORD
  5
64C
102
{ACAD_REACTORS
330
64B
102
}
330
64B
100
AcDbXrecord
280
     1
102
RTVSPost2010Prop28
280
     0
102
RTVSPost2010PropOp28
 70
     1
102
RTVSPost2010Prop29
280
     1
102
RTVSPost2010PropOp29
 70
     1
102
RTVSPost2010Prop30
280
     1
102
RTVSPost2010PropOp30
 70
     1
102
RTVSPost2010Prop31
280
     0
102
RTVSPost2010PropOp31
 70
     1
102
RTVSPost2010Prop32
280
     0
102
RTVSPost2010PropOp32
 70
     1
102
RTVSPost2010Prop33
280
     0
102
RTVSPost2010PropOp33
 70
     1
102
RTVSPost2010Prop34
280
     0
102
RTVSPost2010PropOp34
 70
     1
102
RTVSPost2010Prop35
280
     0
102
RTVSPost2010PropOp35
 70
     1
102
RTVSPost2010Prop36
280
     0
102
RTVSPost2010PropOp36
 70
     1
102
RTVSPost2010Prop37
 90
       50
102
RTVSPost2010PropOp37
 70
     1
102
RTVSPost2010Prop38
140
0.0
102
RTVSPost2010PropOp38
 70
     1
102
RTVSPost2010Prop39
140
1.0
102
RTVSPost2010PropOp39
 70
     1
102
RTVSPost2010Prop40
 90
        0
102
RTVSPost2010PropOp40
 70
     1
102
RTVSPost2010Prop41ColorIndex
 90
       18
102
RTVSPost2010Prop41ColorRGB
 90
        0
102
RTVSPost2010PropOp41
 70
     1
102
RTVSPost2010Prop42
 90
       50
102
RTVSPost2010PropOp42
 70
     1
102
RTVSPost2010Prop43
 90
        3
102
RTVSPost2010PropOp43
 70
     1
102
RTVSPost2010Prop44ColorIndex
 90
        5
102
RTVSPost2010Prop44ColorRGB
 90
      255
102
RTVSPost2010PropOp44
 70
     1
102
RTVSPost2010Prop45
280
     0
102
RTVSPost2010PropOp45
 70
     1
102
RTVSPost2010Prop46
 90
       50
102
RTVSPost2010PropOp46
 70
     1
102
RTVSPost2010Prop47
 90
       50
102
RTVSPost2010PropOp47
 70
     1
102
RTVSPost2010Prop48
 90
       50
102
RTVSPost2010PropOp48
 70
     1
102
RTVSPost2010Prop49
280
     0
102
RTVSPost2010PropOp49
 70
     1
102
RTVSPost2010Prop50
 90
       50
102
RTVSPost2010PropOp50
 70
     1
102
RTVSPost2010Prop51ColorIndex
 90
      256
102
RTVSPost2010Prop51ColorRGB
 90
-16777216
102
RTVSPost2010PropOp51
 70
     0
102
RTVSPost2010Prop52
140
1.0
102
RTVSPost2010PropOp52
 70
     0
102
RTVSPost2010Prop53
 90
        2
102
RTVSPost2010PropOp53
 70
     1
102
RTVSPost2010Prop54
  1
strokes_ogs.tif
102
RTVSPost2010PropOp54
 70
     1
102
RTVSPost2010Prop55
280
     0
102
RTVSPost2010PropOp55
 70
     1
102
RTVSPost2010Prop56
140
1.0
102
RTVSPost2010PropOp56
 70
     1
102
RTVSPost2010Prop57
140
1.0
102
RTVSPost2010PropOp57
 70
     1
102
RTVSPropertyOp0
 70
     1
102
RTVSPropertyOp1
 70
     1
102
RTVSPropertyOp2
 70
     1
102
RTVSPropertyOp3
 70
     1
102
RTVSPropertyOp4
 70
     1
102
RTVSPropertyOp5
 70
     1
102
RTVSPropertyOp6
 70
     1
102
RTVSPropertyOp7
 70
     1
102
RTVSPropertyOp8
 70
     1
102
RTVSPropertyOp9
 70
     1
102
RTVSPropertyOp10
 70
     1
102
RTVSPropertyOp11
 70
     1
102
RTVSPropertyOp12
 70
     1
102
RTVSPropertyOp13
 70
     1
102
RTVSPropertyOp14
 70
     1
102
RTVSPropertyOp15
 70
     1
102
RTVSPropertyOp16
 70
     1
102
RTVSPropertyOp17
 70
     1
102
RTVSPropertyOp18
 70
     1
102
RTVSPropertyOp19
 70
     1
102
RTVSPropertyOp20
 70
     1
102
RTVSPropertyOp21
 70
     1
102
RTVSPropertyOp22
 70
     1
102
RTVSPropertyOp23
 70
     1
102
RTVSPropertyOp24
 70
     1
102
RTVSPropertyOp25
 70
     1
102
RTVSPropertyOp26
 70
     1
102
RTVSPropertyOp27
 70
     1
102
RTVSPropertyOp28
 70
     1
102
RTVSPropertyOp29
 70
     1
102
RTVSPropertyOp30
 70
     1
102
RTVSPropertyOp31
 70
     1
102
RTVSPropertyOp32
 70
     1
102
RTVSPropertyOp33
 70
     1
102
RTVSPropertyOp34
 70
     1
102
RTVSPropertyOp35
 70
     1
102
RTVSPropertyOp36
 70
     1
102
RTVSPropertyOp37
 70
     1
102
RTVSPropertyOp38
 70
     1
102
RTVSPropertyOp39
 70
     1
102
RTVSPropertyOp40
 70
     1
102
RTVSPropertyOp41
 70
     1
102
RTVSPropertyOp42
 70
     1
102
RTVSPropertyOp43
 70
     1
102
RTVSPropertyOp44
 70
     1
102
RTVSPropertyOp45
 70
     1
102
RTVSPropertyOp46
 70
     1
102
RTVSPropertyOp47
 70
     1
102
RTVSPropertyOp48
 70
     1
102
RTVSPropertyOp49
 70
     1
102
RTVSPropertyOp50
 70
     1
102
RTVSPropertyOp51
 70
     0
102
RTVSPropertyOp52
 70
     0
102
RTVSPropertyOp53
 70
     1
102
RTVSPropertyOp54
 70
     1
102
RTVSPropertyOp55
 70
     1
102
RTVSPropertyOp56
 70
     1
102
RTVSPropertyOp57
 70
     1
102
RTVSPropertyOp58
 70
     1
102
RTVSPropertyOp59
 70
     1
102
RTVSPropertyOp60
 70
     1
102
RTVSPropertyOp61
 70
     1
102
RTVSPropertyOp62
 70
     1
  0
XRECORD
  5
640
102
{ACAD_REACTORS
330
63F
102
}
330
63F
100
AcDbXrecord
280
     1
102
RTVSPost2010Prop28
280
     0
102
RTVSPost2010PropOp28
 70
     1
102
RTVSPost2010Prop29
280
     1
102
RTVSPost2010PropOp29
 70
     1
102
RTVSPost2010Prop30
280
     1
102
RTVSPost2010PropOp30
 70
     1
102
RTVSPost2010Prop31
280
     0
102
RTVSPost2010PropOp31
 70
     1
102
RTVSPost2010Prop32
280
     0
102
RTVSPost2010PropOp32
 70
     1
102
RTVSPost2010Prop33
280
     0
102
RTVSPost2010PropOp33
 70
     1
102
RTVSPost2010Prop34
280
     0
102
RTVSPost2010PropOp34
 70
     1
102
RTVSPost2010Prop35
280
     0
102
RTVSPost2010PropOp35
 70
     1
102
RTVSPost2010Prop36
280
     0
102
RTVSPost2010PropOp36
 70
     1
102
RTVSPost2010Prop37
 90
       50
102
RTVSPost2010PropOp37
 70
     1
102
RTVSPost2010Prop38
140
0.0
102
RTVSPost2010PropOp38
 70
     1
102
RTVSPost2010Prop39
140
1.0
102
RTVSPost2010PropOp39
 70
     1
102
RTVSPost2010Prop40
 90
        0
102
RTVSPost2010PropOp40
 70
     1
102
RTVSPost2010Prop41ColorIndex
 90
       18
102
RTVSPost2010Prop41ColorRGB
 90
        0
102
RTVSPost2010PropOp41
 70
     1
102
RTVSPost2010Prop42
 90
       50
102
RTVSPost2010PropOp42
 70
     1
102
RTVSPost2010Prop43
 90
        3
102
RTVSPost2010PropOp43
 70
     1
102
RTVSPost2010Prop44ColorIndex
 90
        5
102
RTVSPost2010Prop44ColorRGB
 90
      255
102
RTVSPost2010PropOp44
 70
     1
102
RTVSPost2010Prop45
280
     0
102
RTVSPost2010PropOp45
 70
     1
102
RTVSPost2010Prop46
 90
       50
102
RTVSPost2010PropOp46
 70
     1
102
RTVSPost2010Prop47
 90
       50
102
RTVSPost2010PropOp47
 70
     1
102
RTVSPost2010Prop48
 90
       50
102
RTVSPost2010PropOp48
 70
     1
102
RTVSPost2010Prop49
280
     0
102
RTVSPost2010PropOp49
 70
     1
102
RTVSPost2010Prop50
 90
       50
102
RTVSPost2010PropOp50
 70
     1
102
RTVSPost2010Prop51ColorIndex
 90
      256
102
RTVSPost2010Prop51ColorRGB
 90
-16777216
102
RTVSPost2010PropOp51
 70
     0
102
RTVSPost2010Prop52
140
1.0
102
RTVSPost2010PropOp52
 70
     0
102
RTVSPost2010Prop53
 90
        2
102
RTVSPost2010PropOp53
 70
     1
102
RTVSPost2010Prop54
  1
strokes_ogs.tif
102
RTVSPost2010PropOp54
 70
     1
102
RTVSPost2010Prop55
280
     0
102
RTVSPost2010PropOp55
 70
     1
102
RTVSPost2010Prop56
140
1.0
102
RTVSPost2010PropOp56
 70
     1
102
RTVSPost2010Prop57
140
1.0
102
RTVSPost2010PropOp57
 70
     1
102
RTVSPropertyOp0
 70
     1
102
RTVSPropertyOp1
 70
     1
102
RTVSPropertyOp2
 70
     1
102
RTVSPropertyOp3
 70
     1
102
RTVSPropertyOp4
 70
     1
102
RTVSPropertyOp5
 70
     1
102
RTVSPropertyOp6
 70
     1
102
RTVSPropertyOp7
 70
     1
102
RTVSPropertyOp8
 70
     1
102
RTVSPropertyOp9
 70
     1
102
RTVSPropertyOp10
 70
     1
102
RTVSPropertyOp11
 70
     1
102
RTVSPropertyOp12
 70
     1
102
RTVSPropertyOp13
 70
     1
102
RTVSPropertyOp14
 70
     1
102
RTVSPropertyOp15
 70
     1
102
RTVSPropertyOp16
 70
     1
102
RTVSPropertyOp17
 70
     1
102
RTVSPropertyOp18
 70
     1
102
RTVSPropertyOp19
 70
     1
102
RTVSPropertyOp20
 70
     1
102
RTVSPropertyOp21
 70
     1
102
RTVSPropertyOp22
 70
     1
102
RTVSPropertyOp23
 70
     1
102
RTVSPropertyOp24
 70
     1
102
RTVSPropertyOp25
 70
     1
102
RTVSPropertyOp26
 70
     1
102
RTVSPropertyOp27
 70
     1
102
RTVSPropertyOp28
 70
     1
102
RTVSPropertyOp29
 70
     1
102
RTVSPropertyOp30
 70
     1
102
RTVSPropertyOp31
 70
     1
102
RTVSPropertyOp32
 70
     1
102
RTVSPropertyOp33
 70
     1
102
RTVSPropertyOp34
 70
     1
102
RTVSPropertyOp35
 70
     1
102
RTVSPropertyOp36
 70
     1
102
RTVSPropertyOp37
 70
     1
102
RTVSPropertyOp38
 70
     1
102
RTVSPropertyOp39
 70
     1
102
RTVSPropertyOp40
 70
     1
102
RTVSPropertyOp41
 70
     1
102
RTVSPropertyOp42
 70
     1
102
RTVSPropertyOp43
 70
     1
102
RTVSPropertyOp44
 70
     1
102
RTVSPropertyOp45
 70
     1
102
RTVSPropertyOp46
 70
     1
102
RTVSPropertyOp47
 70
     1
102
RTVSPropertyOp48
 70
     1
102
RTVSPropertyOp49
 70
     1
102
RTVSPropertyOp50
 70
     1
102
RTVSPropertyOp51
 70
     0
102
RTVSPropertyOp52
 70
     0
102
RTVSPropertyOp53
 70
     1
102
RTVSPropertyOp54
 70
     1
102
RTVSPropertyOp55
 70
     1
102
RTVSPropertyOp56
 70
     1
102
RTVSPropertyOp57
 70
     1
102
RTVSPropertyOp58
 70
     1
102
RTVSPropertyOp59
 70
     1
102
RTVSPropertyOp60
 70
     1
102
RTVSPropertyOp61
 70
     1
102
RTVSPropertyOp62
 70
     1
  0
XRECORD
  5
658
102
{ACAD_REACTORS
330
657
102
}
330
657
100
AcDbXrecord
280
     1
102
RTVSPost2010Prop28
280
     0
102
RTVSPost2010PropOp28
 70
     1
102
RTVSPost2010Prop29
280
     1
102
RTVSPost2010PropOp29
 70
     1
102
RTVSPost2010Prop30
280
     1
102
RTVSPost2010PropOp30
 70
     1
102
RTVSPost2010Prop31
280
     0
102
RTVSPost2010PropOp31
 70
     1
102
RTVSPost2010Prop32
280
     0
102
RTVSPost2010PropOp32
 70
     1
102
RTVSPost2010Prop33
280
     0
102
RTVSPost2010PropOp33
 70
     1
102
RTVSPost2010Prop34
280
     0
102
RTVSPost2010PropOp34
 70
     1
102
RTVSPost2010Prop35
280
     0
102
RTVSPost2010PropOp35
 70
     1
102
RTVSPost2010Prop36
280
     0
102
RTVSPost2010PropOp36
 70
     1
102
RTVSPost2010Prop37
 90
       50
102
RTVSPost2010PropOp37
 70
     1
102
RTVSPost2010Prop38
140
0.0
102
RTVSPost2010PropOp38
 70
     1
102
RTVSPost2010Prop39
140
1.0
102
RTVSPost2010PropOp39
 70
     1
102
RTVSPost2010Prop40
 90
        0
102
RTVSPost2010PropOp40
 70
     1
102
RTVSPost2010Prop41ColorIndex
 90
       18
102
RTVSPost2010Prop41ColorRGB
 90
        0
102
RTVSPost2010PropOp41
 70
     1
102
RTVSPost2010Prop42
 90
       50
102
RTVSPost2010PropOp42
 70
     1
102
RTVSPost2010Prop43
 90
        3
102
RTVSPost2010PropOp43
 70
     1
102
RTVSPost2010Prop44ColorIndex
 90
        5
102
RTVSPost2010Prop44ColorRGB
 90
      255
102
RTVSPost2010PropOp44
 70
     1
102
RTVSPost2010Prop45
280
     0
102
RTVSPost2010PropOp45
 70
     1
102
RTVSPost2010Prop46
 90
       50
102
RTVSPost2010PropOp46
 70
     1
102
RTVSPost2010Prop47
 90
       50
102
RTVSPost2010PropOp47
 70
     1
102
RTVSPost2010Prop48
 90
       50
102
RTVSPost2010PropOp48
 70
     1
102
RTVSPost2010Prop49
280
     0
102
RTVSPost2010PropOp49
 70
     1
102
RTVSPost2010Prop50
 90
       50
102
RTVSPost2010PropOp50
 70
     1
102
RTVSPost2010Prop51ColorIndex
 90
      256
102
RTVSPost2010Prop51ColorRGB
 90
-16777216
102
RTVSPost2010PropOp51
 70
     0
102
RTVSPost2010Prop52
140
1.0
102
RTVSPost2010PropOp52
 70
     0
102
RTVSPost2010Prop53
 90
        2
102
RTVSPost2010PropOp53
 70
     1
102
RTVSPost2010Prop54
  1
strokes_ogs.tif
102
RTVSPost2010PropOp54
 70
     1
102
RTVSPost2010Prop55
280
     0
102
RTVSPost2010PropOp55
 70
     1
102
RTVSPost2010Prop56
140
1.0
102
RTVSPost2010PropOp56
 70
     1
102
RTVSPost2010Prop57
140
1.0
102
RTVSPost2010PropOp57
 70
     1
102
RTVSPropertyOp0
 70
     1
102
RTVSPropertyOp1
 70
     1
102
RTVSPropertyOp2
 70
     1
102
RTVSPropertyOp3
 70
     1
102
RTVSPropertyOp4
 70
     1
102
RTVSPropertyOp5
 70
     1
102
RTVSPropertyOp6
 70
     1
102
RTVSPropertyOp7
 70
     1
102
RTVSPropertyOp8
 70
     1
102
RTVSPropertyOp9
 70
     1
102
RTVSPropertyOp10
 70
     1
102
RTVSPropertyOp11
 70
     1
102
RTVSPropertyOp12
 70
     1
102
RTVSPropertyOp13
 70
     1
102
RTVSPropertyOp14
 70
     1
102
RTVSPropertyOp15
 70
     1
102
RTVSPropertyOp16
 70
     1
102
RTVSPropertyOp17
 70
     1
102
RTVSPropertyOp18
 70
     1
102
RTVSPropertyOp19
 70
     1
102
RTVSPropertyOp20
 70
     1
102
RTVSPropertyOp21
 70
     1
102
RTVSPropertyOp22
 70
     1
102
RTVSPropertyOp23
 70
     1
102
RTVSPropertyOp24
 70
     1
102
RTVSPropertyOp25
 70
     1
102
RTVSPropertyOp26
 70
     1
102
RTVSPropertyOp27
 70
     1
102
RTVSPropertyOp28
 70
     1
102
RTVSPropertyOp29
 70
     1
102
RTVSPropertyOp30
 70
     1
102
RTVSPropertyOp31
 70
     1
102
RTVSPropertyOp32
 70
     1
102
RTVSPropertyOp33
 70
     1
102
RTVSPropertyOp34
 70
     1
102
RTVSPropertyOp35
 70
     1
102
RTVSPropertyOp36
 70
     1
102
RTVSPropertyOp37
 70
     1
102
RTVSPropertyOp38
 70
     1
102
RTVSPropertyOp39
 70
     1
102
RTVSPropertyOp40
 70
     1
102
RTVSPropertyOp41
 70
     1
102
RTVSPropertyOp42
 70
     1
102
RTVSPropertyOp43
 70
     1
102
RTVSPropertyOp44
 70
     1
102
RTVSPropertyOp45
 70
     1
102
RTVSPropertyOp46
 70
     1
102
RTVSPropertyOp47
 70
     1
102
RTVSPropertyOp48
 70
     1
102
RTVSPropertyOp49
 70
     1
102
RTVSPropertyOp50
 70
     1
102
RTVSPropertyOp51
 70
     0
102
RTVSPropertyOp52
 70
     0
102
RTVSPropertyOp53
 70
     1
102
RTVSPropertyOp54
 70
     1
102
RTVSPropertyOp55
 70
     1
102
RTVSPropertyOp56
 70
     1
102
RTVSPropertyOp57
 70
     1
102
RTVSPropertyOp58
 70
     1
102
RTVSPropertyOp59
 70
     1
102
RTVSPropertyOp60
 70
     1
102
RTVSPropertyOp61
 70
     1
102
RTVSPropertyOp62
 70
     1
  0
ENDSEC
  0
EOF
