  0
SECTION
  2
HEADER
  9
$ACADVER
  1
AC1015
  9
$ACADMAINTVER
 70
    20
  9
$DWGCODEPAGE
  3
ANSI_932
  9
$INSBASE
 10
0.0
 20
0.0
 30
0.0
  9
$EXTMIN
 10
10.0
 20
9.999999999999998
 30
0.0
  9
$EXTMAX
 10
864.4026740000001
 20
784.849816
 30
0.0
  9
$LIMMIN
 10
0.0
 20
0.0
  9
$LIMMAX
 10
1227.6
 20
846.2999999999999
  9
$ORTHOMODE
 70
     1
  9
$REGENMODE
 70
     1
  9
$FILLMODE
 70
     1
  9
$QTEXTMODE
 70
     0
  9
$MIRRTEXT
 70
     1
  9
$LTSCALE
 40
20.0
  9
$ATTMODE
 70
     1
  9
$TEXTSIZE
 40
5.0
  9
$TRACEWID
 40
1.0
  9
$TEXTSTYLE
  7
STANDARD
  9
$CLAYER
  8
0
  9
$CELTYPE
  6
BYLAYER
  9
$CECOLOR
 62
   256
  9
$CELTSCALE
 40
1.0
  9
$DISPSILH
 70
     0
  9
$DIMSCALE
 40
1.0
  9
$DIMASZ
 40
3.0
  9
$DIMEXO
 40
1.0
  9
$DIMDLI
 40
10.0
  9
$DIMRND
 40
0.0
  9
$DIMDLE
 40
0.0
  9
$DIMEXE
 40
1.0
  9
$DIMTP
 40
0.0
  9
$DIMTM
 40
0.0
  9
$DIMTXT
 40
2.5
  9
$DIMCEN
 40
0.0
  9
$DIMTSZ
 40
0.0
  9
$DIMTOL
 70
     0
  9
$DIMLIM
 70
     0
  9
$DIMTIH
 70
     0
  9
$DIMTOH
 70
     0
  9
$DIMSE1
 70
     0
  9
$DIMSE2
 70
     0
  9
$DIMTAD
 70
     3
  9
$DIMZIN
 70
     8
  9
$DIMBLK
  1

  9
$DIMASO
 70
     1
  9
$DIMSHO
 70
     1
  9
$DIMPOST
  1

  9
$DIMAPOST
  1

  9
$DIMALT
 70
     0
  9
$DIMALTD
 70
     2
  9
$DIMALTF
 40
25.4
  9
$DIMLFAC
 40
1.0
  9
$DIMTOFL
 70
     1
  9
$DIMTVP
 40
0.0
  9
$DIMTIX
 70
     0
  9
$DIMSOXD
 70
     0
  9
$DIMSAH
 70
     1
  9
$DIMBLK1
  1

  9
$DIMBLK2
  1

  9
$DIMSTYLE
  2
STANDARD
  9
$DIMCLRD
 70
     0
  9
$DIMCLRE
 70
     0
  9
$DIMCLRT
 70
     0
  9
$DIMTFAC
 40
1.0
  9
$DIMGAP
 40
1.0
  9
$DIMJUST
 70
     0
  9
$DIMSD1
 70
     0
  9
$DIMSD2
 70
     0
  9
$DIMTOLJ
 70
     1
  9
$DIMTZIN
 70
     0
  9
$DIMALTZ
 70
     0
  9
$DIMALTTZ
 70
     0
  9
$DIMUPT
 70
     0
  9
$DIMDEC
 70
     4
  9
$DIMTDEC
 70
     4
  9
$DIMALTU
 70
     2
  9
$DIMALTTD
 70
     2
  9
$DIMTXSTY
  7
STANDARD
  9
$DIMAUNIT
 70
     0
  9
$DIMADEC
 70
     0
  9
$DIMALTRND
 40
0.0
  9
$DIMAZIN
 70
     0
  9
$DIMDSEP
 70
    46
  9
$DIMATFIT
 70
     3
  9
$DIMFRAC
 70
     0
  9
$DIMLDRBLK
  1

  9
$DIMLUNIT
 70
     2
  9
$DIMLWD
 70
    -2
  9
$DIMLWE
 70
    -2
  9
$DIMTMOVE
 70
     0
  9
$LUNITS
 70
     2
  9
$LUPREC
 70
     4
  9
$SKETCHINC
 40
1.0
  9
$FILLETRAD
 40
0.0
  9
$AUNITS
 70
     0
  9
$AUPREC
 70
     2
  9
$MENU
  1
.
  9
$ELEVATION
 40
0.0
  9
$PELEVATION
 40
0.0
  9
$THICKNESS
 40
0.0
  9
$LIMCHECK
 70
     0
  9
$CHAMFERA
 40
10.0
  9
$CHAMFERB
 40
10.0
  9
$CHAMFERC
 40
0.0
  9
$CHAMFERD
 40
0.0
  9
$SKPOLY
 70
     0
  9
$TDCREATE
 40
2451233.439203588
  9
$TDUCREATE
 40
2451233.064203588
  9
$TDUPDATE
 40
2457192.665719375
  9
$TDUUPDATE
 40
2457192.290719375
  9
$TDINDWG
 40
0.0000129977
  9
$TDUSRTIMER
 40
0.0000128588
  9
$USRTIMER
 70
     1
  9
$ANGBASE
 50
0.0
  9
$ANGDIR
 70
     0
  9
$PDMODE
 70
     0
  9
$PDSIZE
 40
0.0
  9
$PLINEWID
 40
0.0
  9
$SPLFRAME
 70
     0
  9
$SPLINETYPE
 70
     6
  9
$SPLINESEGS
 70
     8
  9
$HANDSEED
  5
13288
  9
$SURFTAB1
 70
     6
  9
$SURFTAB2
 70
     6
  9
$SURFTYPE
 70
     6
  9
$SURFU
 70
     6
  9
$SURFV
 70
     6
  9
$UCSBASE
  2

  9
$UCSNAME
  2

  9
$UCSORG
 10
0.0
 20
0.0
 30
0.0
  9
$UCSXDIR
 10
1.0
 20
0.0
 30
0.0
  9
$UCSYDIR
 10
0.0
 20
1.0
 30
0.0
  9
$UCSORTHOREF
  2

  9
$UCSORTHOVIEW
 70
     0
  9
$UCSORGTOP
 10
0.0
 20
0.0
 30
0.0
  9
$UCSORGBOTTOM
 10
0.0
 20
0.0
 30
0.0
  9
$UCSORGLEFT
 10
0.0
 20
0.0
 30
0.0
  9
$UCSORGRIGHT
 10
0.0
 20
0.0
 30
0.0
  9
$UCSORGFRONT
 10
0.0
 20
0.0
 30
0.0
  9
$UCSORGBACK
 10
0.0
 20
0.0
 30
0.0
  9
$PUCSBASE
  2

  9
$PUCSNAME
  2

  9
$PUCSORG
 10
0.0
 20
0.0
 30
0.0
  9
$PUCSXDIR
 10
1.0
 20
0.0
 30
0.0
  9
$PUCSYDIR
 10
0.0
 20
1.0
 30
0.0
  9
$PUCSORTHOREF
  2

  9
$PUCSORTHOVIEW
 70
     0
  9
$PUCSORGTOP
 10
0.0
 20
0.0
 30
0.0
  9
$PUCSORGBOTTOM
 10
0.0
 20
0.0
 30
0.0
  9
$PUCSORGLEFT
 10
0.0
 20
0.0
 30
0.0
  9
$PUCSORGRIGHT
 10
0.0
 20
0.0
 30
0.0
  9
$PUCSORGFRONT
 10
0.0
 20
0.0
 30
0.0
  9
$PUCSORGBACK
 10
0.0
 20
0.0
 30
0.0
  9
$USERI1
 70
     0
  9
$USERI2
 70
     0
  9
$USERI3
 70
     0
  9
$USERI4
 70
     0
  9
$USERI5
 70
     0
  9
$USERR1
 40
0.0
  9
$USERR2
 40
0.0
  9
$USERR3
 40
0.0
  9
$USERR4
 40
0.0
  9
$USERR5
 40
0.0
  9
$WORLDVIEW
 70
     1
  9
$SHADEDGE
 70
     3
  9
$SHADEDIF
 70
    70
  9
$TILEMODE
 70
     1
  9
$MAXACTVP
 70
    16
  9
$PINSBASE
 10
0.0
 20
0.0
 30
0.0
  9
$PLIMCHECK
 70
     0
  9
$PEXTMIN
 10
1.000000000000000E+20
 20
1.000000000000000E+20
 30
1.000000000000000E+20
  9
$PEXTMAX
 10
-1.000000000000000E+20
 20
-1.000000000000000E+20
 30
-1.000000000000000E+20
  9
$PLIMMIN
 10
0.0
 20
0.0
  9
$PLIMMAX
 10
420.0
 20
297.0
  9
$UNITMODE
 70
     0
  9
$VISRETAIN
 70
     0
  9
$PLINEGEN
 70
     0
  9
$PSLTSCALE
 70
     0
  9
$TREEDEPTH
 70
  3020
  9
$CMLSTYLE
  2
STANDARD
  9
$CMLJUST
 70
     0
  9
$CMLSCALE
 40
1.0
  9
$PROXYGRAPHICS
 70
     1
  9
$MEASUREMENT
 70
     0
  9
$CELWEIGHT
370
    -1
  9
$ENDCAPS
280
     0
  9
$JOINSTYLE
280
     0
  9
$LWDISPLAY
290
     0
  9
$INSUNITS
 70
     0
  9
$HYPERLINKBASE
  1

  9
$STYLESHEET
  1

  9
$XEDIT
290
     1
  9
$CEPSNTYPE
380
     0
  9
$PSTYLEMODE
290
     1
  9
$FINGERPRINTGUID
  2
{C7D7D426-2A7C-4CF0-9FB2-ADEF4A112275}
  9
$VERSIONGUID
  2
{43E6E194-E720-4612-AF11-1218EAB732D4}
  9
$EXTNAMES
290
     1
  9
$PSVPSCALE
 40
0.0
  9
$OLESTARTUP
290
     0
  0
ENDSEC
  0
SECTION
  2
CLASSES
  0
CLASS
  1
ACDBDICTIONARYWDFLT
  2
AcDbDictionaryWithDefault
  3
ObjectDBX Classes
 90
        0
280
     0
281
     0
  0
CLASS
  1
ACDBPLACEHOLDER
  2
AcDbPlaceHolder
  3
ObjectDBX Classes
 90
        0
280
     0
281
     0
  0
CLASS
  1
LAYOUT
  2
AcDbLayout
  3
ObjectDBX Classes
 90
        0
280
     0
281
     0
  0
CLASS
  1
DICTIONARYVAR
  2
AcDbDictionaryVar
  3
ObjectDBX Classes
 90
        0
280
     0
281
     0
  0
CLASS
  1
MATERIAL
  2
AcDbMaterial
  3
ObjectDBX Classes
 90
     1153
280
     0
281
     0
  0
CLASS
  1
VISUALSTYLE
  2
AcDbVisualStyle
  3
ObjectDBX Classes
 90
     4095
280
     0
281
     0
  0
CLASS
  1
TABLESTYLE
  2
AcDbTableStyle
  3
ObjectDBX Classes
 90
     4095
280
     0
281
     0
  0
CLASS
  1
SCALE
  2
AcDbScale
  3
ObjectDBX Classes
 90
     1153
280
     0
281
     0
  0
CLASS
  1
MLEADERSTYLE
  2
AcDbMLeaderStyle
  3
ACDB_MLEADERSTYLE_CLASS
 90
     4095
280
     0
281
     0
  0
CLASS
  1
ACDBSECTIONVIEWSTYLE
  2
AcDbSectionViewStyle
  3
ObjectDBX Classes
 90
     1025
280
     0
281
     0
  0
CLASS
  1
ACDBDETAILVIEWSTYLE
  2
AcDbDetailViewStyle
  3
ObjectDBX Classes
 90
     1025
280
     0
281
     0
  0
CLASS
  1
CELLSTYLEMAP
  2
AcDbCellStyleMap
  3
ObjectDBX Classes
 90
     1152
280
     0
281
     0
  0
ENDSEC
  0
SECTION
  2
TABLES
  0
TABLE
  2
VPORT
  5
12E60
330
0
100
AcDbSymbolTable
 70
     1
  0
VPORT
  5
131D1
330
12E60
100
AcDbSymbolTableRecord
100
AcDbViewportTableRecord
  2
*ACTIVE
 70
     0
 10
0.0
 20
0.0
 11
1.0
 21
1.0
 12
671.9027644132558
 22
397.4198269221811
 13
0.0
 23
0.0
 14
10.0
 24
10.0
 15
10.0
 25
10.0
 16
0.0
 26
0.0
 36
1.0
 17
0.0
 27
0.0
 37
0.0
 40
783.5418881585337
 41
1.899603698811096
 42
50.0
 43
0.0
 44
0.0
 50
0.0
 51
0.0
 71
     0
 72
   100
 73
     1
 74
     0
 75
     0
 76
     0
 77
     0
 78
     0
281
     0
 65
     1
110
0.0
120
0.0
130
0.0
111
1.0
121
0.0
131
0.0
112
0.0
122
1.0
132
0.0
 79
     0
146
0.0
1001
ACAD_NAV_VCDISPLAY
1070
     3
  0
ENDTAB
  0
TABLE
  2
LTYPE
  5
12E5D
330
0
100
AcDbSymbolTable
 70
     4
  0
LTYPE
  5
12E6B
330
12E5D
100
AcDbSymbolTableRecord
100
AcDbLinetypeTableRecord
  2
BYBLOCK
 70
     0
  3

 72
    65
 73
     0
 40
0.0
  0
LTYPE
  5
12E6C
330
12E5D
100
AcDbSymbolTableRecord
100
AcDbLinetypeTableRecord
  2
BYLAYER
 70
     0
  3

 72
    65
 73
     0
 40
0.0
  0
LTYPE
  5
12E6D
330
12E5D
100
AcDbSymbolTableRecord
100
AcDbLinetypeTableRecord
  2
CONTINUOUS
 70
     0
  3
Solid line
 72
    65
 73
     0
 40
0.0
  0
LTYPE
  5
12E7B
330
12E5D
100
AcDbSymbolTableRecord
100
AcDbLinetypeTableRecord
  2
DASHED
 70
     0
  3
__ __ __ __ __ __ __ __ __ __ __ __ __ __ __ __
 72
    65
 73
     2
 40
0.75
 49
0.5
 74
     0
 49
-0.25
 74
     0
  0
LTYPE
  5
12E7C
330
12E5D
100
AcDbSymbolTableRecord
100
AcDbLinetypeTableRecord
  2
CENTER
 70
     0
  3
____ _ ____ _ ____ _ ____ _ ____ _ ____ _ ____ 
 72
    65
 73
     4
 40
2.0
 49
1.25
 74
     0
 49
-0.25
 74
     0
 49
0.25
 74
     0
 49
-0.25
 74
     0
  0
LTYPE
  5
12E7D
330
12E5D
100
AcDbSymbolTableRecord
100
AcDbLinetypeTableRecord
  2
PHANTOM
 70
     0
  3
______  __  __  ______  __  __  ______  __  __ 
 72
    65
 73
     6
 40
2.5
 49
1.25
 74
     0
 49
-0.25
 74
     0
 49
0.25
 74
     0
 49
-0.25
 74
     0
 49
0.25
 74
     0
 49
-0.25
 74
     0
  0
ENDTAB
  0
TABLE
  2
LAYER
  5
12E5A
330
0
100
AcDbSymbolTable
 70
     8
  0
LAYER
  5
12E68
102
{ACAD_XDICTIONARY
360
1322C
102
}
330
12E5A
100
AcDbSymbolTableRecord
100
AcDbLayerTableRecord
  2
0
 70
     0
 62
     7
  6
CONTINUOUS
370
    -3
390
131DA
  0
LAYER
  5
12E7E
102
{ACAD_XDICTIONARY
360
1322E
102
}
330
12E5A
100
AcDbSymbolTableRecord
100
AcDbLayerTableRecord
  2
4
 70
     0
 62
     1
  6
CENTER
370
    -3
390
131DA
  0
LAYER
  5
12E7F
102
{ACAD_XDICTIONARY
360
13230
102
}
330
12E5A
100
AcDbSymbolTableRecord
100
AcDbLayerTableRecord
  2
5
 70
     0
 62
     6
  6
PHANTOM
370
    -3
390
131DA
  0
LAYER
  5
12E80
102
{ACAD_XDICTIONARY
360
13232
102
}
330
12E5A
100
AcDbSymbolTableRecord
100
AcDbLayerTableRecord
  2
1
 70
     0
 62
     7
  6
CONTINUOUS
370
    -3
390
131DA
  0
LAYER
  5
12E81
102
{ACAD_XDICTIONARY
360
13234
102
}
330
12E5A
100
AcDbSymbolTableRecord
100
AcDbLayerTableRecord
  2
2
 70
     0
 62
     4
  6
CONTINUOUS
370
    -3
390
131DA
  0
LAYER
  5
12E82
102
{ACAD_XDICTIONARY
360
13236
102
}
330
12E5A
100
AcDbSymbolTableRecord
100
AcDbLayerTableRecord
  2
3
 70
     0
 62
     2
  6
DASHED
370
    -3
390
131DA
  0
LAYER
  5
12E83
102
{ACAD_XDICTIONARY
360
13238
102
}
330
12E5A
100
AcDbSymbolTableRecord
100
AcDbLayerTableRecord
  2
6
 70
     0
 62
     5
  6
CONTINUOUS
370
    -3
390
131DA
  0
LAYER
  5
12E84
102
{ACAD_XDICTIONARY
360
1323A
102
}
330
12E5A
100
AcDbSymbolTableRecord
100
AcDbLayerTableRecord
  2
7
 70
     0
 62
     3
  6
CONTINUOUS
370
    -3
390
131DA
  0
ENDTAB
  0
TABLE
  2
STYLE
  5
12E5B
330
0
100
AcDbSymbolTable
 70
     1
  0
STYLE
  5
12E69
330
12E5B
100
AcDbSymbolTableRecord
100
AcDbTextStyleTableRecord
  2
STANDARD
 70
     0
 40
0.0
 41
1.0
 50
0.0
 71
     0
 42
5.0
  3
txt
  4

  0
ENDTAB
  0
TABLE
  2
VIEW
  5
12E5E
330
0
100
AcDbSymbolTable
 70
     0
  0
ENDTAB
  0
TABLE
  2
UCS
  5
12E5F
330
0
100
AcDbSymbolTable
 70
     0
  0
ENDTAB
  0
TABLE
  2
APPID
  5
12E61
330
0
100
AcDbSymbolTable
 70
     3
  0
APPID
  5
12E6A
330
12E61
100
AcDbSymbolTableRecord
100
AcDbRegAppTableRecord
  2
ACAD
 70
     0
  0
APPID
  5
13246
330
12E61
100
AcDbSymbolTableRecord
100
AcDbRegAppTableRecord
  2
ACAD_NAV_VCDISPLAY
 70
     0
  0
APPID
  5
1327F
330
12E61
100
AcDbSymbolTableRecord
100
AcDbRegAppTableRecord
  2
ACAD_MLEADERVER
 70
     0
  0
ENDTAB
  0
TABLE
  2
DIMSTYLE
  5
12E62
330
0
100
AcDbSymbolTable
 70
     1
100
AcDbDimStyleTable
 71
     0
  0
DIMSTYLE
105
12E86
330
12E62
100
AcDbSymbolTableRecord
100
AcDbDimStyleTableRecord
  2
STANDARD
 70
     0
 41
3.0
 42
1.0
 43
10.0
 44
1.0
 73
     0
 74
     0
 77
     3
 78
     8
140
2.5
141
0.0
147
1.0
172
     1
173
     1
284
     8
285
     8
286
     8
340
12E69
  0
ENDTAB
  0
TABLE
  2
BLOCK_RECORD
  5
12E59
330
0
100
AcDbSymbolTable
 70
     0
  0
BLOCK_RECORD
  5
12E76
102
{ACAD_XDICTIONARY
360
131D4
102
}
330
12E59
100
AcDbSymbolTableRecord
100
AcDbBlockTableRecord
  2
*MODEL_SPACE
340
13228
  0
BLOCK_RECORD
  5
12E72
102
{ACAD_XDICTIONARY
360
131D2
102
}
330
12E59
100
AcDbSymbolTableRecord
100
AcDbBlockTableRecord
  2
*PAPER_SPACE
340
13229
  0
ENDTAB
  0
ENDSEC
  0
SECTION
  2
BLOCKS
  0
BLOCK
  5
12E77
330
12E76
100
AcDbEntity
  8
0
100
AcDbBlockBegin
  2
*MODEL_SPACE
 70
     0
 10
0.0
 20
0.0
 30
0.0
  3
*MODEL_SPACE
  1

  0
ENDBLK
  5
12E78
330
12E76
100
AcDbEntity
  8
0
100
AcDbBlockEnd
  0
BLOCK
  5
12E73
330
12E72
100
AcDbEntity
 67
     1
  8
0
100
AcDbBlockBegin
  2
*PAPER_SPACE
 70
     0
 10
0.0
 20
0.0
 30
0.0
  3
*PAPER_SPACE
  1

  0
ENDBLK
  5
12E74
330
12E72
100
AcDbEntity
 67
     1
  8
0
100
AcDbBlockEnd
  0
ENDSEC
  0
SECTION
  2
ENTITIES
  0
TEXT
  5
12E8E
330
12E76
100
AcDbEntity
  8
7
  6
Continuous
100
AcDbText
 10
10.0
 20
18.0
 30
0.0
 40
3.0
  1
TYPE No.TM-95-1
100
AcDbText
  0
TEXT
  5
12E8F
330
12E76
100
AcDbEntity
  8
7
  6
Continuous
100
AcDbText
 10
10.0
 20
26.0
 30
0.0
 40
3.0
  1
CODE No.5274
100
AcDbText
  0
TEXT
  5
12E90
330
12E76
100
AcDbEntity
  8
1
  6
Continuous
100
AcDbText
 10
10.0
 20
10.0
 30
0.0
 40
1.399999999999999
  1
LAYER
100
AcDbText
  0
TEXT
  5
12E91
330
12E76
100
AcDbEntity
  8
1
  6
Continuous
100
AcDbText
 10
17.97951099999998
 20
10.04873699999998
 30
0.0
 40
1.399999999999999
  1
1
100
AcDbText
  0
TEXT
  5
12E92
330
12E76
100
AcDbEntity
  8
7
  6
Continuous
100
AcDbText
 10
29.97951099999999
 20
10.04873699999998
 30
0.0
 40
1.399999999999999
  1
7
100
AcDbText
  0
TEXT
  5
12E93
330
12E76
100
AcDbEntity
  8
4
  6
CENTER
100
AcDbText
 10
23.97951099999999
 20
10.04873699999998
 30
0.0
 40
1.399999999999999
  1
4
100
AcDbText
  0
TEXT
  5
12E94
330
12E76
100
AcDbEntity
  8
3
  6
DASHED
100
AcDbText
 10
21.979511
 20
10.04873699999998
 30
0.0
 40
1.399999999999999
  1
3
100
AcDbText
  0
TEXT
  5
12E95
330
12E76
100
AcDbEntity
  8
2
  6
Continuous
100
AcDbText
 10
19.97951099999999
 20
10.04873699999998
 30
0.0
 40
1.399999999999999
  1
2
100
AcDbText
  0
TEXT
  5
12E96
330
12E76
100
AcDbEntity
  8
6
  6
Continuous
100
AcDbText
 10
27.979511
 20
10.04873699999998
 30
0.0
 40
1.399999999999999
  1
6
100
AcDbText
  0
TEXT
  5
12E97
330
12E76
100
AcDbEntity
  8
5
  6
PHANTOM
100
AcDbText
 10
25.97951099999999
 20
10.04873699999998
 30
0.0
 40
1.399999999999999
  1
5
100
AcDbText
  0
LINE
  5
12E98
330
12E76
100
AcDbEntity
  8
1
  6
Continuous
100
AcDbLine
 10
398.8820759999999
 20
554.849816
 30
0.0
 11
417.8820759999998
 21
554.849816
 31
0.0
  0
LINE
  5
12E99
330
12E76
100
AcDbEntity
  8
1
  6
Continuous
100
AcDbLine
 10
398.8820759999999
 20
577.849816
 30
0.0
 11
445.882076
 21
577.849816
 31
0.0
  0
LINE
  5
12E9A
330
12E76
100
AcDbEntity
  8
1
  6
Continuous
100
AcDbLine
 10
445.882076
 20
579.4498160000001
 30
0.0
 11
795.882076
 21
579.4498160000001
 31
0.0
  0
LINE
  5
12E9B
330
12E76
100
AcDbEntity
  8
1
  6
Continuous
100
AcDbLine
 10
417.8820759999998
 20
553.249816
 30
0.0
 11
795.882076
 21
553.249816
 31
0.0
  0
LINE
  5
12E9C
330
12E76
100
AcDbEntity
  8
1
  6
Continuous
100
AcDbLine
 10
795.882076
 20
553.249816
 30
0.0
 11
795.882076
 21
579.4498160000001
 31
0.0
  0
ARC
  5
12E9D
330
12E76
100
AcDbEntity
  8
1
  6
Continuous
100
AcDbCircle
 10
398.8820759999999
 20
574.849816
 30
0.0
 40
3.0
100
AcDbArc
 50
90.0
 51
180.0
  0
ARC
  5
12E9E
330
12E76
100
AcDbEntity
  8
1
  6
Continuous
100
AcDbCircle
 10
398.8820759999999
 20
557.849816
 30
0.0
 40
3.0
100
AcDbArc
 50
180.0
 51
270.0
  0
LINE
  5
12E9F
330
12E76
100
AcDbEntity
  8
1
  6
Continuous
100
AcDbLine
 10
417.8820759999998
 20
553.249816
 30
0.0
 11
417.8820759999998
 21
554.849816
 31
0.0
  0
LINE
  5
12EA0
330
12E76
100
AcDbEntity
  8
1
  6
Continuous
100
AcDbLine
 10
445.882076
 20
577.849816
 30
0.0
 11
445.882076
 21
579.4498160000001
 31
0.0
  0
LINE
  5
12EA1
330
12E76
100
AcDbEntity
  8
4
  6
CENTER
100
AcDbLine
 10
390.8820759999999
 20
566.349816
 30
0.0
 11
800.882076
 21
566.349816
 31
0.0
  0
ARC
  5
12EA2
330
12E76
100
AcDbEntity
  8
1
  6
Continuous
100
AcDbCircle
 10
406.8820759999998
 20
560.849816
 30
0.0
 40
11.0
100
AcDbArc
 50
210.751502
 51
326.944269
  0
LINE
  5
12EA3
330
12E76
100
AcDbEntity
  8
4
  6
CENTER
100
AcDbLine
 10
420.882076
 20
560.849816
 30
0.0
 11
392.8820759999999
 21
560.849816
 31
0.0
  0
LINE
  5
12EA4
330
12E76
100
AcDbEntity
  8
4
  6
CENTER
100
AcDbLine
 10
406.8820759999998
 20
574.849816
 30
0.0
 11
406.8820759999998
 21
546.849816
 31
0.0
  0
CIRCLE
  5
12EA5
330
12E76
100
AcDbEntity
  8
1
  6
Continuous
100
AcDbCircle
 10
415.882076
 20
566.349816
 30
0.0
 40
2.0
  0
ARC
  5
12EA6
330
12E76
100
AcDbEntity
  8
1
  6
Continuous
100
AcDbCircle
 10
406.8820759999998
 20
560.849816
 30
0.0
 40
11.0
100
AcDbArc
 50
21.052718
 51
41.806413
  0
LINE
  5
12EA7
330
12E76
100
AcDbEntity
  8
4
  6
CENTER
100
AcDbLine
 10
415.882076
 20
570.349816
 30
0.0
 11
415.882076
 21
562.349816
 31
0.0
  0
CIRCLE
  5
12EA8
330
12E76
100
AcDbEntity
  8
1
  6
Continuous
100
AcDbCircle
 10
406.8820759999998
 20
560.849816
 30
0.0
 40
3.649999999999999
  0
LINE
  5
12EA9
330
12E76
100
AcDbEntity
  8
4
  6
CENTER
100
AcDbLine
 10
427.882076
 20
560.349816
 30
0.0
 11
427.882076
 21
572.349816
 31
0.0
  0
CIRCLE
  5
12EAA
330
12E76
100
AcDbEntity
  8
1
  6
Continuous
100
AcDbCircle
 10
427.882076
 20
566.349816
 30
0.0
 40
3.0
  0
LINE
  5
12EAB
330
12E76
100
AcDbEntity
  8
4
  6
CENTER
100
AcDbLine
 10
545.882076
 20
560.349816
 30
0.0
 11
545.882076
 21
572.349816
 31
0.0
  0
CIRCLE
  5
12EAC
330
12E76
100
AcDbEntity
  8
1
  6
Continuous
100
AcDbCircle
 10
545.882076
 20
566.349816
 30
0.0
 40
3.0
  0
CIRCLE
  5
12EAD
330
12E76
100
AcDbEntity
  8
1
  6
Continuous
100
AcDbCircle
 10
663.8820759999997
 20
566.349816
 30
0.0
 40
3.0
  0
LINE
  5
12EAE
330
12E76
100
AcDbEntity
  8
4
  6
CENTER
100
AcDbLine
 10
663.8820759999997
 20
560.349816
 30
0.0
 11
663.8820759999997
 21
572.349816
 31
0.0
  0
LINE
  5
12EAF
330
12E76
100
AcDbEntity
  8
4
  6
CENTER
100
AcDbLine
 10
781.882076
 20
560.349816
 30
0.0
 11
781.882076
 21
572.349816
 31
0.0
  0
CIRCLE
  5
12EB0
330
12E76
100
AcDbEntity
  8
1
  6
Continuous
100
AcDbCircle
 10
781.882076
 20
566.349816
 30
0.0
 40
3.0
  0
LINE
  5
12EB1
330
12E76
100
AcDbEntity
  8
4
  6
CENTER
100
AcDbLine
 10
766.882076
 20
561.849816
 30
0.0
 11
766.882076
 21
570.849816
 31
0.0
  0
CIRCLE
  5
12EB2
330
12E76
100
AcDbEntity
  8
1
  6
Continuous
100
AcDbCircle
 10
766.882076
 20
566.349816
 30
0.0
 40
2.0
  0
LINE
  5
12EB3
330
12E76
100
AcDbEntity
  8
1
  6
Continuous
100
AcDbLine
 10
35.4
 20
579.4498160000001
 30
0.0
 11
29.0
 21
579.4498160000001
 31
0.0
  0
LINE
  5
12EB4
330
12E76
100
AcDbEntity
  8
1
  6
Continuous
100
AcDbLine
 10
37.0
 20
577.849816
 30
0.0
 11
29.0
 21
577.849816
 31
0.0
  0
LINE
  5
12EB5
330
12E76
100
AcDbEntity
  8
1
  6
Continuous
100
AcDbLine
 10
37.0
 20
577.849816
 30
0.0
 11
37.0
 21
554.849816
 31
0.0
  0
LINE
  5
12EB6
330
12E76
100
AcDbEntity
  8
1
  6
Continuous
100
AcDbLine
 10
37.0
 20
554.849816
 30
0.0
 11
34.39999999999999
 21
554.849816
 31
0.0
  0
LINE
  5
12EB7
330
12E76
100
AcDbEntity
  8
1
  6
Continuous
100
AcDbLine
 10
35.4
 20
553.249816
 30
0.0
 11
34.39999999999999
 21
553.249816
 31
0.0
  0
LINE
  5
12EB8
330
12E76
100
AcDbEntity
  8
1
  6
Continuous
100
AcDbLine
 10
29.0
 20
579.4498160000001
 30
0.0
 11
29.0
 21
577.849816
 31
0.0
  0
LINE
  5
12EB9
330
12E76
100
AcDbEntity
  8
1
  6
Continuous
100
AcDbLine
 10
35.4
 20
577.849816
 30
0.0
 11
35.4
 21
554.849816
 31
0.0
  0
ARC
  5
12EBA
330
12E76
100
AcDbEntity
  8
1
  6
Continuous
100
AcDbCircle
 10
35.4
 20
577.849816
 30
0.0
 40
1.6
100
AcDbArc
 50
0.0
 51
90.0
  0
ARC
  5
12EBB
330
12E76
100
AcDbEntity
  8
1
  6
Continuous
100
AcDbCircle
 10
35.4
 20
554.849816
 30
0.0
 40
1.6
100
AcDbArc
 50
270.0
 51
0.0
  0
LINE
  5
12EBC
330
12E76
100
AcDbEntity
  8
4
  6
CENTER
100
AcDbLine
 10
32.512867
 20
566.349816
 30
0.0
 11
39.43426999999999
 21
566.349816
 31
0.0
  0
LINE
  5
12EBD
330
12E76
100
AcDbEntity
  8
1
  6
Continuous
100
AcDbLine
 10
34.6
 20
576.349816
 30
0.0
 11
34.6
 21
565.599816
 31
0.0
  0
LINE
  5
12EBE
330
12E76
100
AcDbEntity
  8
1
  6
Continuous
100
AcDbLine
 10
27.6
 20
576.349816
 30
0.0
 11
27.6
 21
573.4498160000002
 31
0.0
  0
ARC
  5
12EBF
330
12E76
100
AcDbEntity
  8
1
  6
Continuous
100
AcDbCircle
 10
34.1
 20
555.349816
 30
0.0
 40
0.5
100
AcDbArc
 50
306.8698979999999
 51
0.0
  0
LINE
  5
12EC0
330
12E76
100
AcDbEntity
  8
1
  6
Continuous
100
AcDbLine
 10
26.6
 20
570.099816
 30
0.0
 11
26.6
 21
561.599816
 31
0.0
  0
LINE
  5
12EC1
330
12E76
100
AcDbEntity
  8
1
  6
Continuous
100
AcDbLine
 10
27.1
 20
561.099816
 30
0.0
 11
27.1
 21
570.599816
 31
0.0
  0
LINE
  5
12EC2
330
12E76
100
AcDbEntity
  8
1
  6
Continuous
100
AcDbLine
 10
27.1
 20
561.099816
 30
0.0
 11
26.6
 21
561.599816
 31
0.0
  0
LINE
  5
12EC3
330
12E76
100
AcDbEntity
  8
1
  6
Continuous
100
AcDbLine
 10
27.1
 20
570.599816
 30
0.0
 11
26.6
 21
570.099816
 31
0.0
  0
LINE
  5
12EC4
330
12E76
100
AcDbEntity
  8
1
  6
Continuous
100
AcDbLine
 10
27.1
 20
561.099816
 30
0.0
 11
27.4
 21
561.099816
 31
0.0
  0
LINE
  5
12EC5
330
12E76
100
AcDbEntity
  8
1
  6
Continuous
100
AcDbLine
 10
27.1
 20
570.599816
 30
0.0
 11
27.4
 21
570.599816
 31
0.0
  0
LINE
  5
12EC6
330
12E76
100
AcDbEntity
  8
1
  6
Continuous
100
AcDbLine
 10
34.1
 20
576.849816
 30
0.0
 11
28.1
 21
576.849816
 31
0.0
  0
ARC
  5
12EC7
330
12E76
100
AcDbEntity
  8
1
  6
Continuous
100
AcDbCircle
 10
34.1
 20
576.349816
 30
0.0
 40
0.5
100
AcDbArc
 50
0.0
 51
90.0
  0
ARC
  5
12EC8
330
12E76
100
AcDbEntity
  8
1
  6
Continuous
100
AcDbCircle
 10
28.1
 20
576.349816
 30
0.0
 40
0.5
100
AcDbArc
 50
90.0
 51
180.0
  0
LINE
  5
12EC9
330
12E76
100
AcDbEntity
  8
4
  6
CENTER
100
AcDbLine
 10
39.591998
 20
560.849816
 30
0.0
 11
25.943987
 21
560.849816
 31
0.0
  0
LINE
  5
12ECA
330
12E76
100
AcDbEntity
  8
1
  6
Continuous
100
AcDbLine
 10
34.9
 20
556.099816
 30
0.0
 11
34.9
 21
565.599816
 31
0.0
  0
LINE
  5
12ECB
330
12E76
100
AcDbEntity
  8
1
  6
Continuous
100
AcDbLine
 10
27.4
 20
571.349816
 30
0.0
 11
27.4
 21
550.349816
 31
0.0
  0
LINE
  5
12ECC
330
12E76
100
AcDbEntity
  8
1
  6
Continuous
100
AcDbLine
 10
34.39999999999999
 20
571.349816
 30
0.0
 11
34.39999999999999
 21
550.349816
 31
0.0
  0
ARC
  5
12ECD
330
12E76
100
AcDbEntity
  8
1
  6
Continuous
100
AcDbCircle
 10
33.9
 20
550.349816
 30
0.0
 40
0.5
100
AcDbArc
 50
270.0
 51
0.0
  0
LINE
  5
12ECE
330
12E76
100
AcDbEntity
  8
1
  6
Continuous
100
AcDbLine
 10
34.9
 20
556.099816
 30
0.0
 11
34.39999999999999
 21
556.099816
 31
0.0
  0
LINE
  5
12ECF
330
12E76
100
AcDbEntity
  8
1
  6
Continuous
100
AcDbLine
 10
27.9
 20
549.849816
 30
0.0
 11
33.9
 21
549.849816
 31
0.0
  0
ARC
  5
12ED0
330
12E76
100
AcDbEntity
  8
1
  6
Continuous
100
AcDbCircle
 10
27.9
 20
550.349816
 30
0.0
 40
0.5
100
AcDbArc
 50
180.0
 51
270.0
  0
LINE
  5
12ED1
330
12E76
100
AcDbEntity
  8
1
  6
Continuous
100
AcDbLine
 10
34.9
 20
556.099816
 30
0.0
 11
35.4
 21
556.599816
 31
0.0
  0
ARC
  5
12ED2
330
12E76
100
AcDbEntity
  8
1
  6
Continuous
100
AcDbCircle
 10
33.9
 20
571.349816
 30
0.0
 40
0.5
100
AcDbArc
 50
0.0
 51
90.0
  0
LINE
  5
12ED3
330
12E76
100
AcDbEntity
  8
1
  6
Continuous
100
AcDbLine
 10
34.9
 20
565.599816
 30
0.0
 11
34.39999999999999
 21
565.599816
 31
0.0
  0
LINE
  5
12ED4
330
12E76
100
AcDbEntity
  8
1
  6
Continuous
100
AcDbLine
 10
26.6
 20
571.849816
 30
0.0
 11
33.9
 21
571.849816
 31
0.0
  0
ARC
  5
12ED5
330
12E76
100
AcDbEntity
  8
1
  6
Continuous
100
AcDbCircle
 10
27.9
 20
571.349816
 30
0.0
 40
0.5
100
AcDbArc
 50
90.0
 51
180.0
  0
LINE
  5
12ED6
330
12E76
100
AcDbEntity
  8
1
  6
Continuous
100
AcDbLine
 10
34.9
 20
565.599816
 30
0.0
 11
35.4
 21
565.099816
 31
0.0
  0
LINE
  5
12ED7
330
12E76
100
AcDbEntity
  8
1
  6
Continuous
100
AcDbLine
 10
37.7
 20
564.499816
 30
0.0
 11
37.7
 21
557.199816
 31
0.0
  0
LINE
  5
12ED8
330
12E76
100
AcDbEntity
  8
1
  6
Continuous
100
AcDbLine
 10
37.7
 20
564.499816
 30
0.0
 11
37.0
 21
563.7998159999997
 31
0.0
  0
LINE
  5
12ED9
330
12E76
100
AcDbEntity
  8
1
  6
Continuous
100
AcDbLine
 10
37.7
 20
557.199816
 30
0.0
 11
37.0
 21
557.899816
 31
0.0
  0
LINE
  5
12EDA
330
12E76
100
AcDbEntity
  8
1
  6
Continuous
100
AcDbLine
 10
25.0
 20
551.849816
 30
0.0
 11
26.6
 21
551.849816
 31
0.0
  0
LINE
  5
12EDB
330
12E76
100
AcDbEntity
  8
1
  6
Continuous
100
AcDbLine
 10
26.6
 20
573.4498160000002
 30
0.0
 11
33.0
 21
573.4498160000002
 31
0.0
  0
LINE
  5
12EDC
330
12E76
100
AcDbEntity
  8
1
  6
Continuous
100
AcDbLine
 10
25.0
 20
571.849816
 30
0.0
 11
25.0
 21
551.849816
 31
0.0
  0
LINE
  5
12EDD
330
12E76
100
AcDbEntity
  8
1
  6
Continuous
100
AcDbLine
 10
26.6
 20
571.849816
 30
0.0
 11
26.6
 21
551.849816
 31
0.0
  0
LINE
  5
12EDE
330
12E76
100
AcDbEntity
  8
4
  6
CENTER
100
AcDbLine
 10
22.36147799999999
 20
561.849816
 30
0.0
 11
29.28288099999999
 21
561.849816
 31
0.0
  0
LINE
  5
12EDF
330
12E76
100
AcDbEntity
  8
1
  6
Continuous
100
AcDbLine
 10
33.0
 20
573.4498160000002
 30
0.0
 11
33.0
 21
571.849816
 31
0.0
  0
ARC
  5
12EE0
330
12E76
100
AcDbEntity
  8
1
  6
Continuous
100
AcDbCircle
 10
26.6
 20
571.849816
 30
0.0
 40
1.6
100
AcDbArc
 50
90.0
 51
180.0
  0
LINE
  5
12EE1
330
12E76
100
AcDbEntity
  8
4
  6
CENTER
100
AcDbLine
 10
22.36147799999999
 20
565.849816
 30
0.0
 11
36.169351
 21
565.849816
 31
0.0
  0
LINE
  5
12EE2
330
12E76
100
AcDbEntity
  8
1
  6
Continuous
100
AcDbLine
 10
24.3
 20
569.4998159999999
 30
0.0
 11
24.3
 21
562.199816
 31
0.0
  0
LINE
  5
12EE3
330
12E76
100
AcDbEntity
  8
1
  6
Continuous
100
AcDbLine
 10
24.3
 20
569.4998159999999
 30
0.0
 11
25.0
 21
568.7998159999997
 31
0.0
  0
LINE
  5
12EE4
330
12E76
100
AcDbEntity
  8
1
  6
Continuous
100
AcDbLine
 10
24.3
 20
562.199816
 30
0.0
 11
25.0
 21
562.899816
 31
0.0
  0
LINE
  5
12EE5
330
12E76
100
AcDbEntity
  8
1
  6
Continuous
100
AcDbLine
 10
34.6
 20
556.099816
 30
0.0
 11
34.6
 21
555.349816
 31
0.0
  0
LINE
  5
12EE6
330
12E76
100
AcDbEntity
  8
1
  6
Continuous
100
AcDbLine
 10
27.6
 20
571.849816
 30
0.0
 11
27.6
 21
571.7498159999998
 31
0.0
  0
LINE
  5
12EE7
330
12E76
100
AcDbEntity
  8
1
  6
Continuous
100
AcDbLine
 10
849.7641519999998
 20
577.849816
 30
0.0
 11
849.7641519999998
 21
554.849816
 31
0.0
  0
LINE
  5
12EE8
330
12E76
100
AcDbEntity
  8
1
  6
Continuous
100
AcDbLine
 10
851.364152
 20
577.849816
 30
0.0
 11
851.364152
 21
554.849816
 31
0.0
  0
LINE
  5
12EE9
330
12E76
100
AcDbEntity
  8
1
  6
Continuous
100
AcDbLine
 10
859.364152
 20
571.349816
 30
0.0
 11
859.364152
 21
570.599816
 31
0.0
  0
LINE
  5
12EEA
330
12E76
100
AcDbEntity
  8
1
  6
Continuous
100
AcDbLine
 10
852.3641519999998
 20
554.949816
 30
0.0
 11
852.3641519999998
 21
554.849816
 31
0.0
  0
LINE
  5
12EEB
330
12E76
100
AcDbEntity
  8
1
  6
Continuous
100
AcDbLine
 10
860.1641519999999
 20
571.849816
 30
0.0
 11
860.1641519999999
 21
551.849816
 31
0.0
  0
LINE
  5
12EEC
330
12E76
100
AcDbEntity
  8
1
  6
Continuous
100
AcDbLine
 10
861.7641519999999
 20
571.849816
 30
0.0
 11
861.7641519999999
 21
551.849816
 31
0.0
  0
LINE
  5
12EED
330
12E76
100
AcDbEntity
  8
1
  6
Continuous
100
AcDbLine
 10
862.4641519999999
 20
569.4998159999999
 30
0.0
 11
862.4641519999999
 21
562.199816
 31
0.0
  0
LINE
  5
12EEE
330
12E76
100
AcDbEntity
  8
1
  6
Continuous
100
AcDbLine
 10
859.6641519999996
 20
561.099816
 30
0.0
 11
859.6641519999996
 21
570.599816
 31
0.0
  0
LINE
  5
12EEF
330
12E76
100
AcDbEntity
  8
1
  6
Continuous
100
AcDbLine
 10
860.1641519999999
 20
570.099816
 30
0.0
 11
860.1641519999999
 21
561.599816
 31
0.0
  0
LINE
  5
12EF0
330
12E76
100
AcDbEntity
  8
1
  6
Continuous
100
AcDbLine
 10
852.1641519999999
 20
576.349816
 30
0.0
 11
852.1641519999999
 21
555.349816
 31
0.0
  0
LINE
  5
12EF1
330
12E76
100
AcDbEntity
  8
4
  6
CENTER
100
AcDbLine
 10
864.4026740000001
 20
561.849816
 30
0.0
 11
857.4812710000001
 21
561.849816
 31
0.0
  0
LINE
  5
12EF2
330
12E76
100
AcDbEntity
  8
1
  6
Continuous
100
AcDbLine
 10
858.8641519999999
 20
549.849816
 30
0.0
 11
852.864152
 21
549.849816
 31
0.0
  0
LINE
  5
12EF3
330
12E76
100
AcDbEntity
  8
4
  6
CENTER
100
AcDbLine
 10
864.4026740000001
 20
565.849816
 30
0.0
 11
850.5948009999999
 21
565.849816
 31
0.0
  0
LINE
  5
12EF4
330
12E76
100
AcDbEntity
  8
4
  6
CENTER
100
AcDbLine
 10
847.1721539999997
 20
560.849816
 30
0.0
 11
860.8201659999997
 21
560.849816
 31
0.0
  0
ARC
  5
12EF5
330
12E76
100
AcDbEntity
  8
1
  6
Continuous
100
AcDbCircle
 10
858.8641519999999
 20
550.349816
 30
0.0
 40
0.5
100
AcDbArc
 50
270.0
 51
0.0
  0
LINE
  5
12EF6
330
12E76
100
AcDbEntity
  8
1
  6
Continuous
100
AcDbLine
 10
861.7641519999999
 20
551.849816
 30
0.0
 11
860.1641519999999
 21
551.849816
 31
0.0
  0
LINE
  5
12EF7
330
12E76
100
AcDbEntity
  8
1
  6
Continuous
100
AcDbLine
 10
862.4641519999999
 20
562.199816
 30
0.0
 11
861.7641519999999
 21
562.899816
 31
0.0
  0
LINE
  5
12EF8
330
12E76
100
AcDbEntity
  8
1
  6
Continuous
100
AcDbLine
 10
859.6641519999996
 20
561.099816
 30
0.0
 11
860.1641519999999
 21
561.599816
 31
0.0
  0
LINE
  5
12EF9
330
12E76
100
AcDbEntity
  8
1
  6
Continuous
100
AcDbLine
 10
859.6641519999996
 20
561.099816
 30
0.0
 11
859.1641519999997
 21
561.099816
 31
0.0
  0
ARC
  5
12EFA
330
12E76
100
AcDbEntity
  8
1
  6
Continuous
100
AcDbCircle
 10
851.364152
 20
554.849816
 30
0.0
 40
1.6
100
AcDbArc
 50
180.0
 51
270.0
  0
LINE
  5
12EFB
330
12E76
100
AcDbEntity
  8
1
  6
Continuous
100
AcDbLine
 10
851.8641519999999
 20
556.099816
 30
0.0
 11
851.8641519999999
 21
565.599816
 31
0.0
  0
ARC
  5
12EFC
330
12E76
100
AcDbEntity
  8
1
  6
Continuous
100
AcDbCircle
 10
852.864152
 20
550.349816
 30
0.0
 40
0.5
100
AcDbArc
 50
180.0
 51
270.0
  0
LINE
  5
12EFD
330
12E76
100
AcDbEntity
  8
1
  6
Continuous
100
AcDbLine
 10
851.8641519999999
 20
556.099816
 30
0.0
 11
852.1641519999999
 21
556.099816
 31
0.0
  0
LINE
  5
12EFE
330
12E76
100
AcDbEntity
  8
1
  6
Continuous
100
AcDbLine
 10
851.8641519999999
 20
556.099816
 30
0.0
 11
851.364152
 21
556.599816
 31
0.0
  0
LINE
  5
12EFF
330
12E76
100
AcDbEntity
  8
1
  6
Continuous
100
AcDbLine
 10
851.8641519999999
 20
565.599816
 30
0.0
 11
852.1641519999999
 21
565.599816
 31
0.0
  0
LINE
  5
12F00
330
12E76
100
AcDbEntity
  8
1
  6
Continuous
100
AcDbLine
 10
851.8641519999999
 20
565.599816
 30
0.0
 11
851.364152
 21
565.099816
 31
0.0
  0
LINE
  5
12F01
330
12E76
100
AcDbEntity
  8
1
  6
Continuous
100
AcDbLine
 10
851.364152
 20
554.849816
 30
0.0
 11
858.6641519999997
 21
554.849816
 31
0.0
  0
LINE
  5
12F02
330
12E76
100
AcDbEntity
  8
1
  6
Continuous
100
AcDbLine
 10
851.364152
 20
553.249816
 30
0.0
 11
857.7641519999998
 21
553.249816
 31
0.0
  0
LINE
  5
12F03
330
12E76
100
AcDbEntity
  8
1
  6
Continuous
100
AcDbLine
 10
849.0641519999996
 20
564.499816
 30
0.0
 11
849.7641519999998
 21
563.7998159999997
 31
0.0
  0
LINE
  5
12F04
330
12E76
100
AcDbEntity
  8
1
  6
Continuous
100
AcDbLine
 10
849.0641519999996
 20
557.199816
 30
0.0
 11
849.7641519999998
 21
557.899816
 31
0.0
  0
LINE
  5
12F05
330
12E76
100
AcDbEntity
  8
1
  6
Continuous
100
AcDbLine
 10
849.0641519999996
 20
564.499816
 30
0.0
 11
849.0641519999996
 21
557.199816
 31
0.0
  0
LINE
  5
12F06
330
12E76
100
AcDbEntity
  8
1
  6
Continuous
100
AcDbLine
 10
861.7641519999999
 20
571.849816
 30
0.0
 11
859.1641519999997
 21
571.849816
 31
0.0
  0
LINE
  5
12F07
330
12E76
100
AcDbEntity
  8
1
  6
Continuous
100
AcDbLine
 10
860.1641519999999
 20
573.4498160000002
 30
0.0
 11
859.1641519999997
 21
573.4498160000002
 31
0.0
  0
LINE
  5
12F08
330
12E76
100
AcDbEntity
  8
1
  6
Continuous
100
AcDbLine
 10
852.6641519999996
 20
576.849816
 30
0.0
 11
858.6641519999997
 21
576.849816
 31
0.0
  0
ARC
  5
12F09
330
12E76
100
AcDbEntity
  8
1
  6
Continuous
100
AcDbCircle
 10
858.8641519999999
 20
571.349816
 30
0.0
 40
0.5
100
AcDbArc
 50
0.0
 51
53.130102
  0
ARC
  5
12F0A
330
12E76
100
AcDbEntity
  8
1
  6
Continuous
100
AcDbCircle
 10
860.1641519999999
 20
571.849816
 30
0.0
 40
1.6
100
AcDbArc
 50
0.0
 51
90.0
  0
LINE
  5
12F0B
330
12E76
100
AcDbEntity
  8
1
  6
Continuous
100
AcDbLine
 10
862.4641519999999
 20
569.4998159999999
 30
0.0
 11
861.7641519999999
 21
568.7998159999997
 31
0.0
  0
LINE
  5
12F0C
330
12E76
100
AcDbEntity
  8
1
  6
Continuous
100
AcDbLine
 10
859.6641519999996
 20
570.599816
 30
0.0
 11
860.1641519999999
 21
570.099816
 31
0.0
  0
ARC
  5
12F0D
330
12E76
100
AcDbEntity
  8
1
  6
Continuous
100
AcDbCircle
 10
858.6641519999997
 20
576.349816
 30
0.0
 40
0.5
100
AcDbArc
 50
0.0
 51
90.0
  0
LINE
  5
12F0E
330
12E76
100
AcDbEntity
  8
1
  6
Continuous
100
AcDbLine
 10
859.1641519999997
 20
576.349816
 30
0.0
 11
859.1641519999997
 21
555.349816
 31
0.0
  0
LINE
  5
12F0F
330
12E76
100
AcDbEntity
  8
1
  6
Continuous
100
AcDbLine
 10
859.6641519999996
 20
570.599816
 30
0.0
 11
859.1641519999997
 21
570.599816
 31
0.0
  0
ARC
  5
12F10
330
12E76
100
AcDbEntity
  8
1
  6
Continuous
100
AcDbCircle
 10
851.364152
 20
577.849816
 30
0.0
 40
1.6
100
AcDbArc
 50
90.0
 51
180.0
  0
ARC
  5
12F11
330
12E76
100
AcDbEntity
  8
1
  6
Continuous
100
AcDbCircle
 10
852.6641519999996
 20
576.349816
 30
0.0
 40
0.5
100
AcDbArc
 50
90.0
 51
180.0
  0
LINE
  5
12F12
330
12E76
100
AcDbEntity
  8
4
  6
CENTER
100
AcDbLine
 10
854.2512849999997
 20
566.349816
 30
0.0
 11
847.329882
 21
566.349816
 31
0.0
  0
LINE
  5
12F13
330
12E76
100
AcDbEntity
  8
1
  6
Continuous
100
AcDbLine
 10
857.7641519999998
 20
579.4498160000001
 30
0.0
 11
857.7641519999998
 21
577.849816
 31
0.0
  0
LINE
  5
12F14
330
12E76
100
AcDbEntity
  8
1
  6
Continuous
100
AcDbLine
 10
851.364152
 20
579.4498160000001
 30
0.0
 11
857.7641519999998
 21
579.4498160000001
 31
0.0
  0
LINE
  5
12F15
330
12E76
100
AcDbEntity
  8
1
  6
Continuous
100
AcDbLine
 10
851.364152
 20
577.849816
 30
0.0
 11
857.7641519999998
 21
577.849816
 31
0.0
  0
LINE
  5
12F16
330
12E76
100
AcDbEntity
  8
1
  6
Continuous
100
AcDbLine
 10
857.7641519999998
 20
553.249816
 30
0.0
 11
857.7641519999998
 21
554.849816
 31
0.0
  0
ARC
  5
12F17
330
12E76
100
AcDbEntity
  8
1
  6
Continuous
100
AcDbCircle
 10
852.6641519999996
 20
555.349816
 30
0.0
 40
0.5
100
AcDbArc
 50
180.0
 51
270.0
  0
ARC
  5
12F18
330
12E76
100
AcDbEntity
  8
1
  6
Continuous
100
AcDbCircle
 10
858.6641519999997
 20
555.349816
 30
0.0
 40
0.5
100
AcDbArc
 50
270.0
 51
0.0
  0
LINE
  5
12F19
330
12E76
100
AcDbEntity
  8
1
  6
Continuous
100
AcDbLine
 10
852.3641519999998
 20
553.249816
 30
0.0
 11
852.3641519999998
 21
550.349816
 31
0.0
  0
LINE
  5
12F1A
330
12E76
100
AcDbEntity
  8
1
  6
Continuous
100
AcDbLine
 10
859.364152
 20
561.099816
 30
0.0
 11
859.364152
 21
550.349816
 31
0.0
  0
LINE
  5
12F1B
330
12E76
100
AcDbEntity
  8
1
  6
Continuous
100
AcDbLine
 10
792.8820759999996
 20
667.849816
 30
0.0
 11
448.882076
 21
667.849816
 31
0.0
  0
LINE
  5
12F1C
330
12E76
100
AcDbEntity
  8
1
  6
Continuous
100
AcDbLine
 10
795.882076
 20
659.849816
 30
0.0
 11
395.882076
 21
659.849816
 31
0.0
  0
LINE
  5
12F1D
330
12E76
100
AcDbEntity
  8
1
  6
Continuous
100
AcDbLine
 10
395.882076
 20
659.849816
 30
0.0
 11
395.882076
 21
661.4498160000001
 31
0.0
  0
LINE
  5
12F1E
330
12E76
100
AcDbEntity
  8
1
  6
Continuous
100
AcDbLine
 10
445.882076
 20
659.849816
 30
0.0
 11
445.882076
 21
664.849816
 31
0.0
  0
LINE
  5
12F1F
330
12E76
100
AcDbEntity
  8
1
  6
Continuous
100
AcDbLine
 10
445.882076
 20
661.4498160000001
 30
0.0
 11
395.882076
 21
661.4498160000001
 31
0.0
  0
ARC
  5
12F20
330
12E76
100
AcDbEntity
  8
1
  6
Continuous
100
AcDbCircle
 10
448.882076
 20
664.849816
 30
0.0
 40
3.0
100
AcDbArc
 50
90.0
 51
180.0
  0
LINE
  5
12F21
330
12E76
100
AcDbEntity
  8
1
  6
Continuous
100
AcDbLine
 10
795.882076
 20
659.849816
 30
0.0
 11
795.882076
 21
664.849816
 31
0.0
  0
ARC
  5
12F22
330
12E76
100
AcDbEntity
  8
1
  6
Continuous
100
AcDbCircle
 10
792.8820759999996
 20
664.849816
 30
0.0
 40
3.0
100
AcDbArc
 50
0.0
 51
90.0
  0
LINE
  5
12F23
330
12E76
100
AcDbEntity
  8
1
  6
Continuous
100
AcDbLine
 10
417.8820759999998
 20
661.4498160000001
 30
0.0
 11
417.8820759999998
 21
663.849816
 31
0.0
  0
LINE
  5
12F24
330
12E76
100
AcDbEntity
  8
4
  6
CENTER
100
AcDbLine
 10
406.8820759999998
 20
673.2695859999997
 30
0.0
 11
406.8820759999998
 21
655.349816
 31
0.0
  0
ARC
  5
12F25
330
12E76
100
AcDbEntity
  8
1
  6
Continuous
100
AcDbCircle
 10
417.3820759999999
 20
662.9498160000001
 30
0.0
 40
0.5
100
AcDbArc
 50
270.0
 51
0.0
  0
LINE
  5
12F26
330
12E76
100
AcDbEntity
  8
1
  6
Continuous
100
AcDbLine
 10
417.3820759999999
 20
662.4498160000001
 30
0.0
 11
396.3820759999999
 21
662.4498160000001
 31
0.0
  0
ARC
  5
12F27
330
12E76
100
AcDbEntity
  8
1
  6
Continuous
100
AcDbCircle
 10
396.3820759999999
 20
662.9498160000001
 30
0.0
 40
0.5
100
AcDbArc
 50
180.0
 51
270.0
  0
LINE
  5
12F28
330
12E76
100
AcDbEntity
  8
1
  6
Continuous
100
AcDbLine
 10
402.132076
 20
661.9498160000001
 30
0.0
 11
402.6320759999999
 21
661.4498160000001
 31
0.0
  0
LINE
  5
12F29
330
12E76
100
AcDbEntity
  8
1
  6
Continuous
100
AcDbLine
 10
402.132076
 20
661.9498160000001
 30
0.0
 11
402.132076
 21
662.4498160000001
 31
0.0
  0
LINE
  5
12F2A
330
12E76
100
AcDbEntity
  8
1
  6
Continuous
100
AcDbLine
 10
411.6320759999998
 20
661.9498160000001
 30
0.0
 11
411.1320759999999
 21
661.4498160000001
 31
0.0
  0
LINE
  5
12F2B
330
12E76
100
AcDbEntity
  8
1
  6
Continuous
100
AcDbLine
 10
411.6320759999998
 20
661.9498160000001
 30
0.0
 11
411.6320759999998
 21
662.4498160000001
 31
0.0
  0
LINE
  5
12F2C
330
12E76
100
AcDbEntity
  8
1
  6
Continuous
100
AcDbLine
 10
402.132076
 20
661.9498160000001
 30
0.0
 11
411.6320759999998
 21
661.9498160000001
 31
0.0
  0
LINE
  5
12F2D
330
12E76
100
AcDbEntity
  8
1
  6
Continuous
100
AcDbLine
 10
410.5320759999998
 20
659.149816
 30
0.0
 11
403.2320759999998
 21
659.149816
 31
0.0
  0
LINE
  5
12F2E
330
12E76
100
AcDbEntity
  8
1
  6
Continuous
100
AcDbLine
 10
403.2320759999998
 20
659.149816
 30
0.0
 11
403.9320759999998
 21
659.849816
 31
0.0
  0
LINE
  5
12F2F
330
12E76
100
AcDbEntity
  8
1
  6
Continuous
100
AcDbLine
 10
410.5320759999998
 20
659.149816
 30
0.0
 11
409.832076
 21
659.849816
 31
0.0
  0
LINE
  5
12F30
330
12E76
100
AcDbEntity
  8
1
  6
Continuous
100
AcDbLine
 10
395.882076
 20
662.9498160000001
 30
0.0
 11
395.882076
 21
663.849816
 31
0.0
  0
LINE
  5
12F31
330
12E76
100
AcDbEntity
  8
4
  6
CENTER
100
AcDbLine
 10
415.882076
 20
664.562335
 30
0.0
 11
415.882076
 21
656.562335
 31
0.0
  0
LINE
  5
12F32
330
12E76
100
AcDbEntity
  8
4
  6
CENTER
100
AcDbLine
 10
427.882076
 20
664.562335
 30
0.0
 11
427.882076
 21
656.562335
 31
0.0
  0
LINE
  5
12F33
330
12E76
100
AcDbEntity
  8
4
  6
CENTER
100
AcDbLine
 10
545.882076
 20
664.562335
 30
0.0
 11
545.882076
 21
656.562335
 31
0.0
  0
LINE
  5
12F34
330
12E76
100
AcDbEntity
  8
4
  6
CENTER
100
AcDbLine
 10
663.8820759999997
 20
664.562335
 30
0.0
 11
663.8820759999997
 21
656.562335
 31
0.0
  0
LINE
  5
12F35
330
12E76
100
AcDbEntity
  8
4
  6
CENTER
100
AcDbLine
 10
781.882076
 20
664.562335
 30
0.0
 11
781.882076
 21
656.562335
 31
0.0
  0
LINE
  5
12F36
330
12E76
100
AcDbEntity
  8
4
  6
CENTER
100
AcDbLine
 10
766.882076
 20
664.562335
 30
0.0
 11
766.882076
 21
656.562335
 31
0.0
  0
LINE
  5
12F37
330
12E76
100
AcDbEntity
  8
1
  6
Continuous
100
AcDbLine
 10
445.882076
 20
752.249816
 30
0.0
 11
795.882076
 21
752.249816
 31
0.0
  0
LINE
  5
12F38
330
12E76
100
AcDbEntity
  8
3
  6
DASHED
100
AcDbLine
 10
417.8820759999998
 20
778.449816
 30
0.0
 11
490.4197919999998
 21
778.449816
 31
0.0
  0
LINE
  5
12F39
330
12E76
100
AcDbEntity
  8
4
  6
CENTER
100
AcDbLine
 10
85.882076
 20
769.849816
 30
0.0
 11
495.882076
 21
769.849816
 31
0.0
  0
LINE
  5
12F3A
330
12E76
100
AcDbEntity
  8
4
  6
CENTER
100
AcDbLine
 10
390.8820759999999
 20
765.349816
 30
0.0
 11
800.882076
 21
765.349816
 31
0.0
  0
LINE
  5
12F3B
330
12E76
100
AcDbEntity
  8
3
  6
DASHED
100
AcDbLine
 10
395.882076
 20
776.849816
 30
0.0
 11
395.882076
 21
758.249816
 31
0.0
  0
LINE
  5
12F3C
330
12E76
100
AcDbEntity
  8
4
  6
CENTER
100
AcDbLine
 10
663.8820759999997
 20
771.349816
 30
0.0
 11
663.8820759999997
 21
759.349816
 31
0.0
  0
LINE
  5
12F3D
330
12E76
100
AcDbEntity
  8
4
  6
CENTER
100
AcDbLine
 10
545.882076
 20
771.349816
 30
0.0
 11
545.882076
 21
759.349816
 31
0.0
  0
LINE
  5
12F3E
330
12E76
100
AcDbEntity
  8
4
  6
CENTER
100
AcDbLine
 10
427.882076
 20
771.349816
 30
0.0
 11
427.882076
 21
759.349816
 31
0.0
  0
LINE
  5
12F3F
330
12E76
100
AcDbEntity
  8
4
  6
CENTER
100
AcDbLine
 10
415.882076
 20
761.349816
 30
0.0
 11
415.882076
 21
769.349816
 31
0.0
  0
LINE
  5
12F40
330
12E76
100
AcDbEntity
  8
4
  6
CENTER
100
AcDbLine
 10
406.8820759999998
 20
756.849816
 30
0.0
 11
406.8820759999998
 21
784.849816
 31
0.0
  0
ARC
  5
12F41
330
12E76
100
AcDbEntity
  8
1
  6
Continuous
100
AcDbCircle
 10
406.8820759999998
 20
770.849816
 30
0.0
 40
11.0
100
AcDbArc
 50
54.903199
 51
125.096801
  0
LINE
  5
12F42
330
12E76
100
AcDbEntity
  8
4
  6
CENTER
100
AcDbLine
 10
420.882076
 20
770.849816
 30
0.0
 11
392.8820759999999
 21
770.849816
 31
0.0
  0
ARC
  5
12F43
330
12E76
100
AcDbEntity
  8
1
  6
Continuous
100
AcDbCircle
 10
398.8820759999999
 20
756.849816
 30
0.0
 40
3.0
100
AcDbArc
 50
180.0
 51
270.0
  0
LINE
  5
12F44
330
12E76
100
AcDbEntity
  8
1
  6
Continuous
100
AcDbLine
 10
445.882076
 20
753.849816
 30
0.0
 11
445.882076
 21
752.249816
 31
0.0
  0
LINE
  5
12F45
330
12E76
100
AcDbEntity
  8
1
  6
Continuous
100
AcDbLine
 10
795.882076
 20
778.449816
 30
0.0
 11
795.882076
 21
752.249816
 31
0.0
  0
LINE
  5
12F46
330
12E76
100
AcDbEntity
  8
4
  6
CENTER
100
AcDbLine
 10
766.882076
 20
769.849816
 30
0.0
 11
766.882076
 21
760.849816
 31
0.0
  0
LINE
  5
12F47
330
12E76
100
AcDbEntity
  8
4
  6
CENTER
100
AcDbLine
 10
781.882076
 20
771.349816
 30
0.0
 11
781.882076
 21
759.349816
 31
0.0
  0
LINE
  5
12F48
330
12E76
100
AcDbEntity
  8
1
  6
Continuous
100
AcDbLine
 10
398.8820759999999
 20
753.849816
 30
0.0
 11
795.882076
 21
753.849816
 31
0.0
  0
LINE
  5
12F49
330
12E76
100
AcDbEntity
  8
1
  6
Continuous
100
AcDbLine
 10
93.88207599999999
 20
779.849816
 30
0.0
 11
487.8820759999999
 21
779.849816
 31
0.0
  0
ARC
  5
12F4A
330
12E76
100
AcDbEntity
  8
1
  6
Continuous
100
AcDbCircle
 10
93.88207599999999
 20
776.849816
 30
0.0
 40
3.0
100
AcDbArc
 50
90.0
 51
180.0
  0
LINE
  5
12F4B
330
12E76
100
AcDbEntity
  8
1
  6
Continuous
100
AcDbLine
 10
90.882076
 20
776.849816
 30
0.0
 11
90.882076
 21
758.249816
 31
0.0
  0
LINE
  5
12F4C
330
12E76
100
AcDbEntity
  8
1
  6
Continuous
100
AcDbLine
 10
90.882076
 20
758.249816
 30
0.0
 11
409.8820759999998
 21
758.249816
 31
0.0
  0
LINE
  5
12F4D
330
12E76
100
AcDbEntity
  8
1
  6
Continuous
100
AcDbLine
 10
409.8820759999998
 20
760.249816
 30
0.0
 11
423.882076
 21
760.249816
 31
0.0
  0
LINE
  5
12F4E
330
12E76
100
AcDbEntity
  8
1
  6
Continuous
100
AcDbLine
 10
409.8820759999998
 20
758.249816
 30
0.0
 11
409.8820759999998
 21
760.249816
 31
0.0
  0
LINE
  5
12F4F
330
12E76
100
AcDbEntity
  8
1
  6
Continuous
100
AcDbLine
 10
410.7056059999998
 20
760.249816
 30
0.0
 11
409.8820759999998
 21
759.849816
 31
0.0
  0
LINE
  5
12F50
330
12E76
100
AcDbEntity
  8
1
  6
Continuous
100
AcDbLine
 10
413.999723
 20
760.249816
 30
0.0
 11
409.8820759999998
 21
758.249816
 31
0.0
  0
LINE
  5
12F51
330
12E76
100
AcDbEntity
  8
1
  6
Continuous
100
AcDbLine
 10
423.882076
 20
758.249816
 30
0.0
 11
423.882076
 21
760.249816
 31
0.0
  0
LINE
  5
12F52
330
12E76
100
AcDbEntity
  8
1
  6
Continuous
100
AcDbLine
 10
423.0585469999998
 20
760.249816
 30
0.0
 11
423.882076
 21
759.849816
 31
0.0
  0
LINE
  5
12F53
330
12E76
100
AcDbEntity
  8
1
  6
Continuous
100
AcDbLine
 10
419.764429
 20
760.249816
 30
0.0
 11
423.882076
 21
758.249816
 31
0.0
  0
LINE
  5
12F54
330
12E76
100
AcDbEntity
  8
1
  6
Continuous
100
AcDbLine
 10
423.882076
 20
758.249816
 30
0.0
 11
468.8820759999998
 21
758.249816
 31
0.0
  0
LINE
  5
12F55
330
12E76
100
AcDbEntity
  8
1
  6
Continuous
100
AcDbLine
 10
468.8820759999998
 20
759.849816
 30
0.0
 11
487.8820759999999
 21
759.849816
 31
0.0
  0
LINE
  5
12F56
330
12E76
100
AcDbEntity
  8
1
  6
Continuous
100
AcDbLine
 10
468.8820759999998
 20
759.849816
 30
0.0
 11
468.8820759999998
 21
758.249816
 31
0.0
  0
ARC
  5
12F57
330
12E76
100
AcDbEntity
  8
1
  6
Continuous
100
AcDbCircle
 10
487.8820759999999
 20
762.849816
 30
0.0
 40
3.0
100
AcDbArc
 50
270.0
 51
0.0
  0
ARC
  5
12F58
330
12E76
100
AcDbEntity
  8
1
  6
Continuous
100
AcDbCircle
 10
487.8820759999999
 20
776.849816
 30
0.0
 40
3.0
100
AcDbArc
 50
0.0
 51
90.0
  0
ARC
  5
12F59
330
12E76
100
AcDbEntity
  8
1
  6
Continuous
100
AcDbCircle
 10
479.8820759999999
 20
765.849816
 30
0.0
 40
11.0
100
AcDbArc
 50
213.0557309999999
 51
329.2484979999999
  0
CIRCLE
  5
12F5A
330
12E76
100
AcDbEntity
  8
1
  6
Continuous
100
AcDbCircle
 10
479.8820759999999
 20
765.849816
 30
0.0
 40
3.649999999999999
  0
LINE
  5
12F5B
330
12E76
100
AcDbEntity
  8
4
  6
CENTER
100
AcDbLine
 10
466.1179279999998
 20
765.849816
 30
0.0
 11
493.8024429999998
 21
765.849816
 31
0.0
  0
LINE
  5
12F5C
330
12E76
100
AcDbEntity
  8
4
  6
CENTER
100
AcDbLine
 10
479.8820759999999
 20
775.5502759999997
 30
0.0
 11
479.8820759999999
 21
756.149356
 31
0.0
  0
CIRCLE
  5
12F5D
330
12E76
100
AcDbEntity
  8
1
  6
Continuous
100
AcDbCircle
 10
470.882076
 20
769.849816
 30
0.0
 40
2.0
  0
LINE
  5
12F5E
330
12E76
100
AcDbEntity
  8
4
  6
CENTER
100
AcDbLine
 10
470.882076
 20
774.349816
 30
0.0
 11
470.882076
 21
765.349816
 31
0.0
  0
LINE
  5
12F5F
330
12E76
100
AcDbEntity
  8
4
  6
CENTER
100
AcDbLine
 10
458.8820759999999
 20
775.849816
 30
0.0
 11
458.8820759999999
 21
763.849816
 31
0.0
  0
CIRCLE
  5
12F60
330
12E76
100
AcDbEntity
  8
1
  6
Continuous
100
AcDbCircle
 10
458.8820759999999
 20
769.849816
 30
0.0
 40
3.0
  0
LINE
  5
12F61
330
12E76
100
AcDbEntity
  8
4
  6
CENTER
100
AcDbLine
 10
340.8820759999999
 20
775.849816
 30
0.0
 11
340.8820759999999
 21
763.849816
 31
0.0
  0
CIRCLE
  5
12F62
330
12E76
100
AcDbEntity
  8
1
  6
Continuous
100
AcDbCircle
 10
340.8820759999999
 20
769.849816
 30
0.0
 40
3.0
  0
LINE
  5
12F63
330
12E76
100
AcDbEntity
  8
4
  6
CENTER
100
AcDbLine
 10
222.882076
 20
775.849816
 30
0.0
 11
222.882076
 21
763.849816
 31
0.0
  0
CIRCLE
  5
12F64
330
12E76
100
AcDbEntity
  8
1
  6
Continuous
100
AcDbCircle
 10
222.882076
 20
769.849816
 30
0.0
 40
3.0
  0
CIRCLE
  5
12F65
330
12E76
100
AcDbEntity
  8
1
  6
Continuous
100
AcDbCircle
 10
104.8820759999999
 20
769.849816
 30
0.0
 40
3.0
  0
LINE
  5
12F66
330
12E76
100
AcDbEntity
  8
4
  6
CENTER
100
AcDbLine
 10
104.8820759999999
 20
775.849816
 30
0.0
 11
104.8820759999999
 21
763.849816
 31
0.0
  0
CIRCLE
  5
12F67
330
12E76
100
AcDbEntity
  8
1
  6
Continuous
100
AcDbCircle
 10
119.882076
 20
769.849816
 30
0.0
 40
2.0
  0
LINE
  5
12F68
330
12E76
100
AcDbEntity
  8
4
  6
CENTER
100
AcDbLine
 10
119.882076
 20
765.849816
 30
0.0
 11
119.882076
 21
773.849816
 31
0.0
  0
LINE
  5
12F69
330
12E76
100
AcDbEntity
  8
1
  6
Continuous
100
AcDbLine
 10
490.882076
 20
776.849816
 30
0.0
 11
490.882076
 21
762.849816
 31
0.0
  0
LINE
  5
12F6A
330
12E76
100
AcDbEntity
  8
1
  6
Continuous
100
AcDbLine
 10
90.882076
 20
573.4498160000002
 30
0.0
 11
395.882076
 21
573.4498160000002
 31
0.0
  0
LINE
  5
12F6B
330
12E76
100
AcDbEntity
  8
1
  6
Continuous
100
AcDbLine
 10
93.88207599999999
 20
551.849816
 30
0.0
 11
400.5575209999998
 21
551.849816
 31
0.0
  0
CIRCLE
  5
12F6C
330
12E76
100
AcDbEntity
  8
1
  6
Continuous
100
AcDbCircle
 10
119.882076
 20
561.849816
 30
0.0
 40
2.0
  0
LINE
  5
12F6D
330
12E76
100
AcDbEntity
  8
1
  6
Continuous
100
AcDbLine
 10
90.882076
 20
554.849816
 30
0.0
 11
90.882076
 21
573.4498160000002
 31
0.0
  0
LINE
  5
12F6E
330
12E76
100
AcDbEntity
  8
4
  6
CENTER
100
AcDbLine
 10
119.882076
 20
565.849816
 30
0.0
 11
119.882076
 21
557.849816
 31
0.0
  0
ARC
  5
12F6F
330
12E76
100
AcDbEntity
  8
1
  6
Continuous
100
AcDbCircle
 10
93.88207599999999
 20
554.849816
 30
0.0
 40
3.0
100
AcDbArc
 50
180.0
 51
270.0
  0
CIRCLE
  5
12F70
330
12E76
100
AcDbEntity
  8
1
  6
Continuous
100
AcDbCircle
 10
104.8820759999999
 20
561.849816
 30
0.0
 40
3.0
  0
LINE
  5
12F71
330
12E76
100
AcDbEntity
  8
4
  6
CENTER
100
AcDbLine
 10
104.8820759999999
 20
555.849816
 30
0.0
 11
104.8820759999999
 21
567.849816
 31
0.0
  0
CIRCLE
  5
12F72
330
12E76
100
AcDbEntity
  8
1
  6
Continuous
100
AcDbCircle
 10
222.882076
 20
561.849816
 30
0.0
 40
3.0
  0
LINE
  5
12F73
330
12E76
100
AcDbEntity
  8
4
  6
CENTER
100
AcDbLine
 10
222.882076
 20
555.849816
 30
0.0
 11
222.882076
 21
567.849816
 31
0.0
  0
CIRCLE
  5
12F74
330
12E76
100
AcDbEntity
  8
1
  6
Continuous
100
AcDbCircle
 10
340.8820759999999
 20
561.849816
 30
0.0
 40
3.0
  0
LINE
  5
12F75
330
12E76
100
AcDbEntity
  8
4
  6
CENTER
100
AcDbLine
 10
340.8820759999999
 20
555.849816
 30
0.0
 11
340.8820759999999
 21
567.849816
 31
0.0
  0
CIRCLE
  5
12F76
330
12E76
100
AcDbEntity
  8
1
  6
Continuous
100
AcDbCircle
 10
104.8820759999999
 20
561.849816
 30
0.0
 40
4.299999999999998
  0
CIRCLE
  5
12F77
330
12E76
100
AcDbEntity
  8
1
  6
Continuous
100
AcDbCircle
 10
222.882076
 20
561.849816
 30
0.0
 40
4.299999999999998
  0
CIRCLE
  5
12F78
330
12E76
100
AcDbEntity
  8
1
  6
Continuous
100
AcDbCircle
 10
340.8820759999999
 20
561.849816
 30
0.0
 40
4.299999999999998
  0
LINE
  5
12F79
330
12E76
100
AcDbEntity
  8
1
  6
Continuous
100
AcDbLine
 10
90.882076
 20
571.849816
 30
0.0
 11
395.882076
 21
571.849816
 31
0.0
  0
LINE
  5
12F7A
330
12E76
100
AcDbEntity
  8
1
  6
Continuous
100
AcDbLine
 10
395.882076
 20
758.249816
 30
0.0
 11
395.882076
 21
756.849816
 31
0.0
  0
LINE
  5
12F7B
330
12E76
100
AcDbEntity
  8
3
  6
DASHED
100
AcDbLine
 10
417.8820759999998
 20
778.449816
 30
0.0
 11
417.8820759999998
 21
776.849816
 31
0.0
  0
LINE
  5
12F7C
330
12E76
100
AcDbEntity
  8
3
  6
DASHED
100
AcDbLine
 10
395.882076
 20
776.849816
 30
0.0
 11
490.882076
 21
776.849816
 31
0.0
  0
LINE
  5
12F7D
330
12E76
100
AcDbEntity
  8
1
  6
Continuous
100
AcDbLine
 10
490.4197919999998
 20
778.449816
 30
0.0
 11
795.882076
 21
778.449816
 31
0.0
  0
LINE
  5
12F7E
330
12E76
100
AcDbEntity
  8
1
  6
Continuous
100
AcDbLine
 10
490.882076
 20
776.849816
 30
0.0
 11
795.882076
 21
776.849816
 31
0.0
  0
CIRCLE
  5
12F7F
330
12E76
100
AcDbEntity
  8
1
  6
Continuous
100
AcDbCircle
 10
766.882076
 20
765.349816
 30
0.0
 40
2.0
  0
CIRCLE
  5
12F80
330
12E76
100
AcDbEntity
  8
1
  6
Continuous
100
AcDbCircle
 10
781.882076
 20
765.349816
 30
0.0
 40
3.0
  0
CIRCLE
  5
12F81
330
12E76
100
AcDbEntity
  8
1
  6
Continuous
100
AcDbCircle
 10
781.882076
 20
765.349816
 30
0.0
 40
4.299999999999998
  0
CIRCLE
  5
12F82
330
12E76
100
AcDbEntity
  8
1
  6
Continuous
100
AcDbCircle
 10
663.8820759999997
 20
765.349816
 30
0.0
 40
4.299999999999998
  0
CIRCLE
  5
12F83
330
12E76
100
AcDbEntity
  8
1
  6
Continuous
100
AcDbCircle
 10
663.8820759999997
 20
765.349816
 30
0.0
 40
3.0
  0
CIRCLE
  5
12F84
330
12E76
100
AcDbEntity
  8
1
  6
Continuous
100
AcDbCircle
 10
545.882076
 20
765.349816
 30
0.0
 40
3.0
  0
CIRCLE
  5
12F85
330
12E76
100
AcDbEntity
  8
1
  6
Continuous
100
AcDbCircle
 10
545.882076
 20
765.349816
 30
0.0
 40
4.299999999999998
  0
LINE
  5
12F86
330
12E76
100
AcDbEntity
  8
1
  6
Continuous
100
AcDbLine
 10
490.882076
 20
671.849816
 30
0.0
 11
90.882076
 21
671.849816
 31
0.0
  0
LINE
  5
12F87
330
12E76
100
AcDbEntity
  8
1
  6
Continuous
100
AcDbLine
 10
490.882076
 20
670.249816
 30
0.0
 11
468.8820759999998
 21
670.249816
 31
0.0
  0
LINE
  5
12F88
330
12E76
100
AcDbEntity
  8
1
  6
Continuous
100
AcDbLine
 10
490.882076
 20
670.249816
 30
0.0
 11
490.882076
 21
671.849816
 31
0.0
  0
LINE
  5
12F89
330
12E76
100
AcDbEntity
  8
1
  6
Continuous
100
AcDbLine
 10
490.382076
 20
669.249816
 30
0.0
 11
469.382076
 21
669.249816
 31
0.0
  0
ARC
  5
12F8A
330
12E76
100
AcDbEntity
  8
1
  6
Continuous
100
AcDbCircle
 10
490.382076
 20
668.749816
 30
0.0
 40
0.5
100
AcDbArc
 50
0.0
 51
90.0
  0
LINE
  5
12F8B
330
12E76
100
AcDbEntity
  8
1
  6
Continuous
100
AcDbLine
 10
490.882076
 20
667.849816
 30
0.0
 11
490.882076
 21
668.749816
 31
0.0
  0
LINE
  5
12F8C
330
12E76
100
AcDbEntity
  8
3
  6
DASHED
100
AcDbLine
 10
468.8820759999998
 20
666.849816
 30
0.0
 11
468.8820759999998
 21
667.849816
 31
0.0
  0
ARC
  5
12F8D
330
12E76
100
AcDbEntity
  8
1
  6
Continuous
100
AcDbCircle
 10
469.382076
 20
668.749816
 30
0.0
 40
0.5
100
AcDbArc
 50
90.0
 51
180.0
  0
LINE
  5
12F8E
330
12E76
100
AcDbEntity
  8
4
  6
CENTER
100
AcDbLine
 10
470.882076
 20
675.046399
 30
0.0
 11
470.882076
 21
667.046399
 31
0.0
  0
LINE
  5
12F8F
330
12E76
100
AcDbEntity
  8
4
  6
CENTER
100
AcDbLine
 10
458.8820759999999
 20
675.046399
 30
0.0
 11
458.8820759999999
 21
667.046399
 31
0.0
  0
LINE
  5
12F90
330
12E76
100
AcDbEntity
  8
4
  6
CENTER
100
AcDbLine
 10
479.8820759999999
 20
658.395608
 30
0.0
 11
479.8820759999999
 21
676.349816
 31
0.0
  0
LINE
  5
12F91
330
12E76
100
AcDbEntity
  8
1
  6
Continuous
100
AcDbLine
 10
475.1320759999998
 20
669.749816
 30
0.0
 11
475.1320759999998
 21
669.249816
 31
0.0
  0
LINE
  5
12F92
330
12E76
100
AcDbEntity
  8
1
  6
Continuous
100
AcDbLine
 10
484.632076
 20
669.749816
 30
0.0
 11
484.632076
 21
669.249816
 31
0.0
  0
LINE
  5
12F93
330
12E76
100
AcDbEntity
  8
1
  6
Continuous
100
AcDbLine
 10
483.532076
 20
672.5498159999999
 30
0.0
 11
482.8320759999998
 21
671.849816
 31
0.0
  0
LINE
  5
12F94
330
12E76
100
AcDbEntity
  8
1
  6
Continuous
100
AcDbLine
 10
476.2320759999998
 20
672.5498159999999
 30
0.0
 11
476.932076
 21
671.849816
 31
0.0
  0
LINE
  5
12F95
330
12E76
100
AcDbEntity
  8
1
  6
Continuous
100
AcDbLine
 10
483.532076
 20
672.5498159999999
 30
0.0
 11
476.2320759999998
 21
672.5498159999999
 31
0.0
  0
LINE
  5
12F96
330
12E76
100
AcDbEntity
  8
1
  6
Continuous
100
AcDbLine
 10
475.1320759999998
 20
669.749816
 30
0.0
 11
484.632076
 21
669.749816
 31
0.0
  0
LINE
  5
12F97
330
12E76
100
AcDbEntity
  8
1
  6
Continuous
100
AcDbLine
 10
475.1320759999998
 20
669.749816
 30
0.0
 11
475.632076
 21
670.249816
 31
0.0
  0
LINE
  5
12F98
330
12E76
100
AcDbEntity
  8
1
  6
Continuous
100
AcDbLine
 10
484.632076
 20
669.749816
 30
0.0
 11
484.132076
 21
670.249816
 31
0.0
  0
LINE
  5
12F99
330
12E76
100
AcDbEntity
  8
1
  6
Continuous
100
AcDbLine
 10
416.882076
 20
669.849816
 30
0.0
 11
416.882076
 21
663.849816
 31
0.0
  0
LINE
  5
12F9A
330
12E76
100
AcDbEntity
  8
1
  6
Continuous
100
AcDbLine
 10
409.8820759999998
 20
663.849816
 30
0.0
 11
409.8820759999998
 21
671.849816
 31
0.0
  0
LINE
  5
12F9B
330
12E76
100
AcDbEntity
  8
1
  6
Continuous
100
AcDbLine
 10
423.882076
 20
663.849816
 30
0.0
 11
423.882076
 21
671.849816
 31
0.0
  0
LINE
  5
12F9C
330
12E76
100
AcDbEntity
  8
4
  6
CENTER
100
AcDbLine
 10
416.882076
 20
663.296925
 30
0.0
 11
416.882076
 21
674.8831199999997
 31
0.0
  0
LINE
  5
12F9D
330
12E76
100
AcDbEntity
  8
1
  6
Continuous
100
AcDbLine
 10
423.882076
 20
669.849816
 30
0.0
 11
409.8820759999998
 21
669.849816
 31
0.0
  0
LINE
  5
12F9E
330
12E76
100
AcDbEntity
  8
1
  6
Continuous
100
AcDbLine
 10
423.882076
 20
670.249816
 30
0.0
 11
409.8820759999998
 21
670.249816
 31
0.0
  0
LINE
  5
12F9F
330
12E76
100
AcDbEntity
  8
4
  6
CENTER
100
AcDbLine
 10
340.8820759999999
 20
675.046399
 30
0.0
 11
340.8820759999999
 21
667.046399
 31
0.0
  0
LINE
  5
12FA0
330
12E76
100
AcDbEntity
  8
4
  6
CENTER
100
AcDbLine
 10
222.882076
 20
675.046399
 30
0.0
 11
222.882076
 21
667.046399
 31
0.0
  0
LINE
  5
12FA1
330
12E76
100
AcDbEntity
  8
4
  6
CENTER
100
AcDbLine
 10
104.8820759999999
 20
675.046399
 30
0.0
 11
104.8820759999999
 21
667.046399
 31
0.0
  0
LINE
  5
12FA2
330
12E76
100
AcDbEntity
  8
4
  6
CENTER
100
AcDbLine
 10
119.882076
 20
675.046399
 30
0.0
 11
119.882076
 21
667.046399
 31
0.0
  0
LINE
  5
12FA3
330
12E76
100
AcDbEntity
  8
3
  6
DASHED
100
AcDbLine
 10
465.882076
 20
663.849816
 30
0.0
 11
445.882076
 21
663.849816
 31
0.0
  0
ARC
  5
12FA4
330
12E76
100
AcDbEntity
  8
1
  6
Continuous
100
AcDbCircle
 10
93.88207599999999
 20
666.849816
 30
0.0
 40
3.0
100
AcDbArc
 50
180.0
 51
270.0
  0
LINE
  5
12FA5
330
12E76
100
AcDbEntity
  8
1
  6
Continuous
100
AcDbLine
 10
90.882076
 20
666.849816
 30
0.0
 11
90.882076
 21
671.849816
 31
0.0
  0
ARC
  5
12FA6
330
12E76
100
AcDbEntity
  8
3
  6
DASHED
100
AcDbCircle
 10
465.882076
 20
666.849816
 30
0.0
 40
3.0
100
AcDbArc
 50
270.0
 51
0.0
  0
LINE
  5
12FA7
330
12E76
100
AcDbEntity
  8
1
  6
Continuous
100
AcDbLine
 10
468.8820759999998
 20
667.849816
 30
0.0
 11
468.8820759999998
 21
671.849816
 31
0.0
  0
LINE
  5
12FA8
330
12E76
100
AcDbEntity
  8
1
  6
Continuous
100
AcDbLine
 10
445.882076
 20
663.849816
 30
0.0
 11
93.88207599999999
 21
663.849816
 31
0.0
  0
LINE
  5
12FA9
330
12E76
100
AcDbEntity
  8
4
  6
CENTER
100
AcDbLine
 10
416.882076
 20
755.430289
 30
0.0
 11
416.882076
 21
764.095005
 31
0.0
  0
LINE
  5
12FAA
330
12E76
100
AcDbEntity
  8
1
  6
Continuous
100
AcDbLine
 10
395.882076
 20
557.849816
 30
0.0
 11
395.882076
 21
574.849816
 31
0.0
  0
LINE
  5
12FAB
330
12E76
100
AcDbEntity
  8
3
  6
DASHED
100
AcDbLine
 10
423.882076
 20
573.4498160000002
 30
0.0
 11
468.8820759999998
 21
573.4498160000002
 31
0.0
  0
LINE
  5
12FAC
330
12E76
100
AcDbEntity
  8
3
  6
DASHED
100
AcDbLine
 10
409.8820759999998
 20
571.4498160000001
 30
0.0
 11
410.7056059999998
 21
571.4498160000001
 31
0.0
  0
LINE
  5
12FAD
330
12E76
100
AcDbEntity
  8
3
  6
DASHED
100
AcDbLine
 10
409.8820759999998
 20
571.849816
 30
0.0
 11
409.8820759999998
 21
571.4498160000001
 31
0.0
  0
LINE
  5
12FAE
330
12E76
100
AcDbEntity
  8
3
  6
DASHED
100
AcDbLine
 10
416.882076
 20
568.4498160000003
 30
0.0
 11
409.8820759999998
 21
571.849816
 31
0.0
  0
LINE
  5
12FAF
330
12E76
100
AcDbEntity
  8
3
  6
DASHED
100
AcDbLine
 10
416.882076
 20
570.0498159999997
 30
0.0
 11
409.8820759999998
 21
573.4498160000002
 31
0.0
  0
LINE
  5
12FB0
330
12E76
100
AcDbEntity
  8
3
  6
DASHED
100
AcDbLine
 10
423.882076
 20
571.849816
 30
0.0
 11
423.882076
 21
571.4498160000001
 31
0.0
  0
LINE
  5
12FB1
330
12E76
100
AcDbEntity
  8
3
  6
DASHED
100
AcDbLine
 10
416.882076
 20
568.4498160000003
 30
0.0
 11
423.882076
 21
571.849816
 31
0.0
  0
LINE
  5
12FB2
330
12E76
100
AcDbEntity
  8
3
  6
DASHED
100
AcDbLine
 10
416.882076
 20
570.0498159999997
 30
0.0
 11
423.882076
 21
573.4498160000002
 31
0.0
  0
LINE
  5
12FB3
330
12E76
100
AcDbEntity
  8
3
  6
DASHED
100
AcDbLine
 10
468.8820759999998
 20
571.849816
 30
0.0
 11
468.8820759999998
 21
573.4498160000002
 31
0.0
  0
ARC
  5
12FB4
330
12E76
100
AcDbEntity
  8
3
  6
DASHED
100
AcDbCircle
 10
487.8820759999999
 20
568.849816
 30
0.0
 40
3.0
100
AcDbArc
 50
0.0
 51
61.024143
  0
LINE
  5
12FB5
330
12E76
100
AcDbEntity
  8
3
  6
DASHED
100
AcDbLine
 10
490.882076
 20
554.849816
 30
0.0
 11
490.882076
 21
568.849816
 31
0.0
  0
LINE
  5
12FB6
330
12E76
100
AcDbEntity
  8
1
  6
Continuous
100
AcDbLine
 10
413.2066309999998
 20
551.849816
 30
0.0
 11
487.8820759999999
 21
551.849816
 31
0.0
  0
ARC
  5
12FB7
330
12E76
100
AcDbEntity
  8
1
  6
Continuous
100
AcDbCircle
 10
487.8820759999999
 20
554.849816
 30
0.0
 40
3.0
100
AcDbArc
 50
270.0
 51
327.769047
  0
ARC
  5
12FB8
330
12E76
100
AcDbEntity
  8
3
  6
DASHED
100
AcDbCircle
 10
487.8820759999999
 20
554.849816
 30
0.0
 40
3.0
100
AcDbArc
 50
327.769047
 51
0.0
  0
CIRCLE
  5
12FB9
330
12E76
100
AcDbEntity
  8
3
  6
DASHED
100
AcDbCircle
 10
479.8820759999999
 20
565.849816
 30
0.0
 40
11.0
  0
LINE
  5
12FBA
330
12E76
100
AcDbEntity
  8
3
  6
DASHED
100
AcDbLine
 10
395.882076
 20
573.4498160000002
 30
0.0
 11
409.8820759999998
 21
573.4498160000002
 31
0.0
  0
LINE
  5
12FBB
330
12E76
100
AcDbEntity
  8
3
  6
DASHED
100
AcDbLine
 10
423.0585469999998
 20
571.4498160000001
 30
0.0
 11
423.882076
 21
571.4498160000001
 31
0.0
  0
LINE
  5
12FBC
330
12E76
100
AcDbEntity
  8
3
  6
DASHED
100
AcDbLine
 10
413.999723
 20
571.4498160000001
 30
0.0
 11
419.764429
 21
571.4498160000001
 31
0.0
  0
LINE
  5
12FBD
330
12E76
100
AcDbEntity
  8
3
  6
DASHED
100
AcDbLine
 10
395.882076
 20
571.849816
 30
0.0
 11
409.8820759999998
 21
571.849816
 31
0.0
  0
LINE
  5
12FBE
330
12E76
100
AcDbEntity
  8
3
  6
DASHED
100
AcDbLine
 10
423.882076
 20
571.849816
 30
0.0
 11
470.662532
 21
571.849816
 31
0.0
  0
LINE
  5
12FBF
330
12E76
100
AcDbEntity
  8
4
  6
CENTER
100
AcDbLine
 10
479.8820759999999
 20
551.849816
 30
0.0
 11
479.8820759999999
 21
579.849816
 31
0.0
  0
LINE
  5
12FC0
330
12E76
100
AcDbEntity
  8
1
  6
Continuous
100
AcDbLine
 10
795.882076
 20
471.4498159999997
 30
0.0
 11
395.882076
 21
471.4498159999997
 31
0.0
  0
LINE
  5
12FC1
330
12E76
100
AcDbEntity
  8
1
  6
Continuous
100
AcDbLine
 10
792.8820759999996
 20
463.4498159999998
 30
0.0
 11
420.882076
 21
463.4498159999998
 31
0.0
  0
LINE
  5
12FC2
330
12E76
100
AcDbEntity
  8
1
  6
Continuous
100
AcDbLine
 10
395.882076
 20
467.4498159999997
 30
0.0
 11
93.88207599999999
 21
467.4498159999997
 31
0.0
  0
LINE
  5
12FC3
330
12E76
100
AcDbEntity
  8
1
  6
Continuous
100
AcDbLine
 10
490.882076
 20
459.4498159999998
 30
0.0
 11
90.882076
 21
459.4498159999998
 31
0.0
  0
LINE
  5
12FC4
330
12E76
100
AcDbEntity
  8
1
  6
Continuous
100
AcDbLine
 10
90.882076
 20
464.449816
 30
0.0
 11
90.882076
 21
459.4498159999998
 31
0.0
  0
ARC
  5
12FC5
330
12E76
100
AcDbEntity
  8
1
  6
Continuous
100
AcDbCircle
 10
93.88207599999999
 20
464.449816
 30
0.0
 40
3.0
100
AcDbArc
 50
90.0
 51
180.0
  0
LINE
  5
12FC6
330
12E76
100
AcDbEntity
  8
4
  6
CENTER
100
AcDbLine
 10
119.882076
 20
456.253233
 30
0.0
 11
119.882076
 21
464.253233
 31
0.0
  0
LINE
  5
12FC7
330
12E76
100
AcDbEntity
  8
4
  6
CENTER
100
AcDbLine
 10
104.8820759999999
 20
456.253233
 30
0.0
 11
104.8820759999999
 21
464.253233
 31
0.0
  0
LINE
  5
12FC8
330
12E76
100
AcDbEntity
  8
4
  6
CENTER
100
AcDbLine
 10
222.882076
 20
456.253233
 30
0.0
 11
222.882076
 21
464.253233
 31
0.0
  0
LINE
  5
12FC9
330
12E76
100
AcDbEntity
  8
3
  6
DASHED
100
AcDbLine
 10
465.882076
 20
467.4498159999997
 30
0.0
 11
395.882076
 21
467.4498159999997
 31
0.0
  0
LINE
  5
12FCA
330
12E76
100
AcDbEntity
  8
1
  6
Continuous
100
AcDbLine
 10
417.3820759999999
 20
468.8498159999999
 30
0.0
 11
396.3820759999999
 21
468.8498159999999
 31
0.0
  0
LINE
  5
12FCB
330
12E76
100
AcDbEntity
  8
1
  6
Continuous
100
AcDbLine
 10
417.8820759999998
 20
469.8498159999998
 30
0.0
 11
395.882076
 21
469.8498159999998
 31
0.0
  0
LINE
  5
12FCC
330
12E76
100
AcDbEntity
  8
4
  6
CENTER
100
AcDbLine
 10
340.8820759999999
 20
456.253233
 30
0.0
 11
340.8820759999999
 21
464.253233
 31
0.0
  0
LINE
  5
12FCD
330
12E76
100
AcDbEntity
  8
1
  6
Continuous
100
AcDbLine
 10
395.882076
 20
468.349816
 30
0.0
 11
395.882076
 21
462.3498159999998
 31
0.0
  0
ARC
  5
12FCE
330
12E76
100
AcDbEntity
  8
1
  6
Continuous
100
AcDbCircle
 10
396.3820759999999
 20
468.349816
 30
0.0
 40
0.5
100
AcDbArc
 50
90.0
 51
180.0
  0
LINE
  5
12FCF
330
12E76
100
AcDbEntity
  8
1
  6
Continuous
100
AcDbLine
 10
395.882076
 20
471.4498159999997
 30
0.0
 11
395.882076
 21
469.8498159999998
 31
0.0
  0
LINE
  5
12FD0
330
12E76
100
AcDbEntity
  8
1
  6
Continuous
100
AcDbLine
 10
416.882076
 20
461.449816
 30
0.0
 11
416.882076
 21
461.8498159999998
 31
0.0
  0
LINE
  5
12FD1
330
12E76
100
AcDbEntity
  8
1
  6
Continuous
100
AcDbLine
 10
409.8820759999998
 20
461.8498159999998
 30
0.0
 11
409.8820759999998
 21
461.049816
 31
0.0
  0
LINE
  5
12FD2
330
12E76
100
AcDbEntity
  8
3
  6
DASHED
100
AcDbLine
 10
423.882076
 20
467.4498159999997
 30
0.0
 11
423.882076
 21
463.4498159999998
 31
0.0
  0
LINE
  5
12FD3
330
12E76
100
AcDbEntity
  8
4
  6
CENTER
100
AcDbLine
 10
416.882076
 20
468.002707
 30
0.0
 11
416.882076
 21
456.416512
 31
0.0
  0
LINE
  5
12FD4
330
12E76
100
AcDbEntity
  8
4
  6
CENTER
100
AcDbLine
 10
426.8820759999998
 20
456.253233
 30
0.0
 11
426.8820759999998
 21
464.253233
 31
0.0
  0
LINE
  5
12FD5
330
12E76
100
AcDbEntity
  8
4
  6
CENTER
100
AcDbLine
 10
411.882076
 20
456.253233
 30
0.0
 11
411.882076
 21
464.253233
 31
0.0
  0
LINE
  5
12FD6
330
12E76
100
AcDbEntity
  8
4
  6
CENTER
100
AcDbLine
 10
406.8820759999998
 20
458.030046
 30
0.0
 11
406.8820759999998
 21
475.9498159999998
 31
0.0
  0
LINE
  5
12FD7
330
12E76
100
AcDbEntity
  8
4
  6
CENTER
100
AcDbLine
 10
415.882076
 20
466.737296
 30
0.0
 11
415.882076
 21
474.7372959999998
 31
0.0
  0
LINE
  5
12FD8
330
12E76
100
AcDbEntity
  8
1
  6
Continuous
100
AcDbLine
 10
410.5320759999998
 20
472.149816
 30
0.0
 11
409.832076
 21
471.4498159999997
 31
0.0
  0
LINE
  5
12FD9
330
12E76
100
AcDbEntity
  8
1
  6
Continuous
100
AcDbLine
 10
403.2320759999998
 20
472.149816
 30
0.0
 11
403.9320759999998
 21
471.4498159999997
 31
0.0
  0
LINE
  5
12FDA
330
12E76
100
AcDbEntity
  8
1
  6
Continuous
100
AcDbLine
 10
410.5320759999998
 20
472.149816
 30
0.0
 11
403.2320759999998
 21
472.149816
 31
0.0
  0
LINE
  5
12FDB
330
12E76
100
AcDbEntity
  8
1
  6
Continuous
100
AcDbLine
 10
402.132076
 20
469.3498159999998
 30
0.0
 11
411.6320759999998
 21
469.3498159999998
 31
0.0
  0
LINE
  5
12FDC
330
12E76
100
AcDbEntity
  8
1
  6
Continuous
100
AcDbLine
 10
411.6320759999998
 20
469.3498159999998
 30
0.0
 11
411.6320759999998
 21
468.8498159999999
 31
0.0
  0
LINE
  5
12FDD
330
12E76
100
AcDbEntity
  8
1
  6
Continuous
100
AcDbLine
 10
411.6320759999998
 20
469.3498159999998
 30
0.0
 11
411.1320759999999
 21
469.8498159999998
 31
0.0
  0
LINE
  5
12FDE
330
12E76
100
AcDbEntity
  8
1
  6
Continuous
100
AcDbLine
 10
402.132076
 20
469.3498159999998
 30
0.0
 11
402.132076
 21
468.8498159999999
 31
0.0
  0
LINE
  5
12FDF
330
12E76
100
AcDbEntity
  8
1
  6
Continuous
100
AcDbLine
 10
402.132076
 20
469.3498159999998
 30
0.0
 11
402.6320759999999
 21
469.8498159999998
 31
0.0
  0
ARC
  5
12FE0
330
12E76
100
AcDbEntity
  8
1
  6
Continuous
100
AcDbCircle
 10
417.3820759999999
 20
468.349816
 30
0.0
 40
0.5
100
AcDbArc
 50
0.0
 51
90.0
  0
LINE
  5
12FE1
330
12E76
100
AcDbEntity
  8
1
  6
Continuous
100
AcDbLine
 10
417.8820759999998
 20
471.4498159999997
 30
0.0
 11
417.8820759999998
 21
462.3498159999998
 31
0.0
  0
LINE
  5
12FE2
330
12E76
100
AcDbEntity
  8
4
  6
CENTER
100
AcDbLine
 10
427.882076
 20
466.737296
 30
0.0
 11
427.882076
 21
474.7372959999998
 31
0.0
  0
LINE
  5
12FE3
330
12E76
100
AcDbEntity
  8
1
  6
Continuous
100
AcDbLine
 10
423.882076
 20
461.049816
 30
0.0
 11
409.8820759999998
 21
461.049816
 31
0.0
  0
LINE
  5
12FE4
330
12E76
100
AcDbEntity
  8
1
  6
Continuous
100
AcDbLine
 10
423.882076
 20
461.449816
 30
0.0
 11
409.8820759999998
 21
461.449816
 31
0.0
  0
LINE
  5
12FE5
330
12E76
100
AcDbEntity
  8
1
  6
Continuous
100
AcDbLine
 10
490.882076
 20
461.049816
 30
0.0
 11
90.882076
 21
461.049816
 31
0.0
  0
LINE
  5
12FE6
330
12E76
100
AcDbEntity
  8
1
  6
Continuous
100
AcDbLine
 10
490.382076
 20
462.049816
 30
0.0
 11
469.382076
 21
462.049816
 31
0.0
  0
LINE
  5
12FE7
330
12E76
100
AcDbEntity
  8
1
  6
Continuous
100
AcDbLine
 10
468.8820759999998
 20
463.4498159999998
 30
0.0
 11
468.8820759999998
 21
461.049816
 31
0.0
  0
LINE
  5
12FE8
330
12E76
100
AcDbEntity
  8
4
  6
CENTER
100
AcDbLine
 10
458.8820759999999
 20
456.253233
 30
0.0
 11
458.8820759999999
 21
464.253233
 31
0.0
  0
LINE
  5
12FE9
330
12E76
100
AcDbEntity
  8
4
  6
CENTER
100
AcDbLine
 10
470.882076
 20
456.253233
 30
0.0
 11
470.882076
 21
464.253233
 31
0.0
  0
LINE
  5
12FEA
330
12E76
100
AcDbEntity
  8
3
  6
DASHED
100
AcDbLine
 10
468.8820759999998
 20
464.449816
 30
0.0
 11
468.8820759999998
 21
463.4498159999998
 31
0.0
  0
ARC
  5
12FEB
330
12E76
100
AcDbEntity
  8
3
  6
DASHED
100
AcDbCircle
 10
465.882076
 20
464.449816
 30
0.0
 40
3.0
100
AcDbArc
 50
0.0
 51
90.0
  0
ARC
  5
12FEC
330
12E76
100
AcDbEntity
  8
1
  6
Continuous
100
AcDbCircle
 10
469.382076
 20
462.549816
 30
0.0
 40
0.5
100
AcDbArc
 50
180.0
 51
270.0
  0
LINE
  5
12FED
330
12E76
100
AcDbEntity
  8
1
  6
Continuous
100
AcDbLine
 10
484.632076
 20
461.549816
 30
0.0
 11
484.632076
 21
462.049816
 31
0.0
  0
LINE
  5
12FEE
330
12E76
100
AcDbEntity
  8
1
  6
Continuous
100
AcDbLine
 10
475.1320759999998
 20
461.549816
 30
0.0
 11
475.1320759999998
 21
462.049816
 31
0.0
  0
LINE
  5
12FEF
330
12E76
100
AcDbEntity
  8
4
  6
CENTER
100
AcDbLine
 10
479.8820759999999
 20
472.904023
 30
0.0
 11
479.8820759999999
 21
454.9498159999997
 31
0.0
  0
LINE
  5
12FF0
330
12E76
100
AcDbEntity
  8
1
  6
Continuous
100
AcDbLine
 10
490.882076
 20
463.4498159999998
 30
0.0
 11
490.882076
 21
462.549816
 31
0.0
  0
ARC
  5
12FF1
330
12E76
100
AcDbEntity
  8
1
  6
Continuous
100
AcDbCircle
 10
490.382076
 20
462.549816
 30
0.0
 40
0.5
100
AcDbArc
 50
270.0
 51
0.0
  0
LINE
  5
12FF2
330
12E76
100
AcDbEntity
  8
1
  6
Continuous
100
AcDbLine
 10
484.632076
 20
461.549816
 30
0.0
 11
484.132076
 21
461.049816
 31
0.0
  0
LINE
  5
12FF3
330
12E76
100
AcDbEntity
  8
1
  6
Continuous
100
AcDbLine
 10
475.1320759999998
 20
461.549816
 30
0.0
 11
475.632076
 21
461.049816
 31
0.0
  0
LINE
  5
12FF4
330
12E76
100
AcDbEntity
  8
1
  6
Continuous
100
AcDbLine
 10
475.1320759999998
 20
461.549816
 30
0.0
 11
484.632076
 21
461.549816
 31
0.0
  0
LINE
  5
12FF5
330
12E76
100
AcDbEntity
  8
1
  6
Continuous
100
AcDbLine
 10
483.532076
 20
458.7498159999998
 30
0.0
 11
476.2320759999998
 21
458.7498159999998
 31
0.0
  0
LINE
  5
12FF6
330
12E76
100
AcDbEntity
  8
1
  6
Continuous
100
AcDbLine
 10
476.2320759999998
 20
458.7498159999998
 30
0.0
 11
476.932076
 21
459.4498159999998
 31
0.0
  0
LINE
  5
12FF7
330
12E76
100
AcDbEntity
  8
1
  6
Continuous
100
AcDbLine
 10
483.532076
 20
458.7498159999998
 30
0.0
 11
482.8320759999998
 21
459.4498159999998
 31
0.0
  0
LINE
  5
12FF8
330
12E76
100
AcDbEntity
  8
1
  6
Continuous
100
AcDbLine
 10
490.882076
 20
461.049816
 30
0.0
 11
490.882076
 21
459.4498159999998
 31
0.0
  0
LINE
  5
12FF9
330
12E76
100
AcDbEntity
  8
4
  6
CENTER
100
AcDbLine
 10
545.882076
 20
466.737296
 30
0.0
 11
545.882076
 21
474.7372959999998
 31
0.0
  0
LINE
  5
12FFA
330
12E76
100
AcDbEntity
  8
4
  6
CENTER
100
AcDbLine
 10
663.8820759999997
 20
466.737296
 30
0.0
 11
663.8820759999997
 21
474.7372959999998
 31
0.0
  0
LINE
  5
12FFB
330
12E76
100
AcDbEntity
  8
4
  6
CENTER
100
AcDbLine
 10
781.882076
 20
466.737296
 30
0.0
 11
781.882076
 21
474.7372959999998
 31
0.0
  0
LINE
  5
12FFC
330
12E76
100
AcDbEntity
  8
4
  6
CENTER
100
AcDbLine
 10
766.882076
 20
466.737296
 30
0.0
 11
766.882076
 21
474.7372959999998
 31
0.0
  0
LINE
  5
12FFD
330
12E76
100
AcDbEntity
  8
1
  6
Continuous
100
AcDbLine
 10
795.882076
 20
471.4498159999997
 30
0.0
 11
795.882076
 21
466.4498159999998
 31
0.0
  0
ARC
  5
12FFE
330
12E76
100
AcDbEntity
  8
1
  6
Continuous
100
AcDbCircle
 10
792.8820759999996
 20
466.4498159999998
 30
0.0
 40
3.0
100
AcDbArc
 50
270.0
 51
0.0
  0
ARC
  5
12FFF
330
12E76
100
AcDbEntity
  8
1
  6
Continuous
100
AcDbCircle
 10
420.882076
 20
466.4498159999998
 30
0.0
 40
3.0
100
AcDbArc
 50
180.0
 51
270.0
  0
LINE
  5
13000
330
12E76
100
AcDbEntity
  8
1
  6
Continuous
100
AcDbLine
 10
423.882076
 20
463.4498159999998
 30
0.0
 11
423.882076
 21
461.049816
 31
0.0
  0
LINE
  5
13001
330
12E76
100
AcDbEntity
  8
1
  6
Continuous
100
AcDbLine
 10
417.3820759999999
 20
461.8498159999998
 30
0.0
 11
396.3820759999999
 21
461.8498159999998
 31
0.0
  0
ARC
  5
13002
330
12E76
100
AcDbEntity
  8
1
  6
Continuous
100
AcDbCircle
 10
417.3820759999999
 20
462.3498159999998
 30
0.0
 40
0.5
100
AcDbArc
 50
270.0
 51
0.0
  0
ARC
  5
13003
330
12E76
100
AcDbEntity
  8
1
  6
Continuous
100
AcDbCircle
 10
396.3820759999999
 20
462.3498159999998
 30
0.0
 40
0.5
100
AcDbArc
 50
180.0
 51
270.0
  0
ARC
  5
13004
330
12E76
100
AcDbEntity
  8
3
  6
DASHED
100
AcDbCircle
 10
406.8820759999998
 20
770.849816
 30
0.0
 40
11.0
100
AcDbArc
 50
125.096801
 51
54.903199
  0
ARC
  5
13005
330
12E76
100
AcDbEntity
  8
3
  6
DASHED
100
AcDbCircle
 10
479.8820759999999
 20
765.849816
 30
0.0
 40
11.0
100
AcDbArc
 50
329.2484979999999
 51
213.0557309999999
  0
ARC
  5
13006
330
12E76
100
AcDbEntity
  8
3
  6
DASHED
100
AcDbCircle
 10
406.8820759999998
 20
560.849816
 30
0.0
 40
11.0
100
AcDbArc
 50
326.944269
 51
21.052718
  0
ARC
  5
13007
330
12E76
100
AcDbEntity
  8
3
  6
DASHED
100
AcDbCircle
 10
406.8820759999998
 20
560.849816
 30
0.0
 40
11.0
100
AcDbArc
 50
41.806413
 51
210.751502
  0
LINE
  5
13008
330
12E76
100
AcDbEntity
  8
4
  6
CENTER
100
AcDbLine
 10
470.882076
 20
566.349816
 30
0.0
 11
470.882076
 21
557.349816
 31
0.0
  0
LINE
  5
13009
330
12E76
100
AcDbEntity
  8
4
  6
CENTER
100
AcDbLine
 10
458.8820759999999
 20
567.849816
 30
0.0
 11
458.8820759999999
 21
555.849816
 31
0.0
  0
LINE
  5
1300A
330
12E76
100
AcDbEntity
  8
4
  6
CENTER
100
AcDbLine
 10
493.78497
 20
565.849816
 30
0.0
 11
465.7849699999998
 21
565.849816
 31
0.0
  0
LINE
  5
1300B
330
12E76
100
AcDbEntity
  8
4
  6
CENTER
100
AcDbLine
 10
84.17394899999996
 20
561.849816
 30
0.0
 11
803.354646
 21
561.849816
 31
0.0
  0
LINE
  5
1300C
330
12E76
100
AcDbEntity
  8
1
  6
Continuous
100
AcDbLine
 10
445.882076
 20
334.2999999999999
 30
0.0
 11
795.882076
 21
334.2999999999999
 31
0.0
  0
LINE
  5
1300D
330
12E76
100
AcDbEntity
  8
1
  6
Continuous
100
AcDbLine
 10
417.8820759999998
 20
360.4999999999998
 30
0.0
 11
795.882076
 21
360.4999999999998
 31
0.0
  0
LINE
  5
1300E
330
12E76
100
AcDbEntity
  8
4
  6
CENTER
100
AcDbLine
 10
390.8820759999999
 20
347.3999999999999
 30
0.0
 11
800.882076
 21
347.3999999999999
 31
0.0
  0
LINE
  5
1300F
330
12E76
100
AcDbEntity
  8
4
  6
CENTER
100
AcDbLine
 10
84.17394899999996
 20
351.8999999999999
 30
0.0
 11
496.477576
 21
351.8999999999999
 31
0.0
  0
LINE
  5
13010
330
12E76
100
AcDbEntity
  8
1
  6
Continuous
100
AcDbLine
 10
490.882076
 20
136.8999999999997
 30
0.0
 11
795.882076
 21
136.8999999999997
 31
0.0
  0
LINE
  5
13011
330
12E76
100
AcDbEntity
  8
1
  6
Continuous
100
AcDbLine
 10
490.4197919999998
 20
135.3
 30
0.0
 11
795.882076
 21
135.3
 31
0.0
  0
LINE
  5
13012
330
12E76
100
AcDbEntity
  8
1
  6
Continuous
100
AcDbLine
 10
398.8820759999999
 20
159.9
 30
0.0
 11
795.882076
 21
159.9
 31
0.0
  0
LINE
  5
13013
330
12E76
100
AcDbEntity
  8
4
  6
CENTER
100
AcDbLine
 10
390.8820759999999
 20
148.3999999999998
 30
0.0
 11
800.882076
 21
148.3999999999998
 31
0.0
  0
LINE
  5
13014
330
12E76
100
AcDbEntity
  8
1
  6
Continuous
100
AcDbLine
 10
445.882076
 20
161.5
 30
0.0
 11
795.882076
 21
161.5
 31
0.0
  0
LINE
  5
13015
330
12E76
100
AcDbEntity
  8
1
  6
Continuous
100
AcDbLine
 10
795.882076
 20
253.9
 30
0.0
 11
395.882076
 21
253.9
 31
0.0
  0
LINE
  5
13016
330
12E76
100
AcDbEntity
  8
1
  6
Continuous
100
AcDbLine
 10
792.8820759999996
 20
245.9
 30
0.0
 11
448.882076
 21
245.9
 31
0.0
  0
LINE
  5
13017
330
12E76
100
AcDbEntity
  8
1
  6
Continuous
100
AcDbLine
 10
792.8820759999996
 20
49.5
 30
0.0
 11
420.882076
 21
49.5
 31
0.0
  0
LINE
  5
13018
330
12E76
100
AcDbEntity
  8
1
  6
Continuous
100
AcDbLine
 10
795.882076
 20
41.5
 30
0.0
 11
395.882076
 21
41.5
 31
0.0
  0
LINE
  5
13019
330
12E76
100
AcDbEntity
  8
1
  6
Continuous
100
AcDbLine
 10
90.882076
 20
340.3
 30
0.0
 11
395.882076
 21
340.3
 31
0.0
  0
LINE
  5
1301A
330
12E76
100
AcDbEntity
  8
1
  6
Continuous
100
AcDbLine
 10
90.882076
 20
341.9
 30
0.0
 11
395.882076
 21
341.9
 31
0.0
  0
LINE
  5
1301B
330
12E76
100
AcDbEntity
  8
1
  6
Continuous
100
AcDbLine
 10
93.88207599999999
 20
361.8999999999999
 30
0.0
 11
400.5575209999998
 21
361.8999999999999
 31
0.0
  0
LINE
  5
1301C
330
12E76
100
AcDbEntity
  8
1
  6
Continuous
100
AcDbLine
 10
490.882076
 20
51.9
 30
0.0
 11
90.882076
 21
51.9
 31
0.0
  0
LINE
  5
1301D
330
12E76
100
AcDbEntity
  8
1
  6
Continuous
100
AcDbLine
 10
490.882076
 20
53.5
 30
0.0
 11
90.882076
 21
53.5
 31
0.0
  0
LINE
  5
1301E
330
12E76
100
AcDbEntity
  8
1
  6
Continuous
100
AcDbLine
 10
395.882076
 20
45.49999999999999
 30
0.0
 11
93.88207599999999
 21
45.49999999999999
 31
0.0
  0
ARC
  5
1301F
330
12E76
100
AcDbEntity
  8
1
  6
Continuous
100
AcDbCircle
 10
93.88207599999999
 20
48.5
 30
0.0
 40
3.0
100
AcDbArc
 50
180.0
 51
270.0
  0
LINE
  5
13020
330
12E76
100
AcDbEntity
  8
1
  6
Continuous
100
AcDbLine
 10
90.882076
 20
48.5
 30
0.0
 11
90.882076
 21
53.5
 31
0.0
  0
LINE
  5
13021
330
12E76
100
AcDbEntity
  8
4
  6
CENTER
100
AcDbLine
 10
104.8820759999999
 20
56.696583
 30
0.0
 11
104.8820759999999
 21
48.69658300000001
 31
0.0
  0
LINE
  5
13022
330
12E76
100
AcDbEntity
  8
4
  6
CENTER
100
AcDbLine
 10
119.882076
 20
56.696583
 30
0.0
 11
119.882076
 21
48.69658300000001
 31
0.0
  0
LINE
  5
13023
330
12E76
100
AcDbEntity
  8
1
  6
Continuous
100
AcDbLine
 10
25.0
 20
159.9
 30
0.0
 11
25.0
 21
136.8999999999997
 31
0.0
  0
LINE
  5
13024
330
12E76
100
AcDbEntity
  8
1
  6
Continuous
100
AcDbLine
 10
26.6
 20
159.9
 30
0.0
 11
26.6
 21
136.8999999999997
 31
0.0
  0
ARC
  5
13025
330
12E76
100
AcDbEntity
  8
1
  6
Continuous
100
AcDbCircle
 10
27.9
 20
158.4
 30
0.0
 40
0.5
100
AcDbArc
 50
90.0
 51
180.0
  0
ARC
  5
13026
330
12E76
100
AcDbEntity
  8
1
  6
Continuous
100
AcDbCircle
 10
33.9
 20
158.4
 30
0.0
 40
0.5
100
AcDbArc
 50
0.0
 51
90.0
  0
LINE
  5
13027
330
12E76
100
AcDbEntity
  8
1
  6
Continuous
100
AcDbLine
 10
25.0
 20
136.8999999999997
 30
0.0
 11
27.6
 21
136.8999999999997
 31
0.0
  0
LINE
  5
13028
330
12E76
100
AcDbEntity
  8
1
  6
Continuous
100
AcDbLine
 10
26.6
 20
135.3
 30
0.0
 11
27.6
 21
135.3
 31
0.0
  0
ARC
  5
13029
330
12E76
100
AcDbEntity
  8
1
  6
Continuous
100
AcDbCircle
 10
26.6
 20
136.8999999999997
 30
0.0
 40
1.6
100
AcDbArc
 50
180.0
 51
270.0
  0
LINE
  5
1302A
330
12E76
100
AcDbEntity
  8
4
  6
CENTER
100
AcDbLine
 10
29.487133
 20
148.3999999999998
 30
0.0
 11
22.56572999999999
 21
148.3999999999998
 31
0.0
  0
LINE
  5
1302B
330
12E76
100
AcDbEntity
  8
1
  6
Continuous
100
AcDbLine
 10
27.4
 20
158.4
 30
0.0
 11
27.4
 21
147.65
 31
0.0
  0
LINE
  5
1302C
330
12E76
100
AcDbEntity
  8
1
  6
Continuous
100
AcDbLine
 10
34.39999999999999
 20
158.4
 30
0.0
 11
34.39999999999999
 21
155.4999999999998
 31
0.0
  0
ARC
  5
1302D
330
12E76
100
AcDbEntity
  8
1
  6
Continuous
100
AcDbCircle
 10
27.9
 20
137.4
 30
0.0
 40
0.5
100
AcDbArc
 50
180.0
 51
233.130102
  0
LINE
  5
1302E
330
12E76
100
AcDbEntity
  8
1
  6
Continuous
100
AcDbLine
 10
35.4
 20
152.15
 30
0.0
 11
35.4
 21
143.65
 31
0.0
  0
LINE
  5
1302F
330
12E76
100
AcDbEntity
  8
1
  6
Continuous
100
AcDbLine
 10
34.9
 20
143.1499999999998
 30
0.0
 11
34.9
 21
152.65
 31
0.0
  0
LINE
  5
13030
330
12E76
100
AcDbEntity
  8
1
  6
Continuous
100
AcDbLine
 10
34.9
 20
143.1499999999998
 30
0.0
 11
35.4
 21
143.65
 31
0.0
  0
LINE
  5
13031
330
12E76
100
AcDbEntity
  8
1
  6
Continuous
100
AcDbLine
 10
34.9
 20
152.65
 30
0.0
 11
35.4
 21
152.15
 31
0.0
  0
LINE
  5
13032
330
12E76
100
AcDbEntity
  8
1
  6
Continuous
100
AcDbLine
 10
34.9
 20
143.1499999999998
 30
0.0
 11
34.6
 21
143.1499999999998
 31
0.0
  0
LINE
  5
13033
330
12E76
100
AcDbEntity
  8
1
  6
Continuous
100
AcDbLine
 10
34.9
 20
152.65
 30
0.0
 11
34.6
 21
152.65
 31
0.0
  0
LINE
  5
13034
330
12E76
100
AcDbEntity
  8
1
  6
Continuous
100
AcDbLine
 10
27.9
 20
158.9
 30
0.0
 11
33.9
 21
158.9
 31
0.0
  0
LINE
  5
13035
330
12E76
100
AcDbEntity
  8
4
  6
CENTER
100
AcDbLine
 10
22.408002
 20
142.9
 30
0.0
 11
36.056013
 21
142.9
 31
0.0
  0
LINE
  5
13036
330
12E76
100
AcDbEntity
  8
1
  6
Continuous
100
AcDbLine
 10
27.1
 20
138.15
 30
0.0
 11
27.1
 21
147.65
 31
0.0
  0
LINE
  5
13037
330
12E76
100
AcDbEntity
  8
1
  6
Continuous
100
AcDbLine
 10
27.1
 20
138.15
 30
0.0
 11
27.6
 21
138.15
 31
0.0
  0
LINE
  5
13038
330
12E76
100
AcDbEntity
  8
1
  6
Continuous
100
AcDbLine
 10
27.1
 20
138.15
 30
0.0
 11
26.6
 21
138.65
 31
0.0
  0
ARC
  5
13039
330
12E76
100
AcDbEntity
  8
1
  6
Continuous
100
AcDbCircle
 10
28.1
 20
153.3999999999998
 30
0.0
 40
0.5
100
AcDbArc
 50
90.0
 51
180.0
  0
LINE
  5
1303A
330
12E76
100
AcDbEntity
  8
1
  6
Continuous
100
AcDbLine
 10
27.1
 20
147.65
 30
0.0
 11
27.6
 21
147.65
 31
0.0
  0
LINE
  5
1303B
330
12E76
100
AcDbEntity
  8
1
  6
Continuous
100
AcDbLine
 10
35.4
 20
153.9
 30
0.0
 11
28.1
 21
153.9
 31
0.0
  0
ARC
  5
1303C
330
12E76
100
AcDbEntity
  8
1
  6
Continuous
100
AcDbCircle
 10
34.1
 20
153.3999999999998
 30
0.0
 40
0.5
100
AcDbArc
 50
0.0
 51
90.0
  0
LINE
  5
1303D
330
12E76
100
AcDbEntity
  8
1
  6
Continuous
100
AcDbLine
 10
27.1
 20
147.65
 30
0.0
 11
26.6
 21
147.1499999999998
 31
0.0
  0
LINE
  5
1303E
330
12E76
100
AcDbEntity
  8
1
  6
Continuous
100
AcDbLine
 10
24.3
 20
146.55
 30
0.0
 11
24.3
 21
139.25
 31
0.0
  0
LINE
  5
1303F
330
12E76
100
AcDbEntity
  8
1
  6
Continuous
100
AcDbLine
 10
24.3
 20
146.55
 30
0.0
 11
25.0
 21
145.8499999999999
 31
0.0
  0
LINE
  5
13040
330
12E76
100
AcDbEntity
  8
1
  6
Continuous
100
AcDbLine
 10
24.3
 20
139.25
 30
0.0
 11
25.0
 21
139.9499999999999
 31
0.0
  0
LINE
  5
13041
330
12E76
100
AcDbEntity
  8
1
  6
Continuous
100
AcDbLine
 10
37.0
 20
133.9
 30
0.0
 11
35.4
 21
133.9
 31
0.0
  0
LINE
  5
13042
330
12E76
100
AcDbEntity
  8
1
  6
Continuous
100
AcDbLine
 10
35.4
 20
155.4999999999998
 30
0.0
 11
29.0
 21
155.4999999999998
 31
0.0
  0
LINE
  5
13043
330
12E76
100
AcDbEntity
  8
1
  6
Continuous
100
AcDbLine
 10
37.0
 20
153.9
 30
0.0
 11
37.0
 21
133.9
 31
0.0
  0
LINE
  5
13044
330
12E76
100
AcDbEntity
  8
1
  6
Continuous
100
AcDbLine
 10
35.4
 20
153.9
 30
0.0
 11
35.4
 21
133.9
 31
0.0
  0
LINE
  5
13045
330
12E76
100
AcDbEntity
  8
4
  6
CENTER
100
AcDbLine
 10
39.63852199999998
 20
143.9
 30
0.0
 11
32.71711899999999
 21
143.9
 31
0.0
  0
LINE
  5
13046
330
12E76
100
AcDbEntity
  8
1
  6
Continuous
100
AcDbLine
 10
29.0
 20
155.4999999999998
 30
0.0
 11
29.0
 21
153.9
 31
0.0
  0
ARC
  5
13047
330
12E76
100
AcDbEntity
  8
1
  6
Continuous
100
AcDbCircle
 10
35.4
 20
153.9
 30
0.0
 40
1.6
100
AcDbArc
 50
0.0
 51
90.0
  0
LINE
  5
13048
330
12E76
100
AcDbEntity
  8
4
  6
CENTER
100
AcDbLine
 10
39.63852199999998
 20
147.9
 30
0.0
 11
25.830649
 21
147.9
 31
0.0
  0
LINE
  5
13049
330
12E76
100
AcDbEntity
  8
1
  6
Continuous
100
AcDbLine
 10
37.7
 20
151.55
 30
0.0
 11
37.7
 21
144.25
 31
0.0
  0
LINE
  5
1304A
330
12E76
100
AcDbEntity
  8
1
  6
Continuous
100
AcDbLine
 10
37.7
 20
151.55
 30
0.0
 11
37.0
 21
150.8499999999999
 31
0.0
  0
LINE
  5
1304B
330
12E76
100
AcDbEntity
  8
1
  6
Continuous
100
AcDbLine
 10
37.7
 20
144.25
 30
0.0
 11
37.0
 21
144.95
 31
0.0
  0
LINE
  5
1304C
330
12E76
100
AcDbEntity
  8
1
  6
Continuous
100
AcDbLine
 10
27.4
 20
138.15
 30
0.0
 11
27.4
 21
137.4
 31
0.0
  0
LINE
  5
1304D
330
12E76
100
AcDbEntity
  8
1
  6
Continuous
100
AcDbLine
 10
34.39999999999999
 20
153.9
 30
0.0
 11
34.39999999999999
 21
153.8
 31
0.0
  0
ARC
  5
1304E
330
12E76
100
AcDbEntity
  8
1
  6
Continuous
100
AcDbCircle
 10
28.1
 20
132.4
 30
0.0
 40
0.5
100
AcDbArc
 50
180.0
 51
270.0
  0
LINE
  5
1304F
330
12E76
100
AcDbEntity
  8
1
  6
Continuous
100
AcDbLine
 10
34.1
 20
131.9
 30
0.0
 11
28.1
 21
131.9
 31
0.0
  0
ARC
  5
13050
330
12E76
100
AcDbEntity
  8
1
  6
Continuous
100
AcDbCircle
 10
34.1
 20
132.4
 30
0.0
 40
0.5
100
AcDbArc
 50
270.0
 51
0.0
  0
LINE
  5
13051
330
12E76
100
AcDbEntity
  8
1
  6
Continuous
100
AcDbLine
 10
34.6
 20
153.3999999999998
 30
0.0
 11
34.6
 21
132.4
 31
0.0
  0
LINE
  5
13052
330
12E76
100
AcDbEntity
  8
1
  6
Continuous
100
AcDbLine
 10
27.6
 20
153.3999999999998
 30
0.0
 11
27.6
 21
132.4
 31
0.0
  0
LINE
  5
13053
330
12E76
100
AcDbEntity
  8
1
  6
Continuous
100
AcDbLine
 10
26.6
 20
161.5
 30
0.0
 11
33.0
 21
161.5
 31
0.0
  0
LINE
  5
13054
330
12E76
100
AcDbEntity
  8
1
  6
Continuous
100
AcDbLine
 10
25.0
 20
159.9
 30
0.0
 11
33.0
 21
159.9
 31
0.0
  0
LINE
  5
13055
330
12E76
100
AcDbEntity
  8
1
  6
Continuous
100
AcDbLine
 10
33.0
 20
161.5
 30
0.0
 11
33.0
 21
159.9
 31
0.0
  0
ARC
  5
13056
330
12E76
100
AcDbEntity
  8
1
  6
Continuous
100
AcDbCircle
 10
26.6
 20
159.9
 30
0.0
 40
1.6
100
AcDbArc
 50
90.0
 51
180.0
  0
LINE
  5
13057
330
12E76
100
AcDbEntity
  8
1
  6
Continuous
100
AcDbLine
 10
90.882076
 20
358.8999999999999
 30
0.0
 11
90.882076
 21
340.3
 31
0.0
  0
ARC
  5
13058
330
12E76
100
AcDbEntity
  8
1
  6
Continuous
100
AcDbCircle
 10
93.88207599999999
 20
358.8999999999999
 30
0.0
 40
3.0
100
AcDbArc
 50
90.0
 51
180.0
  0
CIRCLE
  5
13059
330
12E76
100
AcDbEntity
  8
1
  6
Continuous
100
AcDbCircle
 10
119.882076
 20
351.8999999999999
 30
0.0
 40
2.0
  0
CIRCLE
  5
1305A
330
12E76
100
AcDbEntity
  8
1
  6
Continuous
100
AcDbCircle
 10
104.8820759999999
 20
351.8999999999999
 30
0.0
 40
3.0
  0
LINE
  5
1305B
330
12E76
100
AcDbEntity
  8
4
  6
CENTER
100
AcDbLine
 10
104.8820759999999
 20
357.8999999999999
 30
0.0
 11
104.8820759999999
 21
345.8999999999999
 31
0.0
  0
CIRCLE
  5
1305C
330
12E76
100
AcDbEntity
  8
1
  6
Continuous
100
AcDbCircle
 10
104.8820759999999
 20
351.8999999999999
 30
0.0
 40
4.299999999999998
  0
LINE
  5
1305D
330
12E76
100
AcDbEntity
  8
4
  6
CENTER
100
AcDbLine
 10
119.882076
 20
347.8999999999999
 30
0.0
 11
119.882076
 21
355.8999999999999
 31
0.0
  0
LINE
  5
1305E
330
12E76
100
AcDbEntity
  8
4
  6
CENTER
100
AcDbLine
 10
222.882076
 20
56.696583
 30
0.0
 11
222.882076
 21
48.69658300000001
 31
0.0
  0
CIRCLE
  5
1305F
330
12E76
100
AcDbEntity
  8
1
  6
Continuous
100
AcDbCircle
 10
222.882076
 20
351.8999999999999
 30
0.0
 40
3.0
  0
CIRCLE
  5
13060
330
12E76
100
AcDbEntity
  8
1
  6
Continuous
100
AcDbCircle
 10
222.882076
 20
351.8999999999999
 30
0.0
 40
4.299999999999998
  0
LINE
  5
13061
330
12E76
100
AcDbEntity
  8
4
  6
CENTER
100
AcDbLine
 10
222.882076
 20
357.8999999999999
 30
0.0
 11
222.882076
 21
345.8999999999999
 31
0.0
  0
LINE
  5
13062
330
12E76
100
AcDbEntity
  8
3
  6
DASHED
100
AcDbLine
 10
423.882076
 20
340.3
 30
0.0
 11
471.9297179999998
 21
340.3
 31
0.0
  0
LINE
  5
13063
330
12E76
100
AcDbEntity
  8
1
  6
Continuous
100
AcDbLine
 10
413.2066309999998
 20
361.8999999999999
 30
0.0
 11
487.8820759999999
 21
361.8999999999999
 31
0.0
  0
LINE
  5
13064
330
12E76
100
AcDbEntity
  8
3
  6
DASHED
100
AcDbLine
 10
423.882076
 20
341.9
 30
0.0
 11
468.8820759999998
 21
341.9
 31
0.0
  0
LINE
  5
13065
330
12E76
100
AcDbEntity
  8
3
  6
DASHED
100
AcDbLine
 10
465.882076
 20
45.49999999999999
 30
0.0
 11
395.882076
 21
45.49999999999999
 31
0.0
  0
LINE
  5
13066
330
12E76
100
AcDbEntity
  8
4
  6
CENTER
100
AcDbLine
 10
427.882076
 20
46.21251899999999
 30
0.0
 11
427.882076
 21
38.212519
 31
0.0
  0
LINE
  5
13067
330
12E76
100
AcDbEntity
  8
1
  6
Continuous
100
AcDbLine
 10
417.8820759999998
 20
41.5
 30
0.0
 11
417.8820759999998
 21
50.6
 31
0.0
  0
LINE
  5
13068
330
12E76
100
AcDbEntity
  8
4
  6
CENTER
100
AcDbLine
 10
415.882076
 20
46.21251899999999
 30
0.0
 11
415.882076
 21
38.212519
 31
0.0
  0
LINE
  5
13069
330
12E76
100
AcDbEntity
  8
4
  6
CENTER
100
AcDbLine
 10
406.8820759999998
 20
54.91976999999999
 30
0.0
 11
406.8820759999998
 21
37.0
 31
0.0
  0
LINE
  5
1306A
330
12E76
100
AcDbEntity
  8
1
  6
Continuous
100
AcDbLine
 10
395.882076
 20
44.59999999999999
 30
0.0
 11
395.882076
 21
50.6
 31
0.0
  0
LINE
  5
1306B
330
12E76
100
AcDbEntity
  8
1
  6
Continuous
100
AcDbLine
 10
417.3820759999999
 20
51.1
 30
0.0
 11
396.3820759999999
 21
51.1
 31
0.0
  0
LINE
  5
1306C
330
12E76
100
AcDbEntity
  8
4
  6
CENTER
100
AcDbLine
 10
340.8820759999999
 20
56.696583
 30
0.0
 11
340.8820759999999
 21
48.69658300000001
 31
0.0
  0
ARC
  5
1306D
330
12E76
100
AcDbEntity
  8
1
  6
Continuous
100
AcDbCircle
 10
396.3820759999999
 20
50.6
 30
0.0
 40
0.5
100
AcDbArc
 50
90.0
 51
180.0
  0
ARC
  5
1306E
330
12E76
100
AcDbEntity
  8
1
  6
Continuous
100
AcDbCircle
 10
417.3820759999999
 20
50.6
 30
0.0
 40
0.5
100
AcDbArc
 50
0.0
 51
90.0
  0
LINE
  5
1306F
330
12E76
100
AcDbEntity
  8
1
  6
Continuous
100
AcDbLine
 10
423.882076
 20
49.5
 30
0.0
 11
423.882076
 21
51.9
 31
0.0
  0
ARC
  5
13070
330
12E76
100
AcDbEntity
  8
1
  6
Continuous
100
AcDbCircle
 10
420.882076
 20
46.5
 30
0.0
 40
3.0
100
AcDbArc
 50
90.0
 51
180.0
  0
LINE
  5
13071
330
12E76
100
AcDbEntity
  8
1
  6
Continuous
100
AcDbLine
 10
423.882076
 20
51.5
 30
0.0
 11
409.8820759999998
 21
51.5
 31
0.0
  0
LINE
  5
13072
330
12E76
100
AcDbEntity
  8
1
  6
Continuous
100
AcDbLine
 10
423.882076
 20
51.9
 30
0.0
 11
409.8820759999998
 21
51.9
 31
0.0
  0
LINE
  5
13073
330
12E76
100
AcDbEntity
  8
4
  6
CENTER
100
AcDbLine
 10
411.882076
 20
56.696583
 30
0.0
 11
411.882076
 21
48.69658300000001
 31
0.0
  0
LINE
  5
13074
330
12E76
100
AcDbEntity
  8
4
  6
CENTER
100
AcDbLine
 10
416.882076
 20
44.947109
 30
0.0
 11
416.882076
 21
56.533304
 31
0.0
  0
LINE
  5
13075
330
12E76
100
AcDbEntity
  8
3
  6
DASHED
100
AcDbLine
 10
423.882076
 20
45.49999999999999
 30
0.0
 11
423.882076
 21
49.5
 31
0.0
  0
LINE
  5
13076
330
12E76
100
AcDbEntity
  8
1
  6
Continuous
100
AcDbLine
 10
409.8820759999998
 20
51.1
 30
0.0
 11
409.8820759999998
 21
51.9
 31
0.0
  0
LINE
  5
13077
330
12E76
100
AcDbEntity
  8
1
  6
Continuous
100
AcDbLine
 10
416.882076
 20
51.5
 30
0.0
 11
416.882076
 21
51.1
 31
0.0
  0
LINE
  5
13078
330
12E76
100
AcDbEntity
  8
4
  6
CENTER
100
AcDbLine
 10
426.8820759999998
 20
56.696583
 30
0.0
 11
426.8820759999998
 21
48.69658300000001
 31
0.0
  0
LINE
  5
13079
330
12E76
100
AcDbEntity
  8
1
  6
Continuous
100
AcDbLine
 10
417.8820759999998
 20
43.1
 30
0.0
 11
395.882076
 21
43.1
 31
0.0
  0
LINE
  5
1307A
330
12E76
100
AcDbEntity
  8
1
  6
Continuous
100
AcDbLine
 10
417.3820759999999
 20
44.1
 30
0.0
 11
396.3820759999999
 21
44.1
 31
0.0
  0
LINE
  5
1307B
330
12E76
100
AcDbEntity
  8
1
  6
Continuous
100
AcDbLine
 10
395.882076
 20
41.5
 30
0.0
 11
395.882076
 21
43.1
 31
0.0
  0
ARC
  5
1307C
330
12E76
100
AcDbEntity
  8
1
  6
Continuous
100
AcDbCircle
 10
396.3820759999999
 20
44.59999999999999
 30
0.0
 40
0.5
100
AcDbArc
 50
180.0
 51
270.0
  0
ARC
  5
1307D
330
12E76
100
AcDbEntity
  8
1
  6
Continuous
100
AcDbCircle
 10
417.3820759999999
 20
44.59999999999999
 30
0.0
 40
0.5
100
AcDbArc
 50
270.0
 51
0.0
  0
LINE
  5
1307E
330
12E76
100
AcDbEntity
  8
1
  6
Continuous
100
AcDbLine
 10
402.132076
 20
43.6
 30
0.0
 11
402.6320759999999
 21
43.1
 31
0.0
  0
LINE
  5
1307F
330
12E76
100
AcDbEntity
  8
1
  6
Continuous
100
AcDbLine
 10
402.132076
 20
43.6
 30
0.0
 11
402.132076
 21
44.1
 31
0.0
  0
LINE
  5
13080
330
12E76
100
AcDbEntity
  8
1
  6
Continuous
100
AcDbLine
 10
411.6320759999998
 20
43.6
 30
0.0
 11
411.1320759999999
 21
43.1
 31
0.0
  0
LINE
  5
13081
330
12E76
100
AcDbEntity
  8
1
  6
Continuous
100
AcDbLine
 10
411.6320759999998
 20
43.6
 30
0.0
 11
411.6320759999998
 21
44.1
 31
0.0
  0
LINE
  5
13082
330
12E76
100
AcDbEntity
  8
1
  6
Continuous
100
AcDbLine
 10
402.132076
 20
43.6
 30
0.0
 11
411.6320759999998
 21
43.6
 31
0.0
  0
LINE
  5
13083
330
12E76
100
AcDbEntity
  8
1
  6
Continuous
100
AcDbLine
 10
410.5320759999998
 20
40.8
 30
0.0
 11
403.2320759999998
 21
40.8
 31
0.0
  0
LINE
  5
13084
330
12E76
100
AcDbEntity
  8
1
  6
Continuous
100
AcDbLine
 10
403.2320759999998
 20
40.8
 30
0.0
 11
403.9320759999998
 21
41.5
 31
0.0
  0
LINE
  5
13085
330
12E76
100
AcDbEntity
  8
1
  6
Continuous
100
AcDbLine
 10
410.5320759999998
 20
40.8
 30
0.0
 11
409.832076
 21
41.5
 31
0.0
  0
ARC
  5
13086
330
12E76
100
AcDbEntity
  8
1
  6
Continuous
100
AcDbCircle
 10
398.8820759999999
 20
338.8999999999999
 30
0.0
 40
3.0
100
AcDbArc
 50
180.0
 51
270.0
  0
ARC
  5
13087
330
12E76
100
AcDbEntity
  8
1
  6
Continuous
100
AcDbCircle
 10
398.8820759999999
 20
355.8999999999999
 30
0.0
 40
3.0
100
AcDbArc
 50
90.0
 51
180.0
  0
LINE
  5
13088
330
12E76
100
AcDbEntity
  8
4
  6
CENTER
100
AcDbLine
 10
420.882076
 20
352.8999999999999
 30
0.0
 11
392.8820759999999
 21
352.8999999999999
 31
0.0
  0
LINE
  5
13089
330
12E76
100
AcDbEntity
  8
3
  6
DASHED
100
AcDbLine
 10
395.882076
 20
340.3
 30
0.0
 11
409.8820759999998
 21
340.3
 31
0.0
  0
LINE
  5
1308A
330
12E76
100
AcDbEntity
  8
3
  6
DASHED
100
AcDbLine
 10
395.882076
 20
341.9
 30
0.0
 11
409.8820759999998
 21
341.9
 31
0.0
  0
ARC
  5
1308B
330
12E76
100
AcDbEntity
  8
3
  6
DASHED
100
AcDbCircle
 10
406.8820759999998
 20
352.8999999999999
 30
0.0
 40
11.0
100
AcDbArc
 50
149.248498
 51
318.1935870000001
  0
ARC
  5
1308C
330
12E76
100
AcDbEntity
  8
1
  6
Continuous
100
AcDbCircle
 10
406.8820759999998
 20
352.8999999999999
 30
0.0
 40
11.0
100
AcDbArc
 50
33.055731
 51
149.248498
  0
CIRCLE
  5
1308D
330
12E76
100
AcDbEntity
  8
1
  6
Continuous
100
AcDbCircle
 10
340.8820759999999
 20
351.8999999999999
 30
0.0
 40
3.0
  0
LINE
  5
1308E
330
12E76
100
AcDbEntity
  8
4
  6
CENTER
100
AcDbLine
 10
340.8820759999999
 20
357.8999999999999
 30
0.0
 11
340.8820759999999
 21
345.8999999999999
 31
0.0
  0
CIRCLE
  5
1308F
330
12E76
100
AcDbEntity
  8
1
  6
Continuous
100
AcDbCircle
 10
340.8820759999999
 20
351.8999999999999
 30
0.0
 40
4.299999999999998
  0
LINE
  5
13090
330
12E76
100
AcDbEntity
  8
1
  6
Continuous
100
AcDbLine
 10
395.882076
 20
355.8999999999999
 30
0.0
 11
395.882076
 21
338.8999999999999
 31
0.0
  0
CIRCLE
  5
13091
330
12E76
100
AcDbEntity
  8
1
  6
Continuous
100
AcDbCircle
 10
427.882076
 20
347.3999999999999
 30
0.0
 40
3.0
  0
LINE
  5
13092
330
12E76
100
AcDbEntity
  8
1
  6
Continuous
100
AcDbLine
 10
398.8820759999999
 20
358.8999999999999
 30
0.0
 11
417.8820759999998
 21
358.8999999999999
 31
0.0
  0
LINE
  5
13093
330
12E76
100
AcDbEntity
  8
1
  6
Continuous
100
AcDbLine
 10
417.8820759999998
 20
360.4999999999998
 30
0.0
 11
417.8820759999998
 21
358.8999999999999
 31
0.0
  0
CIRCLE
  5
13094
330
12E76
100
AcDbEntity
  8
1
  6
Continuous
100
AcDbCircle
 10
415.882076
 20
347.3999999999999
 30
0.0
 40
2.0
  0
ARC
  5
13095
330
12E76
100
AcDbEntity
  8
1
  6
Continuous
100
AcDbCircle
 10
406.8820759999998
 20
352.8999999999999
 30
0.0
 40
11.0
100
AcDbArc
 50
318.1935870000001
 51
338.9472819999999
  0
LINE
  5
13096
330
12E76
100
AcDbEntity
  8
4
  6
CENTER
100
AcDbLine
 10
415.882076
 20
343.3999999999999
 30
0.0
 11
415.882076
 21
351.3999999999999
 31
0.0
  0
CIRCLE
  5
13097
330
12E76
100
AcDbEntity
  8
1
  6
Continuous
100
AcDbCircle
 10
406.8820759999998
 20
352.8999999999999
 30
0.0
 40
3.649999999999999
  0
LINE
  5
13098
330
12E76
100
AcDbEntity
  8
3
  6
DASHED
100
AcDbLine
 10
409.8820759999998
 20
342.3
 30
0.0
 11
410.7056059999998
 21
342.3
 31
0.0
  0
LINE
  5
13099
330
12E76
100
AcDbEntity
  8
3
  6
DASHED
100
AcDbLine
 10
409.8820759999998
 20
341.9
 30
0.0
 11
409.8820759999998
 21
342.3
 31
0.0
  0
LINE
  5
1309A
330
12E76
100
AcDbEntity
  8
3
  6
DASHED
100
AcDbLine
 10
416.882076
 20
345.3
 30
0.0
 11
409.8820759999998
 21
341.9
 31
0.0
  0
LINE
  5
1309B
330
12E76
100
AcDbEntity
  8
3
  6
DASHED
100
AcDbLine
 10
416.882076
 20
343.6999999999999
 30
0.0
 11
409.8820759999998
 21
340.3
 31
0.0
  0
LINE
  5
1309C
330
12E76
100
AcDbEntity
  8
3
  6
DASHED
100
AcDbLine
 10
423.882076
 20
341.9
 30
0.0
 11
423.882076
 21
342.3
 31
0.0
  0
LINE
  5
1309D
330
12E76
100
AcDbEntity
  8
3
  6
DASHED
100
AcDbLine
 10
416.882076
 20
345.3
 30
0.0
 11
423.882076
 21
341.9
 31
0.0
  0
LINE
  5
1309E
330
12E76
100
AcDbEntity
  8
3
  6
DASHED
100
AcDbLine
 10
416.882076
 20
343.6999999999999
 30
0.0
 11
423.882076
 21
340.3
 31
0.0
  0
LINE
  5
1309F
330
12E76
100
AcDbEntity
  8
3
  6
DASHED
100
AcDbLine
 10
423.0585469999998
 20
342.3
 30
0.0
 11
423.882076
 21
342.3
 31
0.0
  0
LINE
  5
130A0
330
12E76
100
AcDbEntity
  8
3
  6
DASHED
100
AcDbLine
 10
413.999723
 20
342.3
 30
0.0
 11
419.764429
 21
342.3
 31
0.0
  0
ARC
  5
130A1
330
12E76
100
AcDbEntity
  8
3
  6
DASHED
100
AcDbCircle
 10
406.8820759999998
 20
352.8999999999999
 30
0.0
 40
11.0
100
AcDbArc
 50
338.9472819999999
 51
33.055731
  0
LINE
  5
130A2
330
12E76
100
AcDbEntity
  8
4
  6
CENTER
100
AcDbLine
 10
406.8820759999998
 20
338.8999999999999
 30
0.0
 11
406.8820759999998
 21
366.9
 31
0.0
  0
LINE
  5
130A3
330
12E76
100
AcDbEntity
  8
4
  6
CENTER
100
AcDbLine
 10
427.882076
 20
353.3999999999999
 30
0.0
 11
427.882076
 21
341.3999999999999
 31
0.0
  0
LINE
  5
130A4
330
12E76
100
AcDbEntity
  8
1
  6
Continuous
100
AcDbLine
 10
398.8820759999999
 20
335.8999999999999
 30
0.0
 11
445.882076
 21
335.8999999999999
 31
0.0
  0
LINE
  5
130A5
330
12E76
100
AcDbEntity
  8
1
  6
Continuous
100
AcDbLine
 10
445.882076
 20
335.8999999999999
 30
0.0
 11
445.882076
 21
334.2999999999999
 31
0.0
  0
LINE
  5
130A6
330
12E76
100
AcDbEntity
  8
4
  6
CENTER
100
AcDbLine
 10
545.882076
 20
46.21251899999999
 30
0.0
 11
545.882076
 21
38.212519
 31
0.0
  0
LINE
  5
130A7
330
12E76
100
AcDbEntity
  8
4
  6
CENTER
100
AcDbLine
 10
479.8820759999999
 20
40.04579299999997
 30
0.0
 11
479.8820759999999
 21
58.0
 31
0.0
  0
ARC
  5
130A8
330
12E76
100
AcDbEntity
  8
3
  6
DASHED
100
AcDbCircle
 10
465.882076
 20
48.5
 30
0.0
 40
3.0
100
AcDbArc
 50
270.0
 51
0.0
  0
LINE
  5
130A9
330
12E76
100
AcDbEntity
  8
1
  6
Continuous
100
AcDbLine
 10
490.382076
 20
50.89999999999999
 30
0.0
 11
469.382076
 21
50.89999999999999
 31
0.0
  0
LINE
  5
130AA
330
12E76
100
AcDbEntity
  8
1
  6
Continuous
100
AcDbLine
 10
468.8820759999998
 20
49.5
 30
0.0
 11
468.8820759999998
 21
51.9
 31
0.0
  0
ARC
  5
130AB
330
12E76
100
AcDbEntity
  8
1
  6
Continuous
100
AcDbCircle
 10
469.382076
 20
50.4
 30
0.0
 40
0.5
100
AcDbArc
 50
90.0
 51
180.0
  0
LINE
  5
130AC
330
12E76
100
AcDbEntity
  8
3
  6
DASHED
100
AcDbLine
 10
468.8820759999998
 20
48.5
 30
0.0
 11
468.8820759999998
 21
49.5
 31
0.0
  0
LINE
  5
130AD
330
12E76
100
AcDbEntity
  8
4
  6
CENTER
100
AcDbLine
 10
470.882076
 20
56.696583
 30
0.0
 11
470.882076
 21
48.69658300000001
 31
0.0
  0
LINE
  5
130AE
330
12E76
100
AcDbEntity
  8
4
  6
CENTER
100
AcDbLine
 10
458.8820759999999
 20
56.696583
 30
0.0
 11
458.8820759999999
 21
48.69658300000001
 31
0.0
  0
LINE
  5
130AF
330
12E76
100
AcDbEntity
  8
1
  6
Continuous
100
AcDbLine
 10
490.882076
 20
51.9
 30
0.0
 11
490.882076
 21
53.5
 31
0.0
  0
LINE
  5
130B0
330
12E76
100
AcDbEntity
  8
1
  6
Continuous
100
AcDbLine
 10
483.532076
 20
54.2
 30
0.0
 11
482.8320759999998
 21
53.5
 31
0.0
  0
LINE
  5
130B1
330
12E76
100
AcDbEntity
  8
1
  6
Continuous
100
AcDbLine
 10
476.2320759999998
 20
54.2
 30
0.0
 11
476.932076
 21
53.5
 31
0.0
  0
LINE
  5
130B2
330
12E76
100
AcDbEntity
  8
1
  6
Continuous
100
AcDbLine
 10
483.532076
 20
54.2
 30
0.0
 11
476.2320759999998
 21
54.2
 31
0.0
  0
LINE
  5
130B3
330
12E76
100
AcDbEntity
  8
1
  6
Continuous
100
AcDbLine
 10
475.1320759999998
 20
51.4
 30
0.0
 11
484.632076
 21
51.4
 31
0.0
  0
LINE
  5
130B4
330
12E76
100
AcDbEntity
  8
1
  6
Continuous
100
AcDbLine
 10
475.1320759999998
 20
51.4
 30
0.0
 11
475.632076
 21
51.9
 31
0.0
  0
LINE
  5
130B5
330
12E76
100
AcDbEntity
  8
1
  6
Continuous
100
AcDbLine
 10
484.632076
 20
51.4
 30
0.0
 11
484.132076
 21
51.9
 31
0.0
  0
ARC
  5
130B6
330
12E76
100
AcDbEntity
  8
1
  6
Continuous
100
AcDbCircle
 10
490.382076
 20
50.4
 30
0.0
 40
0.5
100
AcDbArc
 50
0.0
 51
90.0
  0
LINE
  5
130B7
330
12E76
100
AcDbEntity
  8
1
  6
Continuous
100
AcDbLine
 10
490.882076
 20
49.5
 30
0.0
 11
490.882076
 21
50.4
 31
0.0
  0
LINE
  5
130B8
330
12E76
100
AcDbEntity
  8
1
  6
Continuous
100
AcDbLine
 10
475.1320759999998
 20
51.4
 30
0.0
 11
475.1320759999998
 21
50.89999999999999
 31
0.0
  0
LINE
  5
130B9
330
12E76
100
AcDbEntity
  8
1
  6
Continuous
100
AcDbLine
 10
484.632076
 20
51.4
 30
0.0
 11
484.632076
 21
50.89999999999999
 31
0.0
  0
CIRCLE
  5
130BA
330
12E76
100
AcDbEntity
  8
3
  6
DASHED
100
AcDbCircle
 10
479.8820759999999
 20
347.8999999999999
 30
0.0
 40
11.0
  0
LINE
  5
130BB
330
12E76
100
AcDbEntity
  8
4
  6
CENTER
100
AcDbLine
 10
493.78497
 20
347.8999999999999
 30
0.0
 11
465.7849699999998
 21
347.8999999999999
 31
0.0
  0
LINE
  5
130BC
330
12E76
100
AcDbEntity
  8
3
  6
DASHED
100
AcDbLine
 10
468.8820759999998
 20
341.9
 30
0.0
 11
468.8820759999998
 21
340.3
 31
0.0
  0
LINE
  5
130BD
330
12E76
100
AcDbEntity
  8
4
  6
CENTER
100
AcDbLine
 10
470.882076
 20
347.3999999999999
 30
0.0
 11
470.882076
 21
356.4
 31
0.0
  0
LINE
  5
130BE
330
12E76
100
AcDbEntity
  8
4
  6
CENTER
100
AcDbLine
 10
458.8820759999999
 20
345.8999999999999
 30
0.0
 11
458.8820759999999
 21
357.8999999999999
 31
0.0
  0
LINE
  5
130BF
330
12E76
100
AcDbEntity
  8
4
  6
CENTER
100
AcDbLine
 10
479.8820759999999
 20
361.8999999999999
 30
0.0
 11
479.8820759999999
 21
333.8999999999999
 31
0.0
  0
ARC
  5
130C0
330
12E76
100
AcDbEntity
  8
3
  6
DASHED
100
AcDbCircle
 10
487.8820759999999
 20
344.8999999999998
 30
0.0
 40
3.0
100
AcDbArc
 50
298.9758569999999
 51
0.0
  0
LINE
  5
130C1
330
12E76
100
AcDbEntity
  8
3
  6
DASHED
100
AcDbLine
 10
490.882076
 20
358.8999999999999
 30
0.0
 11
490.882076
 21
344.8999999999998
 31
0.0
  0
ARC
  5
130C2
330
12E76
100
AcDbEntity
  8
1
  6
Continuous
100
AcDbCircle
 10
487.8820759999999
 20
358.8999999999999
 30
0.0
 40
3.0
100
AcDbArc
 50
32.230953
 51
90.0
  0
ARC
  5
130C3
330
12E76
100
AcDbEntity
  8
3
  6
DASHED
100
AcDbCircle
 10
487.8820759999999
 20
358.8999999999999
 30
0.0
 40
3.0
100
AcDbArc
 50
0.0
 51
32.230953
  0
LINE
  5
130C4
330
12E76
100
AcDbEntity
  8
4
  6
CENTER
100
AcDbLine
 10
545.882076
 20
353.3999999999999
 30
0.0
 11
545.882076
 21
341.3999999999999
 31
0.0
  0
CIRCLE
  5
130C5
330
12E76
100
AcDbEntity
  8
1
  6
Continuous
100
AcDbCircle
 10
545.882076
 20
347.3999999999999
 30
0.0
 40
3.0
  0
LINE
  5
130C6
330
12E76
100
AcDbEntity
  8
4
  6
CENTER
100
AcDbLine
 10
85.882076
 20
143.9
 30
0.0
 11
800.959098
 21
143.9
 31
0.0
  0
LINE
  5
130C7
330
12E76
100
AcDbEntity
  8
1
  6
Continuous
100
AcDbLine
 10
90.882076
 20
155.4999999999998
 30
0.0
 11
409.8820759999998
 21
155.4999999999998
 31
0.0
  0
LINE
  5
130C8
330
12E76
100
AcDbEntity
  8
1
  6
Continuous
100
AcDbLine
 10
93.88207599999999
 20
133.9
 30
0.0
 11
487.8820759999999
 21
133.9
 31
0.0
  0
LINE
  5
130C9
330
12E76
100
AcDbEntity
  8
1
  6
Continuous
100
AcDbLine
 10
445.882076
 20
249.9
 30
0.0
 11
93.88207599999999
 21
249.9
 31
0.0
  0
LINE
  5
130CA
330
12E76
100
AcDbEntity
  8
1
  6
Continuous
100
AcDbLine
 10
490.882076
 20
241.9
 30
0.0
 11
90.882076
 21
241.9
 31
0.0
  0
LINE
  5
130CB
330
12E76
100
AcDbEntity
  8
1
  6
Continuous
100
AcDbLine
 10
90.882076
 20
136.8999999999997
 30
0.0
 11
90.882076
 21
155.4999999999998
 31
0.0
  0
LINE
  5
130CC
330
12E76
100
AcDbEntity
  8
1
  6
Continuous
100
AcDbLine
 10
90.882076
 20
246.9
 30
0.0
 11
90.882076
 21
241.9
 31
0.0
  0
ARC
  5
130CD
330
12E76
100
AcDbEntity
  8
1
  6
Continuous
100
AcDbCircle
 10
93.88207599999999
 20
246.9
 30
0.0
 40
3.0
100
AcDbArc
 50
90.0
 51
180.0
  0
LINE
  5
130CE
330
12E76
100
AcDbEntity
  8
4
  6
CENTER
100
AcDbLine
 10
104.8820759999999
 20
238.703417
 30
0.0
 11
104.8820759999999
 21
246.703417
 31
0.0
  0
LINE
  5
130CF
330
12E76
100
AcDbEntity
  8
4
  6
CENTER
100
AcDbLine
 10
119.882076
 20
238.703417
 30
0.0
 11
119.882076
 21
246.703417
 31
0.0
  0
ARC
  5
130D0
330
12E76
100
AcDbEntity
  8
1
  6
Continuous
100
AcDbCircle
 10
93.88207599999999
 20
136.8999999999997
 30
0.0
 40
3.0
100
AcDbArc
 50
180.0
 51
270.0
  0
CIRCLE
  5
130D1
330
12E76
100
AcDbEntity
  8
1
  6
Continuous
100
AcDbCircle
 10
119.882076
 20
143.9
 30
0.0
 40
2.0
  0
LINE
  5
130D2
330
12E76
100
AcDbEntity
  8
4
  6
CENTER
100
AcDbLine
 10
104.8820759999999
 20
137.9
 30
0.0
 11
104.8820759999999
 21
149.9
 31
0.0
  0
CIRCLE
  5
130D3
330
12E76
100
AcDbEntity
  8
1
  6
Continuous
100
AcDbCircle
 10
104.8820759999999
 20
143.9
 30
0.0
 40
3.0
  0
LINE
  5
130D4
330
12E76
100
AcDbEntity
  8
4
  6
CENTER
100
AcDbLine
 10
119.882076
 20
147.9
 30
0.0
 11
119.882076
 21
139.9
 31
0.0
  0
LINE
  5
130D5
330
12E76
100
AcDbEntity
  8
4
  6
CENTER
100
AcDbLine
 10
222.882076
 20
238.703417
 30
0.0
 11
222.882076
 21
246.703417
 31
0.0
  0
CIRCLE
  5
130D6
330
12E76
100
AcDbEntity
  8
1
  6
Continuous
100
AcDbCircle
 10
222.882076
 20
143.9
 30
0.0
 40
3.0
  0
LINE
  5
130D7
330
12E76
100
AcDbEntity
  8
4
  6
CENTER
100
AcDbLine
 10
222.882076
 20
137.9
 30
0.0
 11
222.882076
 21
149.9
 31
0.0
  0
LINE
  5
130D8
330
12E76
100
AcDbEntity
  8
3
  6
DASHED
100
AcDbLine
 10
395.882076
 20
136.8999999999997
 30
0.0
 11
490.882076
 21
136.8999999999997
 31
0.0
  0
LINE
  5
130D9
330
12E76
100
AcDbEntity
  8
1
  6
Continuous
100
AcDbLine
 10
423.882076
 20
155.4999999999998
 30
0.0
 11
468.8820759999998
 21
155.4999999999998
 31
0.0
  0
LINE
  5
130DA
330
12E76
100
AcDbEntity
  8
3
  6
DASHED
100
AcDbLine
 10
417.8820759999998
 20
135.3
 30
0.0
 11
490.4197919999998
 21
135.3
 31
0.0
  0
LINE
  5
130DB
330
12E76
100
AcDbEntity
  8
3
  6
DASHED
100
AcDbLine
 10
465.882076
 20
249.9
 30
0.0
 11
445.882076
 21
249.9
 31
0.0
  0
LINE
  5
130DC
330
12E76
100
AcDbEntity
  8
4
  6
CENTER
100
AcDbLine
 10
416.882076
 20
158.319526
 30
0.0
 11
416.882076
 21
149.65481
 31
0.0
  0
LINE
  5
130DD
330
12E76
100
AcDbEntity
  8
1
  6
Continuous
100
AcDbLine
 10
419.764429
 20
153.5
 30
0.0
 11
423.882076
 21
155.4999999999998
 31
0.0
  0
LINE
  5
130DE
330
12E76
100
AcDbEntity
  8
1
  6
Continuous
100
AcDbLine
 10
423.882076
 20
155.4999999999998
 30
0.0
 11
423.882076
 21
153.5
 31
0.0
  0
LINE
  5
130DF
330
12E76
100
AcDbEntity
  8
1
  6
Continuous
100
AcDbLine
 10
413.999723
 20
153.5
 30
0.0
 11
409.8820759999998
 21
155.4999999999998
 31
0.0
  0
LINE
  5
130E0
330
12E76
100
AcDbEntity
  8
1
  6
Continuous
100
AcDbLine
 10
409.8820759999998
 20
155.4999999999998
 30
0.0
 11
409.8820759999998
 21
153.5
 31
0.0
  0
LINE
  5
130E1
330
12E76
100
AcDbEntity
  8
4
  6
CENTER
100
AcDbLine
 10
406.8820759999998
 20
156.9
 30
0.0
 11
406.8820759999998
 21
128.9
 31
0.0
  0
LINE
  5
130E2
330
12E76
100
AcDbEntity
  8
3
  6
DASHED
100
AcDbLine
 10
395.882076
 20
136.8999999999997
 30
0.0
 11
395.882076
 21
155.4999999999998
 31
0.0
  0
LINE
  5
130E3
330
12E76
100
AcDbEntity
  8
1
  6
Continuous
100
AcDbLine
 10
417.3820759999999
 20
251.3
 30
0.0
 11
396.3820759999999
 21
251.3
 31
0.0
  0
LINE
  5
130E4
330
12E76
100
AcDbEntity
  8
1
  6
Continuous
100
AcDbLine
 10
445.882076
 20
252.3
 30
0.0
 11
395.882076
 21
252.3
 31
0.0
  0
LINE
  5
130E5
330
12E76
100
AcDbEntity
  8
4
  6
CENTER
100
AcDbLine
 10
340.8820759999999
 20
238.703417
 30
0.0
 11
340.8820759999999
 21
246.703417
 31
0.0
  0
LINE
  5
130E6
330
12E76
100
AcDbEntity
  8
1
  6
Continuous
100
AcDbLine
 10
395.882076
 20
250.8
 30
0.0
 11
395.882076
 21
249.9
 31
0.0
  0
ARC
  5
130E7
330
12E76
100
AcDbEntity
  8
1
  6
Continuous
100
AcDbCircle
 10
396.3820759999999
 20
250.8
 30
0.0
 40
0.5
100
AcDbArc
 50
90.0
 51
180.0
  0
LINE
  5
130E8
330
12E76
100
AcDbEntity
  8
1
  6
Continuous
100
AcDbLine
 10
395.882076
 20
253.9
 30
0.0
 11
395.882076
 21
252.3
 31
0.0
  0
LINE
  5
130E9
330
12E76
100
AcDbEntity
  8
4
  6
CENTER
100
AcDbLine
 10
416.882076
 20
250.4528909999999
 30
0.0
 11
416.882076
 21
238.866696
 31
0.0
  0
LINE
  5
130EA
330
12E76
100
AcDbEntity
  8
1
  6
Continuous
100
AcDbLine
 10
423.882076
 20
249.9
 30
0.0
 11
423.882076
 21
241.9
 31
0.0
  0
LINE
  5
130EB
330
12E76
100
AcDbEntity
  8
1
  6
Continuous
100
AcDbLine
 10
409.8820759999998
 20
249.9
 30
0.0
 11
409.8820759999998
 21
241.9
 31
0.0
  0
LINE
  5
130EC
330
12E76
100
AcDbEntity
  8
1
  6
Continuous
100
AcDbLine
 10
416.882076
 20
243.9
 30
0.0
 11
416.882076
 21
249.9
 31
0.0
  0
LINE
  5
130ED
330
12E76
100
AcDbEntity
  8
1
  6
Continuous
100
AcDbLine
 10
402.132076
 20
251.8
 30
0.0
 11
411.6320759999998
 21
251.8
 31
0.0
  0
LINE
  5
130EE
330
12E76
100
AcDbEntity
  8
1
  6
Continuous
100
AcDbLine
 10
411.6320759999998
 20
251.8
 30
0.0
 11
411.6320759999998
 21
251.3
 31
0.0
  0
LINE
  5
130EF
330
12E76
100
AcDbEntity
  8
1
  6
Continuous
100
AcDbLine
 10
411.6320759999998
 20
251.8
 30
0.0
 11
411.1320759999999
 21
252.3
 31
0.0
  0
LINE
  5
130F0
330
12E76
100
AcDbEntity
  8
1
  6
Continuous
100
AcDbLine
 10
402.132076
 20
251.8
 30
0.0
 11
402.132076
 21
251.3
 31
0.0
  0
LINE
  5
130F1
330
12E76
100
AcDbEntity
  8
1
  6
Continuous
100
AcDbLine
 10
402.132076
 20
251.8
 30
0.0
 11
402.6320759999999
 21
252.3
 31
0.0
  0
ARC
  5
130F2
330
12E76
100
AcDbEntity
  8
1
  6
Continuous
100
AcDbCircle
 10
417.3820759999999
 20
250.8
 30
0.0
 40
0.5
100
AcDbArc
 50
0.0
 51
90.0
  0
LINE
  5
130F3
330
12E76
100
AcDbEntity
  8
1
  6
Continuous
100
AcDbLine
 10
417.8820759999998
 20
252.3
 30
0.0
 11
417.8820759999998
 21
249.9
 31
0.0
  0
LINE
  5
130F4
330
12E76
100
AcDbEntity
  8
1
  6
Continuous
100
AcDbLine
 10
423.882076
 20
243.5
 30
0.0
 11
409.8820759999998
 21
243.5
 31
0.0
  0
LINE
  5
130F5
330
12E76
100
AcDbEntity
  8
1
  6
Continuous
100
AcDbLine
 10
423.882076
 20
243.9
 30
0.0
 11
409.8820759999998
 21
243.9
 31
0.0
  0
LINE
  5
130F6
330
12E76
100
AcDbEntity
  8
1
  6
Continuous
100
AcDbLine
 10
410.5320759999998
 20
254.5999999999999
 30
0.0
 11
403.2320759999998
 21
254.5999999999999
 31
0.0
  0
LINE
  5
130F7
330
12E76
100
AcDbEntity
  8
4
  6
CENTER
100
AcDbLine
 10
406.8820759999998
 20
240.4802299999999
 30
0.0
 11
406.8820759999998
 21
258.3999999999999
 31
0.0
  0
LINE
  5
130F8
330
12E76
100
AcDbEntity
  8
4
  6
CENTER
100
AcDbLine
 10
415.882076
 20
249.187481
 30
0.0
 11
415.882076
 21
257.187481
 31
0.0
  0
LINE
  5
130F9
330
12E76
100
AcDbEntity
  8
1
  6
Continuous
100
AcDbLine
 10
410.5320759999998
 20
254.5999999999999
 30
0.0
 11
409.832076
 21
253.9
 31
0.0
  0
LINE
  5
130FA
330
12E76
100
AcDbEntity
  8
1
  6
Continuous
100
AcDbLine
 10
403.2320759999998
 20
254.5999999999999
 30
0.0
 11
403.9320759999998
 21
253.9
 31
0.0
  0
ARC
  5
130FB
330
12E76
100
AcDbEntity
  8
1
  6
Continuous
100
AcDbCircle
 10
448.882076
 20
248.9
 30
0.0
 40
3.0
100
AcDbArc
 50
180.0
 51
270.0
  0
LINE
  5
130FC
330
12E76
100
AcDbEntity
  8
1
  6
Continuous
100
AcDbLine
 10
445.882076
 20
253.9
 30
0.0
 11
445.882076
 21
248.9
 31
0.0
  0
LINE
  5
130FD
330
12E76
100
AcDbEntity
  8
4
  6
CENTER
100
AcDbLine
 10
427.882076
 20
249.187481
 30
0.0
 11
427.882076
 21
257.187481
 31
0.0
  0
ARC
  5
130FE
330
12E76
100
AcDbEntity
  8
1
  6
Continuous
100
AcDbCircle
 10
398.8820759999999
 20
156.9
 30
0.0
 40
3.0
100
AcDbArc
 50
90.0
 51
180.0
  0
LINE
  5
130FF
330
12E76
100
AcDbEntity
  8
1
  6
Continuous
100
AcDbLine
 10
395.882076
 20
155.4999999999998
 30
0.0
 11
395.882076
 21
156.9
 31
0.0
  0
LINE
  5
13100
330
12E76
100
AcDbEntity
  8
1
  6
Continuous
100
AcDbLine
 10
445.882076
 20
159.9
 30
0.0
 11
445.882076
 21
161.5
 31
0.0
  0
LINE
  5
13101
330
12E76
100
AcDbEntity
  8
4
  6
CENTER
100
AcDbLine
 10
420.882076
 20
142.9
 30
0.0
 11
392.8820759999999
 21
142.9
 31
0.0
  0
ARC
  5
13102
330
12E76
100
AcDbEntity
  8
3
  6
DASHED
100
AcDbCircle
 10
406.8820759999998
 20
142.9
 30
0.0
 40
11.0
100
AcDbArc
 50
305.096801
 51
234.9031990000001
  0
CIRCLE
  5
13103
330
12E76
100
AcDbEntity
  8
1
  6
Continuous
100
AcDbCircle
 10
340.8820759999999
 20
143.9
 30
0.0
 40
3.0
  0
LINE
  5
13104
330
12E76
100
AcDbEntity
  8
4
  6
CENTER
100
AcDbLine
 10
340.8820759999999
 20
137.9
 30
0.0
 11
340.8820759999999
 21
149.9
 31
0.0
  0
LINE
  5
13105
330
12E76
100
AcDbEntity
  8
3
  6
DASHED
100
AcDbLine
 10
417.8820759999998
 20
135.3
 30
0.0
 11
417.8820759999998
 21
136.8999999999997
 31
0.0
  0
ARC
  5
13106
330
12E76
100
AcDbEntity
  8
1
  6
Continuous
100
AcDbCircle
 10
406.8820759999998
 20
142.9
 30
0.0
 40
11.0
100
AcDbArc
 50
234.9031990000001
 51
305.096801
  0
LINE
  5
13107
330
12E76
100
AcDbEntity
  8
1
  6
Continuous
100
AcDbLine
 10
423.0585469999998
 20
153.5
 30
0.0
 11
423.882076
 21
153.9
 31
0.0
  0
LINE
  5
13108
330
12E76
100
AcDbEntity
  8
1
  6
Continuous
100
AcDbLine
 10
410.7056059999998
 20
153.5
 30
0.0
 11
409.8820759999998
 21
153.9
 31
0.0
  0
LINE
  5
13109
330
12E76
100
AcDbEntity
  8
1
  6
Continuous
100
AcDbLine
 10
409.8820759999998
 20
153.5
 30
0.0
 11
423.882076
 21
153.5
 31
0.0
  0
LINE
  5
1310A
330
12E76
100
AcDbEntity
  8
4
  6
CENTER
100
AcDbLine
 10
415.882076
 20
152.4
 30
0.0
 11
415.882076
 21
144.4
 31
0.0
  0
LINE
  5
1310B
330
12E76
100
AcDbEntity
  8
4
  6
CENTER
100
AcDbLine
 10
427.882076
 20
142.4
 30
0.0
 11
427.882076
 21
154.4
 31
0.0
  0
LINE
  5
1310C
330
12E76
100
AcDbEntity
  8
1
  6
Continuous
100
AcDbLine
 10
468.8820759999998
 20
153.9
 30
0.0
 11
468.8820759999998
 21
155.4999999999998
 31
0.0
  0
ARC
  5
1310D
330
12E76
100
AcDbEntity
  8
1
  6
Continuous
100
AcDbCircle
 10
479.8820759999999
 20
147.9
 30
0.0
 40
11.0
100
AcDbArc
 50
30.75150199999999
 51
146.9442689999999
  0
ARC
  5
1310E
330
12E76
100
AcDbEntity
  8
3
  6
DASHED
100
AcDbCircle
 10
479.8820759999999
 20
147.9
 30
0.0
 40
11.0
100
AcDbArc
 50
146.9442689999999
 51
30.75150199999999
  0
LINE
  5
1310F
330
12E76
100
AcDbEntity
  8
4
  6
CENTER
100
AcDbLine
 10
479.8820759999999
 20
138.1995399999998
 30
0.0
 11
479.8820759999999
 21
157.60046
 31
0.0
  0
LINE
  5
13110
330
12E76
100
AcDbEntity
  8
1
  6
Continuous
100
AcDbLine
 10
490.382076
 20
244.4999999999998
 30
0.0
 11
469.382076
 21
244.4999999999998
 31
0.0
  0
LINE
  5
13111
330
12E76
100
AcDbEntity
  8
1
  6
Continuous
100
AcDbLine
 10
490.882076
 20
243.5
 30
0.0
 11
468.8820759999998
 21
243.5
 31
0.0
  0
LINE
  5
13112
330
12E76
100
AcDbEntity
  8
1
  6
Continuous
100
AcDbLine
 10
468.8820759999998
 20
245.9
 30
0.0
 11
468.8820759999998
 21
241.9
 31
0.0
  0
LINE
  5
13113
330
12E76
100
AcDbEntity
  8
4
  6
CENTER
100
AcDbLine
 10
458.8820759999999
 20
238.703417
 30
0.0
 11
458.8820759999999
 21
246.703417
 31
0.0
  0
LINE
  5
13114
330
12E76
100
AcDbEntity
  8
4
  6
CENTER
100
AcDbLine
 10
470.882076
 20
238.703417
 30
0.0
 11
470.882076
 21
246.703417
 31
0.0
  0
ARC
  5
13115
330
12E76
100
AcDbEntity
  8
3
  6
DASHED
100
AcDbCircle
 10
465.882076
 20
246.9
 30
0.0
 40
3.0
100
AcDbArc
 50
0.0
 51
90.0
  0
ARC
  5
13116
330
12E76
100
AcDbEntity
  8
1
  6
Continuous
100
AcDbCircle
 10
469.382076
 20
245.0
 30
0.0
 40
0.5
100
AcDbArc
 50
180.0
 51
270.0
  0
LINE
  5
13117
330
12E76
100
AcDbEntity
  8
3
  6
DASHED
100
AcDbLine
 10
468.8820759999998
 20
246.9
 30
0.0
 11
468.8820759999998
 21
245.9
 31
0.0
  0
LINE
  5
13118
330
12E76
100
AcDbEntity
  8
1
  6
Continuous
100
AcDbLine
 10
484.632076
 20
244.0
 30
0.0
 11
484.632076
 21
244.4999999999998
 31
0.0
  0
LINE
  5
13119
330
12E76
100
AcDbEntity
  8
1
  6
Continuous
100
AcDbLine
 10
475.1320759999998
 20
244.0
 30
0.0
 11
475.1320759999998
 21
244.4999999999998
 31
0.0
  0
LINE
  5
1311A
330
12E76
100
AcDbEntity
  8
1
  6
Continuous
100
AcDbLine
 10
490.882076
 20
245.9
 30
0.0
 11
490.882076
 21
245.0
 31
0.0
  0
ARC
  5
1311B
330
12E76
100
AcDbEntity
  8
1
  6
Continuous
100
AcDbCircle
 10
490.382076
 20
245.0
 30
0.0
 40
0.5
100
AcDbArc
 50
270.0
 51
0.0
  0
LINE
  5
1311C
330
12E76
100
AcDbEntity
  8
1
  6
Continuous
100
AcDbLine
 10
484.632076
 20
244.0
 30
0.0
 11
484.132076
 21
243.5
 31
0.0
  0
LINE
  5
1311D
330
12E76
100
AcDbEntity
  8
1
  6
Continuous
100
AcDbLine
 10
475.1320759999998
 20
244.0
 30
0.0
 11
475.632076
 21
243.5
 31
0.0
  0
LINE
  5
1311E
330
12E76
100
AcDbEntity
  8
1
  6
Continuous
100
AcDbLine
 10
475.1320759999998
 20
244.0
 30
0.0
 11
484.632076
 21
244.0
 31
0.0
  0
LINE
  5
1311F
330
12E76
100
AcDbEntity
  8
1
  6
Continuous
100
AcDbLine
 10
483.532076
 20
241.1999999999999
 30
0.0
 11
476.2320759999998
 21
241.1999999999999
 31
0.0
  0
LINE
  5
13120
330
12E76
100
AcDbEntity
  8
1
  6
Continuous
100
AcDbLine
 10
476.2320759999998
 20
241.1999999999999
 30
0.0
 11
476.932076
 21
241.9
 31
0.0
  0
LINE
  5
13121
330
12E76
100
AcDbEntity
  8
1
  6
Continuous
100
AcDbLine
 10
483.532076
 20
241.1999999999999
 30
0.0
 11
482.8320759999998
 21
241.9
 31
0.0
  0
LINE
  5
13122
330
12E76
100
AcDbEntity
  8
1
  6
Continuous
100
AcDbLine
 10
490.882076
 20
243.5
 30
0.0
 11
490.882076
 21
241.9
 31
0.0
  0
LINE
  5
13123
330
12E76
100
AcDbEntity
  8
4
  6
CENTER
100
AcDbLine
 10
479.8820759999999
 20
255.3542069999998
 30
0.0
 11
479.8820759999999
 21
237.4
 31
0.0
  0
LINE
  5
13124
330
12E76
100
AcDbEntity
  8
4
  6
CENTER
100
AcDbLine
 10
545.882076
 20
249.187481
 30
0.0
 11
545.882076
 21
257.187481
 31
0.0
  0
LINE
  5
13125
330
12E76
100
AcDbEntity
  8
4
  6
CENTER
100
AcDbLine
 10
466.1179279999998
 20
147.9
 30
0.0
 11
493.8024429999998
 21
147.9
 31
0.0
  0
LINE
  5
13126
330
12E76
100
AcDbEntity
  8
1
  6
Continuous
100
AcDbLine
 10
468.8820759999998
 20
153.9
 30
0.0
 11
487.8820759999999
 21
153.9
 31
0.0
  0
CIRCLE
  5
13127
330
12E76
100
AcDbEntity
  8
1
  6
Continuous
100
AcDbCircle
 10
458.8820759999999
 20
143.9
 30
0.0
 40
3.0
  0
LINE
  5
13128
330
12E76
100
AcDbEntity
  8
4
  6
CENTER
100
AcDbLine
 10
458.8820759999999
 20
137.9
 30
0.0
 11
458.8820759999999
 21
149.9
 31
0.0
  0
LINE
  5
13129
330
12E76
100
AcDbEntity
  8
4
  6
CENTER
100
AcDbLine
 10
470.882076
 20
139.4
 30
0.0
 11
470.882076
 21
148.3999999999998
 31
0.0
  0
CIRCLE
  5
1312A
330
12E76
100
AcDbEntity
  8
1
  6
Continuous
100
AcDbCircle
 10
470.882076
 20
143.9
 30
0.0
 40
2.0
  0
ARC
  5
1312B
330
12E76
100
AcDbEntity
  8
1
  6
Continuous
100
AcDbCircle
 10
487.8820759999999
 20
136.8999999999997
 30
0.0
 40
3.0
100
AcDbArc
 50
270.0
 51
0.0
  0
ARC
  5
1312C
330
12E76
100
AcDbEntity
  8
1
  6
Continuous
100
AcDbCircle
 10
487.8820759999999
 20
150.9
 30
0.0
 40
3.0
100
AcDbArc
 50
0.0
 51
90.0
  0
LINE
  5
1312D
330
12E76
100
AcDbEntity
  8
1
  6
Continuous
100
AcDbLine
 10
490.882076
 20
136.8999999999997
 30
0.0
 11
490.882076
 21
150.9
 31
0.0
  0
CIRCLE
  5
1312E
330
12E76
100
AcDbEntity
  8
1
  6
Continuous
100
AcDbCircle
 10
479.8820759999999
 20
147.9
 30
0.0
 40
3.649999999999999
  0
CIRCLE
  5
1312F
330
12E76
100
AcDbEntity
  8
1
  6
Continuous
100
AcDbCircle
 10
545.882076
 20
148.3999999999998
 30
0.0
 40
3.0
  0
CIRCLE
  5
13130
330
12E76
100
AcDbEntity
  8
1
  6
Continuous
100
AcDbCircle
 10
545.882076
 20
148.3999999999998
 30
0.0
 40
4.299999999999998
  0
LINE
  5
13131
330
12E76
100
AcDbEntity
  8
4
  6
CENTER
100
AcDbLine
 10
545.882076
 20
142.4
 30
0.0
 11
545.882076
 21
154.4
 31
0.0
  0
LINE
  5
13132
330
12E76
100
AcDbEntity
  8
4
  6
CENTER
100
AcDbLine
 10
663.8820759999997
 20
46.21251899999999
 30
0.0
 11
663.8820759999997
 21
38.212519
 31
0.0
  0
CIRCLE
  5
13133
330
12E76
100
AcDbEntity
  8
1
  6
Continuous
100
AcDbCircle
 10
663.8820759999997
 20
347.3999999999999
 30
0.0
 40
3.0
  0
LINE
  5
13134
330
12E76
100
AcDbEntity
  8
4
  6
CENTER
100
AcDbLine
 10
663.8820759999997
 20
353.3999999999999
 30
0.0
 11
663.8820759999997
 21
341.3999999999999
 31
0.0
  0
LINE
  5
13135
330
12E76
100
AcDbEntity
  8
4
  6
CENTER
100
AcDbLine
 10
781.882076
 20
46.21251899999999
 30
0.0
 11
781.882076
 21
38.212519
 31
0.0
  0
LINE
  5
13136
330
12E76
100
AcDbEntity
  8
1
  6
Continuous
100
AcDbLine
 10
795.882076
 20
41.5
 30
0.0
 11
795.882076
 21
46.5
 31
0.0
  0
LINE
  5
13137
330
12E76
100
AcDbEntity
  8
4
  6
CENTER
100
AcDbLine
 10
766.882076
 20
46.21251899999999
 30
0.0
 11
766.882076
 21
38.212519
 31
0.0
  0
ARC
  5
13138
330
12E76
100
AcDbEntity
  8
1
  6
Continuous
100
AcDbCircle
 10
792.8820759999996
 20
46.5
 30
0.0
 40
3.0
100
AcDbArc
 50
0.0
 51
90.0
  0
CIRCLE
  5
13139
330
12E76
100
AcDbEntity
  8
1
  6
Continuous
100
AcDbCircle
 10
781.882076
 20
347.3999999999999
 30
0.0
 40
3.0
  0
LINE
  5
1313A
330
12E76
100
AcDbEntity
  8
4
  6
CENTER
100
AcDbLine
 10
766.882076
 20
351.8999999999999
 30
0.0
 11
766.882076
 21
342.8999999999998
 31
0.0
  0
CIRCLE
  5
1313B
330
12E76
100
AcDbEntity
  8
1
  6
Continuous
100
AcDbCircle
 10
766.882076
 20
347.3999999999999
 30
0.0
 40
2.0
  0
LINE
  5
1313C
330
12E76
100
AcDbEntity
  8
1
  6
Continuous
100
AcDbLine
 10
795.882076
 20
360.4999999999998
 30
0.0
 11
795.882076
 21
334.2999999999999
 31
0.0
  0
LINE
  5
1313D
330
12E76
100
AcDbEntity
  8
4
  6
CENTER
100
AcDbLine
 10
781.882076
 20
353.3999999999999
 30
0.0
 11
781.882076
 21
341.3999999999999
 31
0.0
  0
ARC
  5
1313E
330
12E76
100
AcDbEntity
  8
1
  6
Continuous
100
AcDbCircle
 10
852.864152
 20
158.4
 30
0.0
 40
0.5
100
AcDbArc
 50
90.0
 51
180.0
  0
LINE
  5
1313F
330
12E76
100
AcDbEntity
  8
1
  6
Continuous
100
AcDbLine
 10
861.7641519999999
 20
159.9
 30
0.0
 11
861.7641519999999
 21
136.8999999999997
 31
0.0
  0
LINE
  5
13140
330
12E76
100
AcDbEntity
  8
1
  6
Continuous
100
AcDbLine
 10
860.1641519999999
 20
159.9
 30
0.0
 11
860.1641519999999
 21
136.8999999999997
 31
0.0
  0
ARC
  5
13141
330
12E76
100
AcDbEntity
  8
1
  6
Continuous
100
AcDbCircle
 10
858.8641519999999
 20
158.4
 30
0.0
 40
0.5
100
AcDbArc
 50
0.0
 51
90.0
  0
LINE
  5
13142
330
12E76
100
AcDbEntity
  8
4
  6
CENTER
100
AcDbLine
 10
847.1256300000003
 20
147.9
 30
0.0
 11
860.9335029999996
 21
147.9
 31
0.0
  0
LINE
  5
13143
330
12E76
100
AcDbEntity
  8
4
  6
CENTER
100
AcDbLine
 10
864.3561499999997
 20
142.9
 30
0.0
 11
850.7081389999997
 21
142.9
 31
0.0
  0
LINE
  5
13144
330
12E76
100
AcDbEntity
  8
1
  6
Continuous
100
AcDbLine
 10
860.1641519999999
 20
136.8999999999997
 30
0.0
 11
852.864152
 21
136.8999999999997
 31
0.0
  0
LINE
  5
13145
330
12E76
100
AcDbEntity
  8
1
  6
Continuous
100
AcDbLine
 10
860.1641519999999
 20
135.3
 30
0.0
 11
853.7641519999999
 21
135.3
 31
0.0
  0
LINE
  5
13146
330
12E76
100
AcDbEntity
  8
1
  6
Continuous
100
AcDbLine
 10
858.8641519999999
 20
158.9
 30
0.0
 11
852.864152
 21
158.9
 31
0.0
  0
LINE
  5
13147
330
12E76
100
AcDbEntity
  8
1
  6
Continuous
100
AcDbLine
 10
852.6641519999996
 20
131.9
 30
0.0
 11
858.6641519999997
 21
131.9
 31
0.0
  0
LINE
  5
13148
330
12E76
100
AcDbEntity
  8
1
  6
Continuous
100
AcDbLine
 10
859.1641519999997
 20
137.0
 30
0.0
 11
859.1641519999997
 21
136.8999999999997
 31
0.0
  0
LINE
  5
13149
330
12E76
100
AcDbEntity
  8
1
  6
Continuous
100
AcDbLine
 10
859.364152
 20
158.4
 30
0.0
 11
859.364152
 21
137.4
 31
0.0
  0
ARC
  5
1314A
330
12E76
100
AcDbEntity
  8
1
  6
Continuous
100
AcDbCircle
 10
860.1641519999999
 20
136.8999999999997
 30
0.0
 40
1.6
100
AcDbArc
 50
270.0
 51
0.0
  0
LINE
  5
1314B
330
12E76
100
AcDbEntity
  8
1
  6
Continuous
100
AcDbLine
 10
859.6641519999996
 20
138.15
 30
0.0
 11
859.6641519999996
 21
147.65
 31
0.0
  0
LINE
  5
1314C
330
12E76
100
AcDbEntity
  8
1
  6
Continuous
100
AcDbLine
 10
859.6641519999996
 20
138.15
 30
0.0
 11
859.364152
 21
138.15
 31
0.0
  0
LINE
  5
1314D
330
12E76
100
AcDbEntity
  8
1
  6
Continuous
100
AcDbLine
 10
859.6641519999996
 20
138.15
 30
0.0
 11
860.1641519999999
 21
138.65
 31
0.0
  0
LINE
  5
1314E
330
12E76
100
AcDbEntity
  8
1
  6
Continuous
100
AcDbLine
 10
859.6641519999996
 20
147.65
 30
0.0
 11
859.364152
 21
147.65
 31
0.0
  0
LINE
  5
1314F
330
12E76
100
AcDbEntity
  8
1
  6
Continuous
100
AcDbLine
 10
859.6641519999996
 20
147.65
 30
0.0
 11
860.1641519999999
 21
147.1499999999998
 31
0.0
  0
LINE
  5
13150
330
12E76
100
AcDbEntity
  8
1
  6
Continuous
100
AcDbLine
 10
862.4641519999999
 20
146.55
 30
0.0
 11
861.7641519999999
 21
145.8499999999999
 31
0.0
  0
LINE
  5
13151
330
12E76
100
AcDbEntity
  8
1
  6
Continuous
100
AcDbLine
 10
862.4641519999999
 20
139.25
 30
0.0
 11
861.7641519999999
 21
139.9499999999999
 31
0.0
  0
LINE
  5
13152
330
12E76
100
AcDbEntity
  8
1
  6
Continuous
100
AcDbLine
 10
862.4641519999999
 20
146.55
 30
0.0
 11
862.4641519999999
 21
139.25
 31
0.0
  0
LINE
  5
13153
330
12E76
100
AcDbEntity
  8
4
  6
CENTER
100
AcDbLine
 10
857.2770189999998
 20
148.3999999999998
 30
0.0
 11
864.1984220000001
 21
148.3999999999998
 31
0.0
  0
ARC
  5
13154
330
12E76
100
AcDbEntity
  8
1
  6
Continuous
100
AcDbCircle
 10
858.8641519999999
 20
137.4
 30
0.0
 40
0.5
100
AcDbArc
 50
270.0
 51
0.0
  0
ARC
  5
13155
330
12E76
100
AcDbEntity
  8
1
  6
Continuous
100
AcDbCircle
 10
858.6641519999997
 20
132.4
 30
0.0
 40
0.5
100
AcDbArc
 50
270.0
 51
0.0
  0
LINE
  5
13156
330
12E76
100
AcDbEntity
  8
1
  6
Continuous
100
AcDbLine
 10
859.1641519999997
 20
135.3
 30
0.0
 11
859.1641519999997
 21
132.4
 31
0.0
  0
LINE
  5
13157
330
12E76
100
AcDbEntity
  8
1
  6
Continuous
100
AcDbLine
 10
852.1641519999999
 20
153.3999999999998
 30
0.0
 11
852.1641519999999
 21
152.65
 31
0.0
  0
LINE
  5
13158
330
12E76
100
AcDbEntity
  8
1
  6
Continuous
100
AcDbLine
 10
851.364152
 20
153.9
 30
0.0
 11
851.364152
 21
133.9
 31
0.0
  0
LINE
  5
13159
330
12E76
100
AcDbEntity
  8
1
  6
Continuous
100
AcDbLine
 10
849.7641519999998
 20
153.9
 30
0.0
 11
849.7641519999998
 21
133.9
 31
0.0
  0
LINE
  5
1315A
330
12E76
100
AcDbEntity
  8
1
  6
Continuous
100
AcDbLine
 10
849.0641519999996
 20
151.55
 30
0.0
 11
849.0641519999996
 21
144.25
 31
0.0
  0
LINE
  5
1315B
330
12E76
100
AcDbEntity
  8
1
  6
Continuous
100
AcDbLine
 10
851.8641519999999
 20
143.1499999999998
 30
0.0
 11
851.8641519999999
 21
152.65
 31
0.0
  0
LINE
  5
1315C
330
12E76
100
AcDbEntity
  8
1
  6
Continuous
100
AcDbLine
 10
851.364152
 20
152.15
 30
0.0
 11
851.364152
 21
143.65
 31
0.0
  0
LINE
  5
1315D
330
12E76
100
AcDbEntity
  8
4
  6
CENTER
100
AcDbLine
 10
847.1256300000003
 20
143.9
 30
0.0
 11
854.0470330000001
 21
143.9
 31
0.0
  0
LINE
  5
1315E
330
12E76
100
AcDbEntity
  8
1
  6
Continuous
100
AcDbLine
 10
849.7641519999998
 20
133.9
 30
0.0
 11
851.364152
 21
133.9
 31
0.0
  0
LINE
  5
1315F
330
12E76
100
AcDbEntity
  8
1
  6
Continuous
100
AcDbLine
 10
849.0641519999996
 20
144.25
 30
0.0
 11
849.7641519999998
 21
144.95
 31
0.0
  0
LINE
  5
13160
330
12E76
100
AcDbEntity
  8
1
  6
Continuous
100
AcDbLine
 10
851.8641519999999
 20
143.1499999999998
 30
0.0
 11
851.364152
 21
143.65
 31
0.0
  0
LINE
  5
13161
330
12E76
100
AcDbEntity
  8
1
  6
Continuous
100
AcDbLine
 10
851.8641519999999
 20
143.1499999999998
 30
0.0
 11
852.3641519999998
 21
143.1499999999998
 31
0.0
  0
LINE
  5
13162
330
12E76
100
AcDbEntity
  8
1
  6
Continuous
100
AcDbLine
 10
849.7641519999998
 20
153.9
 30
0.0
 11
852.3641519999998
 21
153.9
 31
0.0
  0
LINE
  5
13163
330
12E76
100
AcDbEntity
  8
1
  6
Continuous
100
AcDbLine
 10
851.364152
 20
155.4999999999998
 30
0.0
 11
852.3641519999998
 21
155.4999999999998
 31
0.0
  0
ARC
  5
13164
330
12E76
100
AcDbEntity
  8
1
  6
Continuous
100
AcDbCircle
 10
852.6641519999996
 20
153.3999999999998
 30
0.0
 40
0.5
100
AcDbArc
 50
126.869898
 51
180.0
  0
ARC
  5
13165
330
12E76
100
AcDbEntity
  8
1
  6
Continuous
100
AcDbCircle
 10
851.364152
 20
153.9
 30
0.0
 40
1.6
100
AcDbArc
 50
90.0
 51
180.0
  0
LINE
  5
13166
330
12E76
100
AcDbEntity
  8
1
  6
Continuous
100
AcDbLine
 10
849.0641519999996
 20
151.55
 30
0.0
 11
849.7641519999998
 21
150.8499999999999
 31
0.0
  0
LINE
  5
13167
330
12E76
100
AcDbEntity
  8
1
  6
Continuous
100
AcDbLine
 10
851.8641519999999
 20
152.65
 30
0.0
 11
851.364152
 21
152.15
 31
0.0
  0
LINE
  5
13168
330
12E76
100
AcDbEntity
  8
1
  6
Continuous
100
AcDbLine
 10
852.3641519999998
 20
158.4
 30
0.0
 11
852.3641519999998
 21
137.4
 31
0.0
  0
LINE
  5
13169
330
12E76
100
AcDbEntity
  8
1
  6
Continuous
100
AcDbLine
 10
851.8641519999999
 20
152.65
 30
0.0
 11
852.3641519999998
 21
152.65
 31
0.0
  0
LINE
  5
1316A
330
12E76
100
AcDbEntity
  8
1
  6
Continuous
100
AcDbLine
 10
853.7641519999999
 20
135.3
 30
0.0
 11
853.7641519999999
 21
136.8999999999997
 31
0.0
  0
ARC
  5
1316B
330
12E76
100
AcDbEntity
  8
1
  6
Continuous
100
AcDbCircle
 10
852.864152
 20
137.4
 30
0.0
 40
0.5
100
AcDbArc
 50
180.0
 51
270.0
  0
ARC
  5
1316C
330
12E76
100
AcDbEntity
  8
1
  6
Continuous
100
AcDbCircle
 10
852.6641519999996
 20
132.4
 30
0.0
 40
0.5
100
AcDbArc
 50
180.0
 51
270.0
  0
LINE
  5
1316D
330
12E76
100
AcDbEntity
  8
1
  6
Continuous
100
AcDbLine
 10
852.1641519999999
 20
143.1499999999998
 30
0.0
 11
852.1641519999999
 21
132.4
 31
0.0
  0
LINE
  5
1316E
330
12E76
100
AcDbEntity
  8
1
  6
Continuous
100
AcDbLine
 10
860.1641519999999
 20
161.5
 30
0.0
 11
853.7641519999999
 21
161.5
 31
0.0
  0
LINE
  5
1316F
330
12E76
100
AcDbEntity
  8
1
  6
Continuous
100
AcDbLine
 10
860.1641519999999
 20
159.9
 30
0.0
 11
853.7641519999999
 21
159.9
 31
0.0
  0
ARC
  5
13170
330
12E76
100
AcDbEntity
  8
1
  6
Continuous
100
AcDbCircle
 10
860.1641519999999
 20
159.9
 30
0.0
 40
1.6
100
AcDbArc
 50
0.0
 51
90.0
  0
LINE
  5
13171
330
12E76
100
AcDbEntity
  8
1
  6
Continuous
100
AcDbLine
 10
853.7641519999999
 20
161.5
 30
0.0
 11
853.7641519999999
 21
159.9
 31
0.0
  0
LINE
  5
13172
330
12E76
100
AcDbEntity
  8
4
  6
CENTER
100
AcDbLine
 10
663.8820759999997
 20
249.187481
 30
0.0
 11
663.8820759999997
 21
257.187481
 31
0.0
  0
CIRCLE
  5
13173
330
12E76
100
AcDbEntity
  8
1
  6
Continuous
100
AcDbCircle
 10
663.8820759999997
 20
148.3999999999998
 30
0.0
 40
3.0
  0
CIRCLE
  5
13174
330
12E76
100
AcDbEntity
  8
1
  6
Continuous
100
AcDbCircle
 10
663.8820759999997
 20
148.3999999999998
 30
0.0
 40
4.299999999999998
  0
LINE
  5
13175
330
12E76
100
AcDbEntity
  8
4
  6
CENTER
100
AcDbLine
 10
663.8820759999997
 20
142.4
 30
0.0
 11
663.8820759999997
 21
154.4
 31
0.0
  0
LINE
  5
13176
330
12E76
100
AcDbEntity
  8
1
  6
Continuous
100
AcDbLine
 10
795.882076
 20
135.3
 30
0.0
 11
795.882076
 21
161.5
 31
0.0
  0
LINE
  5
13177
330
12E76
100
AcDbEntity
  8
4
  6
CENTER
100
AcDbLine
 10
766.882076
 20
249.187481
 30
0.0
 11
766.882076
 21
257.187481
 31
0.0
  0
ARC
  5
13178
330
12E76
100
AcDbEntity
  8
1
  6
Continuous
100
AcDbCircle
 10
792.8820759999996
 20
248.9
 30
0.0
 40
3.0
100
AcDbArc
 50
270.0
 51
0.0
  0
LINE
  5
13179
330
12E76
100
AcDbEntity
  8
1
  6
Continuous
100
AcDbLine
 10
795.882076
 20
253.9
 30
0.0
 11
795.882076
 21
248.9
 31
0.0
  0
LINE
  5
1317A
330
12E76
100
AcDbEntity
  8
4
  6
CENTER
100
AcDbLine
 10
781.882076
 20
249.187481
 30
0.0
 11
781.882076
 21
257.187481
 31
0.0
  0
CIRCLE
  5
1317B
330
12E76
100
AcDbEntity
  8
1
  6
Continuous
100
AcDbCircle
 10
781.882076
 20
148.3999999999998
 30
0.0
 40
3.0
  0
CIRCLE
  5
1317C
330
12E76
100
AcDbEntity
  8
1
  6
Continuous
100
AcDbCircle
 10
781.882076
 20
148.3999999999998
 30
0.0
 40
4.299999999999998
  0
CIRCLE
  5
1317D
330
12E76
100
AcDbEntity
  8
1
  6
Continuous
100
AcDbCircle
 10
766.882076
 20
148.3999999999998
 30
0.0
 40
2.0
  0
LINE
  5
1317E
330
12E76
100
AcDbEntity
  8
4
  6
CENTER
100
AcDbLine
 10
766.882076
 20
143.9
 30
0.0
 11
766.882076
 21
152.9
 31
0.0
  0
LINE
  5
1317F
330
12E76
100
AcDbEntity
  8
4
  6
CENTER
100
AcDbLine
 10
781.882076
 20
142.4
 30
0.0
 11
781.882076
 21
154.4
 31
0.0
  0
LINE
  5
13180
330
12E76
100
AcDbEntity
  8
4
  6
CENTER
100
AcDbLine
 10
416.882076
 20
565.203026
 30
0.0
 11
416.882076
 21
573.867742
 31
0.0
  0
LINE
  5
13181
330
12E76
100
AcDbEntity
  8
5
  6
PHANTOM
100
AcDbLine
 10
409.8820759999998
 20
573.4498160000002
 30
0.0
 11
423.882076
 21
573.4498160000002
 31
0.0
  0
LINE
  5
13182
330
12E76
100
AcDbEntity
  8
5
  6
PHANTOM
100
AcDbLine
 10
400.5575209999998
 20
551.849816
 30
0.0
 11
413.2066309999998
 21
551.849816
 31
0.0
  0
LINE
  5
13183
330
12E76
100
AcDbEntity
  8
5
  6
PHANTOM
100
AcDbLine
 10
413.176194
 20
571.849816
 30
0.0
 11
420.587958
 21
571.849816
 31
0.0
  0
LINE
  5
13184
330
12E76
100
AcDbEntity
  8
5
  6
PHANTOM
100
AcDbLine
 10
395.882076
 20
554.849816
 30
0.0
 11
395.882076
 21
557.849816
 31
0.0
  0
ARC
  5
13185
330
12E76
100
AcDbEntity
  8
5
  6
PHANTOM
100
AcDbCircle
 10
398.8820759999999
 20
554.849816
 30
0.0
 40
3.0
100
AcDbArc
 50
180.0
 51
270.0
  0
LINE
  5
13186
330
12E76
100
AcDbEntity
  8
4
  6
CENTER
100
AcDbLine
 10
409.8820759999998
 20
555.849816
 30
0.0
 11
409.8820759999998
 21
567.849816
 31
0.0
  0
CIRCLE
  5
13187
330
12E76
100
AcDbEntity
  8
5
  6
PHANTOM
100
AcDbCircle
 10
409.8820759999998
 20
561.849816
 30
0.0
 40
4.299999999999998
  0
CIRCLE
  5
13188
330
12E76
100
AcDbEntity
  8
5
  6
PHANTOM
100
AcDbCircle
 10
409.8820759999998
 20
561.849816
 30
0.0
 40
3.0
  0
CIRCLE
  5
13189
330
12E76
100
AcDbEntity
  8
5
  6
PHANTOM
100
AcDbCircle
 10
424.882076
 20
561.849816
 30
0.0
 40
2.0
  0
LINE
  5
1318A
330
12E76
100
AcDbEntity
  8
4
  6
CENTER
100
AcDbLine
 10
424.882076
 20
565.849816
 30
0.0
 11
424.882076
 21
557.849816
 31
0.0
  0
CIRCLE
  5
1318B
330
12E76
100
AcDbEntity
  8
5
  6
PHANTOM
100
AcDbCircle
 10
527.882076
 20
561.849816
 30
0.0
 40
3.0
  0
CIRCLE
  5
1318C
330
12E76
100
AcDbEntity
  8
5
  6
PHANTOM
100
AcDbCircle
 10
527.882076
 20
561.849816
 30
0.0
 40
4.299999999999998
  0
LINE
  5
1318D
330
12E76
100
AcDbEntity
  8
4
  6
CENTER
100
AcDbLine
 10
527.882076
 20
555.849816
 30
0.0
 11
527.882076
 21
567.849816
 31
0.0
  0
CIRCLE
  5
1318E
330
12E76
100
AcDbEntity
  8
5
  6
PHANTOM
100
AcDbCircle
 10
645.882076
 20
561.849816
 30
0.0
 40
4.299999999999998
  0
LINE
  5
1318F
330
12E76
100
AcDbEntity
  8
4
  6
CENTER
100
AcDbLine
 10
645.882076
 20
555.849816
 30
0.0
 11
645.882076
 21
567.849816
 31
0.0
  0
CIRCLE
  5
13190
330
12E76
100
AcDbEntity
  8
5
  6
PHANTOM
100
AcDbCircle
 10
645.882076
 20
561.849816
 30
0.0
 40
3.0
  0
LINE
  5
13191
330
12E76
100
AcDbEntity
  8
5
  6
PHANTOM
100
AcDbLine
 10
728.882076
 20
573.4498160000002
 30
0.0
 11
773.882076
 21
573.4498160000002
 31
0.0
  0
LINE
  5
13192
330
12E76
100
AcDbEntity
  8
5
  6
PHANTOM
100
AcDbLine
 10
728.882076
 20
571.849816
 30
0.0
 11
775.662532
 21
571.849816
 31
0.0
  0
LINE
  5
13193
330
12E76
100
AcDbEntity
  8
5
  6
PHANTOM
100
AcDbLine
 10
721.8820759999996
 20
568.4498160000003
 30
0.0
 11
728.882076
 21
571.849816
 31
0.0
  0
LINE
  5
13194
330
12E76
100
AcDbEntity
  8
5
  6
PHANTOM
100
AcDbLine
 10
721.8820759999996
 20
570.0498159999997
 30
0.0
 11
728.882076
 21
573.4498160000002
 31
0.0
  0
LINE
  5
13195
330
12E76
100
AcDbEntity
  8
5
  6
PHANTOM
100
AcDbLine
 10
714.8820759999996
 20
571.4498160000001
 30
0.0
 11
715.705606
 21
571.4498160000001
 31
0.0
  0
LINE
  5
13196
330
12E76
100
AcDbEntity
  8
5
  6
PHANTOM
100
AcDbLine
 10
714.8820759999996
 20
571.849816
 30
0.0
 11
714.8820759999996
 21
571.4498160000001
 31
0.0
  0
LINE
  5
13197
330
12E76
100
AcDbEntity
  8
5
  6
PHANTOM
100
AcDbLine
 10
721.8820759999996
 20
568.4498160000003
 30
0.0
 11
714.8820759999996
 21
571.849816
 31
0.0
  0
LINE
  5
13198
330
12E76
100
AcDbEntity
  8
5
  6
PHANTOM
100
AcDbLine
 10
721.8820759999996
 20
570.0498159999997
 30
0.0
 11
714.8820759999996
 21
573.4498160000002
 31
0.0
  0
LINE
  5
13199
330
12E76
100
AcDbEntity
  8
5
  6
PHANTOM
100
AcDbLine
 10
718.999723
 20
571.4498160000001
 30
0.0
 11
724.7644289999997
 21
571.4498160000001
 31
0.0
  0
LINE
  5
1319A
330
12E76
100
AcDbEntity
  8
5
  6
PHANTOM
100
AcDbLine
 10
728.882076
 20
571.849816
 30
0.0
 11
728.882076
 21
571.4498160000001
 31
0.0
  0
LINE
  5
1319B
330
12E76
100
AcDbEntity
  8
5
  6
PHANTOM
100
AcDbLine
 10
728.058547
 20
571.4498160000001
 30
0.0
 11
728.882076
 21
571.4498160000001
 31
0.0
  0
LINE
  5
1319C
330
12E76
100
AcDbEntity
  8
4
  6
CENTER
100
AcDbLine
 10
784.8820759999996
 20
551.849816
 30
0.0
 11
784.8820759999996
 21
579.849816
 31
0.0
  0
CIRCLE
  5
1319D
330
12E76
100
AcDbEntity
  8
5
  6
PHANTOM
100
AcDbCircle
 10
784.8820759999996
 20
565.849816
 30
0.0
 40
11.0
  0
LINE
  5
1319E
330
12E76
100
AcDbEntity
  8
4
  6
CENTER
100
AcDbLine
 10
798.78497
 20
565.849816
 30
0.0
 11
770.78497
 21
565.849816
 31
0.0
  0
LINE
  5
1319F
330
12E76
100
AcDbEntity
  8
5
  6
PHANTOM
100
AcDbLine
 10
773.882076
 20
571.849816
 30
0.0
 11
773.882076
 21
573.4498160000002
 31
0.0
  0
LINE
  5
131A0
330
12E76
100
AcDbEntity
  8
4
  6
CENTER
100
AcDbLine
 10
763.8820759999996
 20
567.849816
 30
0.0
 11
763.8820759999996
 21
555.849816
 31
0.0
  0
ARC
  5
131A1
330
12E76
100
AcDbEntity
  8
5
  6
PHANTOM
100
AcDbCircle
 10
792.8820759999996
 20
568.849816
 30
0.0
 40
3.0
100
AcDbArc
 50
0.0
 51
61.024143
  0
ARC
  5
131A2
330
12E76
100
AcDbEntity
  8
5
  6
PHANTOM
100
AcDbCircle
 10
792.8820759999996
 20
554.849816
 30
0.0
 40
3.0
100
AcDbArc
 50
270.0
 51
0.0
  0
LINE
  5
131A3
330
12E76
100
AcDbEntity
  8
4
  6
CENTER
100
AcDbLine
 10
775.8820759999996
 20
566.349816
 30
0.0
 11
775.8820759999996
 21
557.349816
 31
0.0
  0
ARC
  5
131A4
330
12E76
100
AcDbEntity
  8
5
  6
PHANTOM
100
AcDbCircle
 10
775.8820759999996
 20
561.849816
 30
0.0
 40
2.0
100
AcDbArc
 50
144.471448
 51
263.45353
  0
CIRCLE
  5
131A5
330
12E76
100
AcDbEntity
  8
5
  6
PHANTOM
100
AcDbCircle
 10
763.8820759999996
 20
561.849816
 30
0.0
 40
4.299999999999998
  0
CIRCLE
  5
131A6
330
12E76
100
AcDbEntity
  8
5
  6
PHANTOM
100
AcDbCircle
 10
763.8820759999996
 20
561.849816
 30
0.0
 40
3.0
  0
LINE
  5
131A7
330
12E76
100
AcDbEntity
  8
5
  6
PHANTOM
100
AcDbLine
 10
487.8344339999999
 20
573.4498160000002
 30
0.0
 11
714.8820759999996
 21
573.4498160000002
 31
0.0
  0
LINE
  5
131A8
330
12E76
100
AcDbEntity
  8
5
  6
PHANTOM
100
AcDbLine
 10
489.101621
 20
571.849816
 30
0.0
 11
714.8820759999996
 21
571.849816
 31
0.0
  0
LINE
  5
131A9
330
12E76
100
AcDbEntity
  8
5
  6
PHANTOM
100
AcDbLine
 10
468.8820759999998
 20
573.4498160000002
 30
0.0
 11
471.9297179999998
 21
573.4498160000002
 31
0.0
  0
LINE
  5
131AA
330
12E76
100
AcDbEntity
  8
5
  6
PHANTOM
100
AcDbLine
 10
487.8820759999999
 20
551.849816
 30
0.0
 11
792.8820759999996
 21
551.849816
 31
0.0
  0
LINE
  5
131AB
330
12E76
100
AcDbEntity
  8
5
  6
PHANTOM
100
AcDbLine
 10
487.8820759999999
 20
133.9
 30
0.0
 11
792.8820759999996
 21
133.9
 31
0.0
  0
LINE
  5
131AC
330
12E76
100
AcDbEntity
  8
5
  6
PHANTOM
100
AcDbLine
 10
409.8820759999998
 20
155.4999999999998
 30
0.0
 11
423.882076
 21
155.4999999999998
 31
0.0
  0
ARC
  5
131AD
330
12E76
100
AcDbEntity
  8
5
  6
PHANTOM
100
AcDbCircle
 10
398.8820759999999
 20
136.8999999999997
 30
0.0
 40
3.0
100
AcDbArc
 50
180.0
 51
270.0
  0
LINE
  5
131AE
330
12E76
100
AcDbEntity
  8
4
  6
CENTER
100
AcDbLine
 10
409.8820759999998
 20
137.9
 30
0.0
 11
409.8820759999998
 21
149.9
 31
0.0
  0
CIRCLE
  5
131AF
330
12E76
100
AcDbEntity
  8
5
  6
PHANTOM
100
AcDbCircle
 10
409.8820759999998
 20
143.9
 30
0.0
 40
3.0
  0
CIRCLE
  5
131B0
330
12E76
100
AcDbEntity
  8
5
  6
PHANTOM
100
AcDbCircle
 10
424.882076
 20
143.9
 30
0.0
 40
2.0
  0
LINE
  5
131B1
330
12E76
100
AcDbEntity
  8
4
  6
CENTER
100
AcDbLine
 10
424.882076
 20
147.9
 30
0.0
 11
424.882076
 21
139.9
 31
0.0
  0
CIRCLE
  5
131B2
330
12E76
100
AcDbEntity
  8
5
  6
PHANTOM
100
AcDbCircle
 10
527.882076
 20
143.9
 30
0.0
 40
3.0
  0
LINE
  5
131B3
330
12E76
100
AcDbEntity
  8
4
  6
CENTER
100
AcDbLine
 10
527.882076
 20
137.9
 30
0.0
 11
527.882076
 21
149.9
 31
0.0
  0
CIRCLE
  5
131B4
330
12E76
100
AcDbEntity
  8
5
  6
PHANTOM
100
AcDbCircle
 10
645.882076
 20
143.9
 30
0.0
 40
3.0
  0
LINE
  5
131B5
330
12E76
100
AcDbEntity
  8
4
  6
CENTER
100
AcDbLine
 10
645.882076
 20
137.9
 30
0.0
 11
645.882076
 21
149.9
 31
0.0
  0
ARC
  5
131B6
330
12E76
100
AcDbEntity
  8
5
  6
PHANTOM
100
AcDbCircle
 10
792.8820759999996
 20
136.8999999999997
 30
0.0
 40
3.0
100
AcDbArc
 50
270.0
 51
0.0
  0
LINE
  5
131B7
330
12E76
100
AcDbEntity
  8
5
  6
PHANTOM
100
AcDbLine
 10
728.882076
 20
155.4999999999998
 30
0.0
 11
773.882076
 21
155.4999999999998
 31
0.0
  0
LINE
  5
131B8
330
12E76
100
AcDbEntity
  8
5
  6
PHANTOM
100
AcDbLine
 10
724.7644289999997
 20
153.5
 30
0.0
 11
728.882076
 21
155.4999999999998
 31
0.0
  0
LINE
  5
131B9
330
12E76
100
AcDbEntity
  8
5
  6
PHANTOM
100
AcDbLine
 10
714.8820759999996
 20
153.5
 30
0.0
 11
728.882076
 21
153.5
 31
0.0
  0
LINE
  5
131BA
330
12E76
100
AcDbEntity
  8
5
  6
PHANTOM
100
AcDbLine
 10
718.999723
 20
153.5
 30
0.0
 11
714.8820759999996
 21
155.4999999999998
 31
0.0
  0
LINE
  5
131BB
330
12E76
100
AcDbEntity
  8
5
  6
PHANTOM
100
AcDbLine
 10
714.8820759999996
 20
155.4999999999998
 30
0.0
 11
714.8820759999996
 21
153.5
 31
0.0
  0
LINE
  5
131BC
330
12E76
100
AcDbEntity
  8
5
  6
PHANTOM
100
AcDbLine
 10
715.705606
 20
153.5
 30
0.0
 11
714.8820759999996
 21
153.9
 31
0.0
  0
LINE
  5
131BD
330
12E76
100
AcDbEntity
  8
5
  6
PHANTOM
100
AcDbLine
 10
728.882076
 20
155.4999999999998
 30
0.0
 11
728.882076
 21
153.5
 31
0.0
  0
LINE
  5
131BE
330
12E76
100
AcDbEntity
  8
5
  6
PHANTOM
100
AcDbLine
 10
728.058547
 20
153.5
 30
0.0
 11
728.882076
 21
153.9
 31
0.0
  0
ARC
  5
131BF
330
12E76
100
AcDbEntity
  8
5
  6
PHANTOM
100
AcDbCircle
 10
784.8820759999996
 20
147.9
 30
0.0
 40
11.0
100
AcDbArc
 50
146.9442689999999
 51
30.75150199999999
  0
LINE
  5
131C0
330
12E76
100
AcDbEntity
  8
4
  6
CENTER
100
AcDbLine
 10
771.117928
 20
147.9
 30
0.0
 11
798.8024429999996
 21
147.9
 31
0.0
  0
LINE
  5
131C1
330
12E76
100
AcDbEntity
  8
5
  6
PHANTOM
100
AcDbLine
 10
773.882076
 20
153.9
 30
0.0
 11
792.8820759999996
 21
153.9
 31
0.0
  0
CIRCLE
  5
131C2
330
12E76
100
AcDbEntity
  8
5
  6
PHANTOM
100
AcDbCircle
 10
775.8820759999996
 20
143.9
 30
0.0
 40
2.0
  0
LINE
  5
131C3
330
12E76
100
AcDbEntity
  8
5
  6
PHANTOM
100
AcDbLine
 10
773.882076
 20
153.9
 30
0.0
 11
773.882076
 21
155.4999999999998
 31
0.0
  0
CIRCLE
  5
131C4
330
12E76
100
AcDbEntity
  8
5
  6
PHANTOM
100
AcDbCircle
 10
763.8820759999996
 20
143.9
 30
0.0
 40
3.0
  0
LINE
  5
131C5
330
12E76
100
AcDbEntity
  8
4
  6
CENTER
100
AcDbLine
 10
763.8820759999996
 20
137.9
 30
0.0
 11
763.8820759999996
 21
149.9
 31
0.0
  0
ARC
  5
131C6
330
12E76
100
AcDbEntity
  8
5
  6
PHANTOM
100
AcDbCircle
 10
784.8820759999996
 20
147.9
 30
0.0
 40
11.0
100
AcDbArc
 50
30.75150199999999
 51
146.9442689999999
  0
LINE
  5
131C7
330
12E76
100
AcDbEntity
  8
4
  6
CENTER
100
AcDbLine
 10
784.8820759999996
 20
138.1995399999998
 30
0.0
 11
784.8820759999996
 21
157.60046
 31
0.0
  0
LINE
  5
131C8
330
12E76
100
AcDbEntity
  8
4
  6
CENTER
100
AcDbLine
 10
775.8820759999996
 20
139.4
 30
0.0
 11
775.8820759999996
 21
148.3999999999998
 31
0.0
  0
ARC
  5
131C9
330
12E76
100
AcDbEntity
  8
5
  6
PHANTOM
100
AcDbCircle
 10
792.8820759999996
 20
150.9
 30
0.0
 40
3.0
100
AcDbArc
 50
0.0
 51
90.0
  0
CIRCLE
  5
131CA
330
12E76
100
AcDbEntity
  8
5
  6
PHANTOM
100
AcDbCircle
 10
784.8820759999996
 20
147.9
 30
0.0
 40
3.649999999999999
  0
LINE
  5
131CB
330
12E76
100
AcDbEntity
  8
5
  6
PHANTOM
100
AcDbLine
 10
468.8820759999998
 20
155.4999999999998
 30
0.0
 11
714.8820759999996
 21
155.4999999999998
 31
0.0
  0
ENDSEC
  0
SECTION
  2
OBJECTS
  0
DICTIONARY
  5
12E64
330
0
100
AcDbDictionary
281
     1
  3
ACAD_CIP_PREVIOUS_PRODUCT_INFO
350
1322B
  3
ACAD_COLOR
350
1320D
  3
ACAD_DETAILVIEWSTYLE
350
13226
  3
ACAD_GROUP
350
12E65
  3
ACAD_LAYOUT
350
12E71
  3
ACAD_MATERIAL
350
131DB
  3
ACAD_MLEADERSTYLE
350
13222
  3
ACAD_MLINESTYLE
350
12E6E
  3
ACAD_PLOTSETTINGS
350
12E70
  3
ACAD_PLOTSTYLENAME
350
131D9
  3
ACAD_SCALELIST
350
13210
  3
ACAD_SECTIONVIEWSTYLE
350
13224
  3
ACAD_TABLESTYLE
350
1320E
  3
ACAD_VISUALSTYLE
350
131F4
  3
ACDB_RECOMPOSE_DATA
350
13249
  3
AcDbVariableDictionary
350
1323C
  3
DWGPROPS
350
1324A
  0
DICTIONARY
  5
1322C
330
12E68
100
AcDbDictionary
280
     1
281
     1
  3
ADSK_XREC_LAYER_RECONCILED
360
1322D
  0
DICTIONARY
  5
1322E
330
12E7E
100
AcDbDictionary
280
     1
281
     1
  3
ADSK_XREC_LAYER_RECONCILED
360
1322F
  0
DICTIONARY
  5
13230
330
12E7F
100
AcDbDictionary
280
     1
281
     1
  3
ADSK_XREC_LAYER_RECONCILED
360
13231
  0
DICTIONARY
  5
13232
330
12E80
100
AcDbDictionary
280
     1
281
     1
  3
ADSK_XREC_LAYER_RECONCILED
360
13233
  0
DICTIONARY
  5
13234
330
12E81
100
AcDbDictionary
280
     1
281
     1
  3
ADSK_XREC_LAYER_RECONCILED
360
13235
  0
DICTIONARY
  5
13236
330
12E82
100
AcDbDictionary
280
     1
281
     1
  3
ADSK_XREC_LAYER_RECONCILED
360
13237
  0
DICTIONARY
  5
13238
330
12E83
100
AcDbDictionary
280
     1
281
     1
  3
ADSK_XREC_LAYER_RECONCILED
360
13239
  0
DICTIONARY
  5
1323A
330
12E84
100
AcDbDictionary
280
     1
281
     1
  3
ADSK_XREC_LAYER_RECONCILED
360
1323B
  0
DICTIONARY
  5
131D4
330
12E76
100
AcDbDictionary
281
     1
  3
ACAD_LAYOUTSELFREF
350
131D5
  0
DICTIONARY
  5
131D2
330
12E72
100
AcDbDictionary
281
     1
  3
ACAD_LAYOUTSELFREF
350
131D3
  0
XRECORD
  5
1322B
102
{ACAD_REACTORS
330
12E64
102
}
330
12E64
100
AcDbXrecord
280
     1
300
ACDLT
300
2014
300
ACDLT_F_S
  0
DICTIONARY
  5
1320D
102
{ACAD_REACTORS
330
12E64
102
}
330
12E64
100
AcDbDictionary
281
     1
  0
DICTIONARY
  5
13226
102
{ACAD_REACTORS
330
12E64
102
}
330
12E64
100
AcDbDictionary
281
     1
  3
Imperial24
350
13227
  0
DICTIONARY
  5
12E65
102
{ACAD_REACTORS
330
12E64
102
}
330
12E64
100
AcDbDictionary
281
     1
  0
DICTIONARY
  5
12E71
102
{ACAD_REACTORS
330
12E64
102
}
330
12E64
100
AcDbDictionary
281
     1
  3
Model
350
13228
  3
レイアウト1
350
13229
  0
DICTIONARY
  5
131DB
102
{ACAD_REACTORS
330
12E64
102
}
330
12E64
100
AcDbDictionary
281
     1
  3
ByBlock
350
131E4
  3
ByLayer
350
131DC
  3
Global
350
131EC
  0
DICTIONARY
  5
13222
102
{ACAD_REACTORS
330
12E64
102
}
330
12E64
100
AcDbDictionary
281
     1
  3
Standard
350
13223
  0
DICTIONARY
  5
12E6E
102
{ACAD_REACTORS
330
12E64
102
}
330
12E64
100
AcDbDictionary
281
     1
  3
STANDARD
350
12E6F
  0
DICTIONARY
  5
12E70
102
{ACAD_REACTORS
330
12E64
102
}
330
12E64
100
AcDbDictionary
281
     1
  0
ACDBDICTIONARYWDFLT
  5
131D9
102
{ACAD_REACTORS
330
12E64
102
}
330
12E64
100
AcDbDictionary
281
     1
  3
Normal
350
131DA
100
AcDbDictionaryWithDefault
340
131DA
  0
DICTIONARY
  5
13210
102
{ACAD_REACTORS
330
12E64
102
}
330
12E64
100
AcDbDictionary
281
     1
  3
A0
350
13211
  3
A1
350
13212
  3
A2
350
13213
  3
A3
350
13214
  3
A4
350
13215
  3
A5
350
13216
  3
A6
350
13217
  3
A7
350
13218
  3
A8
350
13219
  3
A9
350
1321A
  3
B0
350
1321B
  3
B1
350
1321C
  3
B2
350
1321D
  3
B3
350
1321E
  3
B4
350
1321F
  3
B5
350
13220
  3
B6
350
13221
  0
DICTIONARY
  5
13224
102
{ACAD_REACTORS
330
12E64
102
}
330
12E64
100
AcDbDictionary
281
     1
  3
Imperial24
350
13225
  0
DICTIONARY
  5
1320E
102
{ACAD_REACTORS
330
12E64
102
}
330
12E64
100
AcDbDictionary
281
     1
  3
Standard
350
1320F
  0
DICTIONARY
  5
131F4
102
{ACAD_REACTORS
330
12E64
102
}
330
12E64
100
AcDbDictionary
281
     1
  3
2dWireframe
350
131FA
  3
Basic
350
131F9
  3
Brighten
350
13200
  3
ColorChange
350
13204
  3
Conceptual
350
131FD
  3
Dim
350
131FF
  3
EdgeColorOff
350
1320C
  3
Facepattern
350
13203
  3
Flat
350
131F5
  3
FlatWithEdges
350
131F6
  3
Gouraud
350
131F7
  3
GouraudWithEdges
350
131F8
  3
Hidden
350
131FC
  3
JitterOff
350
1320A
  3
Linepattern
350
13202
  3
OverhangOff
350
1320B
  3
Realistic
350
131FE
  3
Shaded
350
13209
  3
Shaded with edges
350
13208
  3
Shades of Gray
350
13205
  3
Sketchy
350
13206
  3
Thicken
350
13201
  3
Wireframe
350
131FB
  3
X-Ray
350
13207
  0
XRECORD
  5
13249
102
{ACAD_REACTORS
330
12E64
102
}
330
12E64
100
AcDbXrecord
280
     1
 90
        1
330
1320F
  0
DICTIONARY
  5
1323C
102
{ACAD_REACTORS
330
12E64
102
}
330
12E64
100
AcDbDictionary
281
     1
  3
CANNOSCALE
350
13241
  3
CMLEADERSTYLE
350
1323E
  3
CTABLESTYLE
350
1323D
  3
CVIEWDETAILSTYLE
350
1323F
  3
CVIEWSECTIONSTYLE
350
13240
  3
DIMASSOC
350
13244
  3
INDEXCTL
350
13243
  3
SORTENTS
350
13242
  3
XCLIPFRAME
350
13245
  0
XRECORD
  5
1324A
102
{ACAD_REACTORS
330
12E64
102
}
330
12E64
100
AcDbXrecord
280
     1
  1
DWGPROPS COOKIE
  2

  3

  4

  6

  7

  8
Yoshitsune
  9

300
=
301
=
302
=
303
=
304
=
305
=
306
=
307
=
308
=
309
=
 40
0.0000123148148148
 41
2451233.439203588
 42
2457192.665719375
  1

 90
        0
  0
XRECORD
  5
1322D
102
{ACAD_REACTORS
330
1322C
102
}
330
1322C
100
AcDbXrecord
280
     1
290
     1
  0
XRECORD
  5
1322F
102
{ACAD_REACTORS
330
1322E
102
}
330
1322E
100
AcDbXrecord
280
     1
290
     1
  0
XRECORD
  5
13231
102
{ACAD_REACTORS
330
13230
102
}
330
13230
100
AcDbXrecord
280
     1
290
     1
  0
XRECORD
  5
13233
102
{ACAD_REACTORS
330
13232
102
}
330
13232
100
AcDbXrecord
280
     1
290
     1
  0
XRECORD
  5
13235
102
{ACAD_REACTORS
330
13234
102
}
330
13234
100
AcDbXrecord
280
     1
290
     1
  0
XRECORD
  5
13237
102
{ACAD_REACTORS
330
13236
102
}
330
13236
100
AcDbXrecord
280
     1
290
     1
  0
XRECORD
  5
13239
102
{ACAD_REACTORS
330
13238
102
}
330
13238
100
AcDbXrecord
280
     1
290
     1
  0
XRECORD
  5
1323B
102
{ACAD_REACTORS
330
1323A
102
}
330
1323A
100
AcDbXrecord
280
     1
290
     1
  0
XRECORD
  5
131D5
102
{ACAD_REACTORS
330
131D4
102
}
330
131D4
100
AcDbXrecord
280
     1
340
12E76
  0
XRECORD
  5
131D3
102
{ACAD_REACTORS
330
131D2
102
}
330
131D2
100
AcDbXrecord
280
     1
340
12E72
  0
ACDBDETAILVIEWSTYLE
  5
13227
102
{ACAD_XDICTIONARY
360
13282
102
}
102
{ACAD_REACTORS
330
13226
102
}
330
13226
100
AcDbModelDocViewStyle
 70
     0
  3
Imperial24
290
     0
100
AcDbDetailViewStyle
 70
     0
 71
     0
 90
        3
 71
     1
340
12E69
 40
0.24
340
0
 40
0.24
300

 40
0.36
280
     3
 71
     2
340
12E6D
 90
       25
 71
     3
340
12E69
 40
0.24
 90
        1
 40
0.75
 90
        1
300
%<\AcVar ViewType \f "%tc1">% %<\AcVar ViewDetailId>%\PSCALE %<\AcVar ViewScale \f "%sn">%
 71
     4
340
12E6D
 90
       25
340
12E6D
 90
       25
280
     0
  0
LAYOUT
  5
13228
102
{ACAD_XDICTIONARY
360
13284
102
}
102
{ACAD_REACTORS
330
12E71
102
}
330
12E71
100
AcDbPlotSettings
  1

  2
Canon LBP9100C
  4

  6

 40
0.0
 41
0.0
 42
0.0
 43
0.0
 44
0.0
 45
0.0
 46
0.0
 47
0.0
 48
0.0
 49
0.0
140
0.0
141
0.0
142
1.0
143
1.0
 70
  1712
 72
     0
 73
     0
 74
     0
  7

 75
     0
147
1.0
148
0.0
149
0.0
100
AcDbLayout
  1
Model
 70
     1
 71
     0
 10
0.0
 20
0.0
 11
12.0
 21
9.0
 12
0.0
 22
0.0
 32
0.0
 14
0.0
 24
0.0
 34
0.0
 15
0.0
 25
0.0
 35
0.0
146
0.0
 13
0.0
 23
0.0
 33
0.0
 16
1.0
 26
0.0
 36
0.0
 17
0.0
 27
1.0
 37
0.0
 76
     0
330
12E76
331
131D1
  0
LAYOUT
  5
13229
102
{ACAD_XDICTIONARY
360
13286
102
}
102
{ACAD_REACTORS
330
12E71
102
}
330
12E71
100
AcDbPlotSettings
  1

  2
Canon LBP9100C
  4

  6

 40
0.0
 41
0.0
 42
0.0
 43
0.0
 44
0.0
 45
0.0
 46
0.0
 47
0.0
 48
0.0
 49
0.0
140
0.0
141
0.0
142
1.0
143
1.0
 70
   688
 72
     0
 73
     0
 74
     5
  7

 75
    16
147
1.0
148
0.0
149
0.0
100
AcDbLayout
  1
レイアウト1
 70
     0
 71
     1
 10
0.0
 20
0.0
 11
420.0
 21
297.0
 12
0.0
 22
0.0
 32
0.0
 14
1.000000000000000E+20
 24
1.000000000000000E+20
 34
1.000000000000000E+20
 15
-1.000000000000000E+20
 25
-1.000000000000000E+20
 35
-1.000000000000000E+20
146
0.0
 13
0.0
 23
0.0
 33
0.0
 16
1.0
 26
0.0
 36
0.0
 17
0.0
 27
1.0
 37
0.0
 76
     0
330
12E72
  0
MATERIAL
  5
131E4
102
{ACAD_XDICTIONARY
360
131E5
102
}
102
{ACAD_REACTORS
330
131DB
102
}
330
131DB
100
AcDbMaterial
  1
ByBlock
 72
     0
 43
0.0208333333333333
 43
0.0
 43
0.0
 43
0.0
 43
0.0
 43
0.0208333333333333
 43
0.0
 43
0.0
 43
0.0
 43
0.0
 43
1.0
 43
0.0
 43
0.0
 43
0.0
 43
0.0
 43
1.0
 77
     0
 47
0.0208333333333333
 47
0.0
 47
0.0
 47
0.0
 47
0.0
 47
0.0208333333333333
 47
0.0
 47
0.0
 47
0.0
 47
0.0
 47
1.0
 47
0.0
 47
0.0
 47
0.0
 47
0.0
 47
1.0
171
     0
 49
0.0208333333333333
 49
0.0
 49
0.0
 49
0.0
 49
0.0
 49
0.0208333333333333
 49
0.0
 49
0.0
 49
0.0
 49
0.0
 49
1.0
 49
0.0
 49
0.0
 49
0.0
 49
0.0
 49
1.0
175
     0
142
0.0208333333333333
142
0.0
142
0.0
142
0.0
142
0.0
142
0.0208333333333333
142
0.0
142
0.0
142
0.0
142
0.0
142
1.0
142
0.0
142
0.0
142
0.0
142
0.0
142
1.0
179
     0
144
0.0208333333333333
144
0.0
144
0.0
144
0.0
144
0.0
144
0.0208333333333333
144
0.0
144
0.0
144
0.0
144
0.0
144
1.0
144
0.0
144
0.0
144
0.0
144
0.0
144
1.0
147
0.0208333333333333
147
0.0
147
0.0
147
0.0
147
0.0
147
0.0208333333333333
147
0.0
147
0.0
147
0.0
147
0.0
147
1.0
147
0.0
147
0.0
147
0.0
147
0.0
147
1.0
  0
MATERIAL
  5
131DC
102
{ACAD_XDICTIONARY
360
131DD
102
}
102
{ACAD_REACTORS
330
131DB
102
}
330
131DB
100
AcDbMaterial
  1
ByLayer
 72
     0
 43
0.0208333333333333
 43
0.0
 43
0.0
 43
0.0
 43
0.0
 43
0.0208333333333333
 43
0.0
 43
0.0
 43
0.0
 43
0.0
 43
1.0
 43
0.0
 43
0.0
 43
0.0
 43
0.0
 43
1.0
 77
     0
 47
0.0208333333333333
 47
0.0
 47
0.0
 47
0.0
 47
0.0
 47
0.0208333333333333
 47
0.0
 47
0.0
 47
0.0
 47
0.0
 47
1.0
 47
0.0
 47
0.0
 47
0.0
 47
0.0
 47
1.0
171
     0
 49
0.0208333333333333
 49
0.0
 49
0.0
 49
0.0
 49
0.0
 49
0.0208333333333333
 49
0.0
 49
0.0
 49
0.0
 49
0.0
 49
1.0
 49
0.0
 49
0.0
 49
0.0
 49
0.0
 49
1.0
175
     0
142
0.0208333333333333
142
0.0
142
0.0
142
0.0
142
0.0
142
0.0208333333333333
142
0.0
142
0.0
142
0.0
142
0.0
142
1.0
142
0.0
142
0.0
142
0.0
142
0.0
142
1.0
179
     0
144
0.0208333333333333
144
0.0
144
0.0
144
0.0
144
0.0
144
0.0208333333333333
144
0.0
144
0.0
144
0.0
144
0.0
144
1.0
144
0.0
144
0.0
144
0.0
144
0.0
144
1.0
147
0.0208333333333333
147
0.0
147
0.0
147
0.0
147
0.0
147
0.0208333333333333
147
0.0
147
0.0
147
0.0
147
0.0
147
1.0
147
0.0
147
0.0
147
0.0
147
0.0
147
1.0
  0
MATERIAL
  5
131EC
102
{ACAD_XDICTIONARY
360
131ED
102
}
102
{ACAD_REACTORS
330
131DB
102
}
330
131DB
100
AcDbMaterial
  1
Global
 72
     0
 43
0.0208333333333333
 43
0.0
 43
0.0
 43
0.0
 43
0.0
 43
0.0208333333333333
 43
0.0
 43
0.0
 43
0.0
 43
0.0
 43
1.0
 43
0.0
 43
0.0
 43
0.0
 43
0.0
 43
1.0
 77
     0
 47
0.0208333333333333
 47
0.0
 47
0.0
 47
0.0
 47
0.0
 47
0.0208333333333333
 47
0.0
 47
0.0
 47
0.0
 47
0.0
 47
1.0
 47
0.0
 47
0.0
 47
0.0
 47
0.0
 47
1.0
171
     0
 49
0.0208333333333333
 49
0.0
 49
0.0
 49
0.0
 49
0.0
 49
0.0208333333333333
 49
0.0
 49
0.0
 49
0.0
 49
0.0
 49
1.0
 49
0.0
 49
0.0
 49
0.0
 49
0.0
 49
1.0
175
     0
142
0.0208333333333333
142
0.0
142
0.0
142
0.0
142
0.0
142
0.0208333333333333
142
0.0
142
0.0
142
0.0
142
0.0
142
1.0
142
0.0
142
0.0
142
0.0
142
0.0
142
1.0
179
     0
144
0.0208333333333333
144
0.0
144
0.0
144
0.0
144
0.0
144
0.0208333333333333
144
0.0
144
0.0
144
0.0
144
0.0
144
1.0
144
0.0
144
0.0
144
0.0
144
0.0
144
1.0
147
0.0208333333333333
147
0.0
147
0.0
147
0.0
147
0.0
147
0.0208333333333333
147
0.0
147
0.0
147
0.0
147
0.0
147
1.0
147
0.0
147
0.0
147
0.0
147
0.0
147
1.0
  0
MLEADERSTYLE
  5
13223
102
{ACAD_REACTORS
330
13222
102
}
330
13222
100
AcDbMLeaderStyle
170
     2
171
     1
172
     0
 90
        2
 40
0.0
 41
0.0
173
     1
 91
-1056964608
340
12E6B
 92
       -2
290
     1
 42
0.09
291
     1
 43
0.36
  3
Standard
 44
0.18
300

342
12E69
174
     1
178
     6
175
     1
176
     0
 93
-1056964608
 45
0.18
292
     0
297
     0
 46
0.18
 94
-1056964608
 47
1.0
 49
1.0
140
1.0
293
     1
141
0.0
294
     1
177
     0
142
1.0
295
     0
296
     0
143
0.125
1001
ACAD_MLEADERVER
1070
     2
  0
MLINESTYLE
  5
12E6F
102
{ACAD_REACTORS
330
12E6E
102
}
330
12E6E
100
AcDbMlineStyle
  2
STANDARD
 70
     0
  3

 62
   256
 51
90.0
 52
90.0
 71
     2
 49
0.5
 62
   256
  6
BYLAYER
 49
-0.5
 62
   256
  6
BYLAYER
  0
ACDBPLACEHOLDER
  5
131DA
102
{ACAD_REACTORS
330
131D9
102
}
330
131D9
  0
SCALE
  5
13211
102
{ACAD_REACTORS
330
13210
102
}
330
13210
100
AcDbScale
 70
     0
300
1:1
140
1.0
141
1.0
290
     1
  0
SCALE
  5
13212
102
{ACAD_REACTORS
330
13210
102
}
330
13210
100
AcDbScale
 70
     0
300
1/128" = 1'-0"
140
0.0078125
141
12.0
290
     0
  0
SCALE
  5
13213
102
{ACAD_REACTORS
330
13210
102
}
330
13210
100
AcDbScale
 70
     0
300
1/64" = 1'-0"
140
0.015625
141
12.0
290
     0
  0
SCALE
  5
13214
102
{ACAD_REACTORS
330
13210
102
}
330
13210
100
AcDbScale
 70
     0
300
1/32" = 1'-0"
140
0.03125
141
12.0
290
     0
  0
SCALE
  5
13215
102
{ACAD_REACTORS
330
13210
102
}
330
13210
100
AcDbScale
 70
     0
300
1/16" = 1'-0"
140
0.0625
141
12.0
290
     0
  0
SCALE
  5
13216
102
{ACAD_REACTORS
330
13210
102
}
330
13210
100
AcDbScale
 70
     0
300
3/32" = 1'-0"
140
0.09375
141
12.0
290
     0
  0
SCALE
  5
13217
102
{ACAD_REACTORS
330
13210
102
}
330
13210
100
AcDbScale
 70
     0
300
1/8" = 1'-0"
140
0.125
141
12.0
290
     0
  0
SCALE
  5
13218
102
{ACAD_REACTORS
330
13210
102
}
330
13210
100
AcDbScale
 70
     0
300
3/16" = 1'-0"
140
0.1875
141
12.0
290
     0
  0
SCALE
  5
13219
102
{ACAD_REACTORS
330
13210
102
}
330
13210
100
AcDbScale
 70
     0
300
1/4" = 1'-0"
140
0.25
141
12.0
290
     0
  0
SCALE
  5
1321A
102
{ACAD_REACTORS
330
13210
102
}
330
13210
100
AcDbScale
 70
     0
300
3/8" = 1'-0"
140
0.375
141
12.0
290
     0
  0
SCALE
  5
1321B
102
{ACAD_REACTORS
330
13210
102
}
330
13210
100
AcDbScale
 70
     0
300
1/2" = 1'-0"
140
0.5
141
12.0
290
     0
  0
SCALE
  5
1321C
102
{ACAD_REACTORS
330
13210
102
}
330
13210
100
AcDbScale
 70
     0
300
3/4" = 1'-0"
140
0.75
141
12.0
290
     0
  0
SCALE
  5
1321D
102
{ACAD_REACTORS
330
13210
102
}
330
13210
100
AcDbScale
 70
     0
300
1" = 1'-0"
140
1.0
141
12.0
290
     0
  0
SCALE
  5
1321E
102
{ACAD_REACTORS
330
13210
102
}
330
13210
100
AcDbScale
 70
     0
300
1-1/2" = 1'-0"
140
1.5
141
12.0
290
     0
  0
SCALE
  5
1321F
102
{ACAD_REACTORS
330
13210
102
}
330
13210
100
AcDbScale
 70
     0
300
3" = 1'-0"
140
3.0
141
12.0
290
     0
  0
SCALE
  5
13220
102
{ACAD_REACTORS
330
13210
102
}
330
13210
100
AcDbScale
 70
     0
300
6" = 1'-0"
140
6.0
141
12.0
290
     0
  0
SCALE
  5
13221
102
{ACAD_REACTORS
330
13210
102
}
330
13210
100
AcDbScale
 70
     0
300
1'-0" = 1'-0"
140
12.0
141
12.0
290
     0
  0
ACDBSECTIONVIEWSTYLE
  5
13225
102
{ACAD_XDICTIONARY
360
13280
102
}
102
{ACAD_REACTORS
330
13224
102
}
330
13224
100
AcDbModelDocViewStyle
 70
     0
  3
Imperial24
290
     0
100
AcDbSectionViewStyle
 70
     0
 71
     0
 90
       78
 71
     1
340
12E69
 40
0.24
340
0
340
0
 40
0.24
300
I, O, Q, S, X, Z
 40
0.48
 90
        3
 40
0.18
 90
        1
 71
     2
340
12E6D
 90
       25
340
12E6D
 90
       50
 40
0.24
 40
0.0
 40
0.24
 71
     3
340
12E69
 40
0.24
 90
        1
 40
0.75
 90
        1
300
%<\AcVar ViewType \f "%tc1">% %<\AcVar ViewSectionStartId>%-%<\AcVar ViewSectionEndId>%\PSCALE %<\AcVar ViewScale \f "%sn">%
 71
     4
300
ANSI31
 40
1.0
 90
        0
290
     0
290
     0
 90
        6
 40
0.0
 40
1.570796326794896
 40
0.2617993877991494
 40
1.308996938995747
 40
-0.2617993877991494
 40
1.832595714594046
  0
TABLESTYLE
  5
1320F
102
{ACAD_XDICTIONARY
360
13247
102
}
102
{ACAD_REACTORS
330
1320E
102
}
330
1320E
100
AcDbTableStyle
  3
Standard
 70
     0
 71
     0
 40
0.06
 41
0.06
280
     0
281
     0
  7
STANDARD
140
0.18
170
     2
 62
     0
 63
     7
283
     0
274
    -2
284
     1
 64
     0
275
    -2
285
     1
 65
     0
276
    -2
286
     1
 66
     0
277
    -2
287
     1
 67
     0
278
    -2
288
     1
 68
     0
279
    -2
289
     1
 69
     0
  7
STANDARD
140
0.25
170
     5
 62
     0
 63
     7
283
     0
274
    -2
284
     1
 64
     0
275
    -2
285
     1
 65
     0
276
    -2
286
     1
 66
     0
277
    -2
287
     1
 67
     0
278
    -2
288
     1
 68
     0
279
    -2
289
     1
 69
     0
  7
STANDARD
140
0.18
170
     5
 62
     0
 63
     7
283
     0
274
    -2
284
     1
 64
     0
275
    -2
285
     1
 65
     0
276
    -2
286
     1
 66
     0
277
    -2
287
     1
 67
     0
278
    -2
288
     1
 68
     0
279
    -2
289
     1
 69
     0
  0
VISUALSTYLE
  5
131FA
102
{ACAD_XDICTIONARY
360
13258
102
}
102
{ACAD_REACTORS
330
131F4
102
}
330
131F4
100
AcDbVisualStyle
  2
2dWireframe
 70
     4
 71
     0
 72
     2
 73
     0
 90
        0
 40
-0.6
 41
-30.0
 62
     5
 63
     7
 74
     1
 91
        4
 64
     7
 65
   257
 75
     1
175
     1
 42
1.0
 92
        0
 66
   257
 43
1.0
 76
     1
 77
     6
 78
     2
 67
     7
 79
     5
170
     0
171
     0
290
     0
174
     0
 93
        1
 44
0.0
173
     0
291
     0
 45
0.0
1001
ACAD
1000
AcDbSavedByObjectVersion
1070
     0
  0
VISUALSTYLE
  5
131F9
102
{ACAD_XDICTIONARY
360
13256
102
}
102
{ACAD_REACTORS
330
131F4
102
}
330
131F4
100
AcDbVisualStyle
  2
Basic
 70
     7
 71
     1
 72
     0
 73
     1
 90
        0
 40
-0.6
 41
-30.0
 62
     5
 63
     7
 74
     0
 91
        4
 64
     7
 65
   257
 75
     1
175
     1
 42
1.0
 92
        8
 66
     7
 43
1.0
 76
     1
 77
     6
 78
     2
 67
     7
 79
     5
170
     0
171
     0
290
     0
174
     0
 93
        1
 44
0.0
173
     0
291
     1
 45
0.0
1001
ACAD
1000
AcDbSavedByObjectVersion
1070
     0
  0
VISUALSTYLE
  5
13200
102
{ACAD_XDICTIONARY
360
13264
102
}
102
{ACAD_REACTORS
330
131F4
102
}
330
131F4
100
AcDbVisualStyle
  2
Brighten
 70
    12
 71
     2
 72
     2
 73
     0
 90
        0
 40
-0.6
 41
-30.0
 62
     5
 63
     7
 74
     1
 91
        4
 64
     7
 65
   257
 75
     1
175
     1
 42
1.0
 92
        8
 66
     7
 43
1.0
 76
     1
 77
     6
 78
     2
 67
     7
 79
     5
170
     0
171
     0
290
     0
174
     0
 93
        1
 44
50.0
173
     0
291
     1
 45
0.0
1001
ACAD
1000
AcDbSavedByObjectVersion
1070
     0
  0
VISUALSTYLE
  5
13204
102
{ACAD_XDICTIONARY
360
1326C
102
}
102
{ACAD_REACTORS
330
131F4
102
}
330
131F4
100
AcDbVisualStyle
  2
ColorChange
 70
    16
 71
     2
 72
     2
 73
     3
 90
        0
 40
-0.6
 41
-30.0
 62
     5
 63
     8
 74
     1
 91
        4
 64
     7
 65
   257
 75
     1
175
     1
 42
1.0
 92
        8
 66
     8
 43
1.0
 76
     1
 77
     6
 78
     2
 67
     7
 79
     5
170
     0
171
     0
290
     0
174
     0
 93
        1
 44
0.0
173
     0
291
     1
 45
0.0
1001
ACAD
1000
AcDbSavedByObjectVersion
1070
     0
  0
VISUALSTYLE
  5
131FD
102
{ACAD_XDICTIONARY
360
1325E
102
}
102
{ACAD_REACTORS
330
131F4
102
}
330
131F4
100
AcDbVisualStyle
  2
Conceptual
 70
     9
 71
     3
 72
     2
 73
     0
 90
        0
 40
-0.6
 41
-30.0
 62
     5
 63
     7
 74
     2
 91
        2
 64
     7
 65
   257
 75
     1
175
     1
 42
179.0
 92
        8
 66
     7
 43
1.0
 76
     1
 77
     6
 78
     2
 67
     7
 79
     3
170
     0
171
     0
290
     0
174
     0
 93
        1
 44
0.0
173
     0
291
     0
 45
0.0
1001
ACAD
1000
AcDbSavedByObjectVersion
1070
     0
  0
VISUALSTYLE
  5
131FF
102
{ACAD_XDICTIONARY
360
13262
102
}
102
{ACAD_REACTORS
330
131F4
102
}
330
131F4
100
AcDbVisualStyle
  2
Dim
 70
    11
 71
     2
 72
     2
 73
     0
 90
        0
 40
-0.6
 41
-30.0
 62
     5
 63
     7
 74
     1
 91
        4
 64
     7
 65
   257
 75
     1
175
     1
 42
1.0
 92
        8
 66
     7
 43
1.0
 76
     1
 77
     6
 78
     2
 67
     7
 79
     5
170
     0
171
     0
290
     0
174
     0
 93
        1
 44
-50.0
173
     0
291
     1
 45
0.0
1001
ACAD
1000
AcDbSavedByObjectVersion
1070
     0
  0
VISUALSTYLE
  5
1320C
102
{ACAD_XDICTIONARY
360
1327C
102
}
102
{ACAD_REACTORS
330
131F4
102
}
330
131F4
100
AcDbVisualStyle
  2
EdgeColorOff
 70
    22
 71
     2
 72
     2
 73
     0
 90
        0
 40
-0.6
 41
-30.0
 62
     5
 63
     7
 74
     1
 91
        4
 64
     7
 65
   257
 75
     1
175
     1
 42
1.0
 92
        8
 66
     7
 43
1.0
 76
     1
 77
     6
 78
     2
 67
     7
 79
     5
170
     0
171
     0
290
     0
174
     0
 93
        1
 44
0.0
173
     0
291
     1
 45
0.0
1001
ACAD
1000
AcDbSavedByObjectVersion
1070
     0
  0
VISUALSTYLE
  5
13203
102
{ACAD_XDICTIONARY
360
1326A
102
}
102
{ACAD_REACTORS
330
131F4
102
}
330
131F4
100
AcDbVisualStyle
  2
Facepattern
 70
    15
 71
     2
 72
     2
 73
     0
 90
        0
 40
-0.6
 41
-30.0
 62
     5
 63
     7
 74
     1
 91
        4
 64
     7
 65
   257
 75
     1
175
     1
 42
1.0
 92
        8
 66
     7
 43
1.0
 76
     1
 77
     6
 78
     2
 67
     7
 79
     5
170
     0
171
     0
290
     0
174
     0
 93
        1
 44
0.0
173
     0
291
     1
 45
0.0
1001
ACAD
1000
AcDbSavedByObjectVersion
1070
     0
  0
VISUALSTYLE
  5
131F5
102
{ACAD_XDICTIONARY
360
1324E
102
}
102
{ACAD_REACTORS
330
131F4
102
}
330
131F4
100
AcDbVisualStyle
  2
Flat
 70
     0
 71
     2
 72
     1
 73
     1
 90
        2
 40
-0.6
 41
30.0
 62
     5
 63
     7
 74
     0
 91
        0
 64
     7
 65
   257
 75
     1
175
     1
 42
1.0
 92
        8
 66
     7
 43
1.0
 76
     1
 77
     6
 78
     2
 67
     7
 79
     5
170
     0
171
     0
290
     0
174
     0
 93
       13
 44
0.0
173
     0
291
     1
 45
0.0
1001
ACAD
1000
AcDbSavedByObjectVersion
1070
     0
  0
VISUALSTYLE
  5
131F6
102
{ACAD_XDICTIONARY
360
13250
102
}
102
{ACAD_REACTORS
330
131F4
102
}
330
131F4
100
AcDbVisualStyle
  2
FlatWithEdges
 70
     1
 71
     2
 72
     1
 73
     1
 90
        2
 40
-0.6
 41
30.0
 62
     5
 63
     7
 74
     1
 91
        0
 64
     7
 65
   257
 75
     1
175
     1
 42
1.0
 92
        0
 66
   257
 43
1.0
 76
     1
 77
     6
 78
     2
 67
     7
 79
     5
170
     0
171
     0
290
     0
174
     0
 93
       13
 44
0.0
173
     0
291
     1
 45
0.0
1001
ACAD
1000
AcDbSavedByObjectVersion
1070
     0
  0
VISUALSTYLE
  5
131F7
102
{ACAD_XDICTIONARY
360
13252
102
}
102
{ACAD_REACTORS
330
131F4
102
}
330
131F4
100
AcDbVisualStyle
  2
Gouraud
 70
     2
 71
     2
 72
     2
 73
     1
 90
        2
 40
-0.6
 41
30.0
 62
     5
 63
     7
 74
     0
 91
        0
 64
     7
 65
   257
 75
     1
175
     1
 42
1.0
 92
        0
 66
     7
 43
1.0
 76
     1
 77
     6
 78
     2
 67
     7
 79
     5
170
     0
171
     0
290
     0
174
     0
 93
       13
 44
0.0
173
     0
291
     1
 45
0.0
1001
ACAD
1000
AcDbSavedByObjectVersion
1070
     0
  0
VISUALSTYLE
  5
131F8
102
{ACAD_XDICTIONARY
360
13254
102
}
102
{ACAD_REACTORS
330
131F4
102
}
330
131F4
100
AcDbVisualStyle
  2
GouraudWithEdges
 70
     3
 71
     2
 72
     2
 73
     1
 90
        2
 40
-0.6
 41
30.0
 62
     5
 63
     7
 74
     1
 91
        0
 64
     7
 65
   257
 75
     1
175
     1
 42
1.0
 92
        0
 66
   257
 43
1.0
 76
     1
 77
     6
 78
     2
 67
     7
 79
     5
170
     0
171
     0
290
     0
174
     0
 93
       13
 44
0.0
173
     0
291
     1
 45
0.0
1001
ACAD
1000
AcDbSavedByObjectVersion
1070
     0
  0
VISUALSTYLE
  5
131FC
102
{ACAD_XDICTIONARY
360
1325C
102
}
102
{ACAD_REACTORS
330
131F4
102
}
330
131F4
100
AcDbVisualStyle
  2
Hidden
 70
     6
 71
     1
 72
     2
 73
     2
 90
        0
 40
-0.6
 41
-30.0
 62
     5
 63
     7
 74
     2
 91
        2
 64
     7
 65
   257
 75
     2
175
     1
 42
40.0
 92
        0
 66
   257
 43
1.0
 76
     1
 77
     6
 78
     2
 67
     7
 79
     3
170
     0
171
     0
290
     0
174
     0
 93
        1
 44
0.0
173
     0
291
     0
 45
0.0
1001
ACAD
1000
AcDbSavedByObjectVersion
1070
     0
  0
VISUALSTYLE
  5
1320A
102
{ACAD_XDICTIONARY
360
13278
102
}
102
{ACAD_REACTORS
330
131F4
102
}
330
131F4
100
AcDbVisualStyle
  2
JitterOff
 70
    20
 71
     2
 72
     2
 73
     0
 90
        0
 40
-0.6
 41
-30.0
 62
     5
 63
     7
 74
     1
 91
        4
 64
     7
 65
   257
 75
     1
175
     1
 42
1.0
 92
       10
 66
     7
 43
1.0
 76
     1
 77
     6
 78
     2
 67
     7
 79
     5
170
     0
171
     0
290
     0
174
     0
 93
        1
 44
0.0
173
     0
291
     1
 45
0.0
1001
ACAD
1000
AcDbSavedByObjectVersion
1070
     0
  0
VISUALSTYLE
  5
13202
102
{ACAD_XDICTIONARY
360
13268
102
}
102
{ACAD_REACTORS
330
131F4
102
}
330
131F4
100
AcDbVisualStyle
  2
Linepattern
 70
    14
 71
     2
 72
     2
 73
     0
 90
        0
 40
-0.6
 41
-30.0
 62
     5
 63
     7
 74
     1
 91
        4
 64
     7
 65
   257
 75
     7
175
     7
 42
1.0
 92
        8
 66
     7
 43
1.0
 76
     1
 77
     6
 78
     2
 67
     7
 79
     5
170
     0
171
     0
290
     0
174
     0
 93
        1
 44
0.0
173
     0
291
     1
 45
0.0
1001
ACAD
1000
AcDbSavedByObjectVersion
1070
     0
  0
VISUALSTYLE
  5
1320B
102
{ACAD_XDICTIONARY
360
1327A
102
}
102
{ACAD_REACTORS
330
131F4
102
}
330
131F4
100
AcDbVisualStyle
  2
OverhangOff
 70
    21
 71
     2
 72
     2
 73
     0
 90
        0
 40
-0.6
 41
-30.0
 62
     5
 63
     7
 74
     1
 91
        4
 64
     7
 65
   257
 75
     1
175
     1
 42
1.0
 92
        9
 66
     7
 43
1.0
 76
     1
 77
     6
 78
     2
 67
     7
 79
     5
170
     0
171
     0
290
     0
174
     0
 93
        1
 44
0.0
173
     0
291
     1
 45
0.0
1001
ACAD
1000
AcDbSavedByObjectVersion
1070
     0
  0
VISUALSTYLE
  5
131FE
102
{ACAD_XDICTIONARY
360
13260
102
}
102
{ACAD_REACTORS
330
131F4
102
}
330
131F4
100
AcDbVisualStyle
  2
Realistic
 70
     8
 71
     2
 72
     3
 73
     0
 90
        2
 40
-0.6
 41
30.0
 62
     5
 63
     7
 74
     0
 91
        0
 64
     7
 65
   257
 75
     1
175
     1
 42
1.0
 92
        8
 66
   257
 43
1.0
 76
     1
 77
     6
 78
     2
 67
     7
 79
     3
170
     0
171
     0
290
     0
174
     0
 93
       13
 44
0.0
173
     0
291
     0
 45
0.0
1001
ACAD
1000
AcDbSavedByObjectVersion
1070
     0
  0
VISUALSTYLE
  5
13209
102
{ACAD_XDICTIONARY
360
13276
102
}
102
{ACAD_REACTORS
330
131F4
102
}
330
131F4
100
AcDbVisualStyle
  2
Shaded
 70
    27
 71
     2
 72
     2
 73
     1
 90
        2
 40
-0.6
 41
30.0
 62
     5
 63
     7
 74
     0
 91
        4
 64
     7
 65
   257
 75
     1
175
     1
 42
1.0
 92
        8
 66
   257
 43
1.0
 76
     1
 77
     6
 78
     2
 67
     8
 79
     3
170
     0
171
     0
290
     0
174
     0
 93
        5
 44
0.0
173
     0
291
     0
 45
0.0
1001
ACAD
1000
AcDbSavedByObjectVersion
1070
     0
  0
VISUALSTYLE
  5
13208
102
{ACAD_XDICTIONARY
360
13274
102
}
102
{ACAD_REACTORS
330
131F4
102
}
330
131F4
100
AcDbVisualStyle
  2
Shaded with edges
 70
    26
 71
     2
 72
     2
 73
     1
 90
        2
 40
-0.6
 41
30.0
 62
     5
 63
     7
 74
     1
 91
       10
 64
     7
 65
   257
 75
     2
175
     1
 42
1.0
 92
        8
 66
   257
 43
1.0
 76
     1
 77
     6
 78
     2
 67
     7
 79
     3
170
     0
171
     0
290
     0
174
     0
 93
        5
 44
0.0
173
     0
291
     0
 45
0.0
1001
ACAD
1000
AcDbSavedByObjectVersion
1070
     0
  0
VISUALSTYLE
  5
13205
102
{ACAD_XDICTIONARY
360
1326E
102
}
102
{ACAD_REACTORS
330
131F4
102
}
330
131F4
100
AcDbVisualStyle
  2
Shades of Gray
 70
    23
 71
     2
 72
     2
 73
     3
 90
        0
 40
-0.6
 41
-30.0
 62
     5
 63
     7
 74
     2
 91
        2
 64
     7
 65
     7
 75
     1
175
     1
 42
40.0
 92
        8
 66
     7
 43
1.0
 76
     1
 77
     6
 78
     2
 67
     7
 79
     3
170
     0
171
     0
290
     0
174
     0
 93
        1
 44
0.0
173
     0
291
     0
 45
0.0
1001
ACAD
1000
AcDbSavedByObjectVersion
1070
     0
  0
VISUALSTYLE
  5
13206
102
{ACAD_XDICTIONARY
360
13270
102
}
102
{ACAD_REACTORS
330
131F4
102
}
330
131F4
100
AcDbVisualStyle
  2
Sketchy
 70
    24
 71
     1
 72
     2
 73
     2
 90
        0
 40
-0.6
 41
-30.0
 62
     5
 63
     7
 74
     2
 91
        2
 64
     7
 65
     7
 75
     1
175
     1
 42
40.0
 92
       11
 66
     7
 43
1.0
 76
     1
 77
     6
 78
     2
 67
     7
 79
     6
170
     0
171
     0
290
     0
174
     0
 93
        1
 44
0.0
173
     0
291
     0
 45
0.0
1001
ACAD
1000
AcDbSavedByObjectVersion
1070
     0
  0
VISUALSTYLE
  5
13201
102
{ACAD_XDICTIONARY
360
13266
102
}
102
{ACAD_REACTORS
330
131F4
102
}
330
131F4
100
AcDbVisualStyle
  2
Thicken
 70
    13
 71
     2
 72
     2
 73
     0
 90
        0
 40
-0.6
 41
-30.0
 62
     5
 63
     7
 74
     1
 91
        4
 64
     7
 65
   257
 75
     1
175
     1
 42
1.0
 92
       12
 66
     7
 43
1.0
 76
     1
 77
     6
 78
     2
 67
     7
 79
     5
170
     0
171
     0
290
     0
174
     0
 93
        1
 44
0.0
173
     0
291
     1
 45
0.0
1001
ACAD
1000
AcDbSavedByObjectVersion
1070
     0
  0
VISUALSTYLE
  5
131FB
102
{ACAD_XDICTIONARY
360
1325A
102
}
102
{ACAD_REACTORS
330
131F4
102
}
330
131F4
100
AcDbVisualStyle
  2
Wireframe
 70
     5
 71
     0
 72
     2
 73
     0
 90
        0
 40
-0.6
 41
-30.0
 62
     5
 63
     7
 74
     1
 91
        4
 64
     7
 65
   257
 75
     1
175
     1
 42
1.0
 92
        0
 66
   257
 43
1.0
 76
     1
 77
     6
 78
     2
 67
     7
 79
     3
170
     0
171
     0
290
     0
174
     0
 93
        1
 44
0.0
173
     0
291
     0
 45
0.0
1001
ACAD
1000
AcDbSavedByObjectVersion
1070
     0
  0
VISUALSTYLE
  5
13207
102
{ACAD_XDICTIONARY
360
13272
102
}
102
{ACAD_REACTORS
330
131F4
102
}
330
131F4
100
AcDbVisualStyle
  2
X-Ray
 70
    25
 71
     2
 72
     2
 73
     1
 90
        1
 40
0.5
 41
-30.0
 62
     5
 63
     7
 74
     1
 91
        0
 64
     7
 65
   257
 75
     1
175
     1
 42
1.0
 92
        8
 66
     7
 43
1.0
 76
     1
 77
     6
 78
     2
 67
     7
 79
     3
170
     0
171
     0
290
     0
174
     0
 93
       13
 44
0.0
173
     0
291
     0
 45
0.0
1001
ACAD
1000
AcDbSavedByObjectVersion
1070
     0
  0
DICTIONARYVAR
  5
13241
102
{ACAD_REACTORS
330
1323C
102
}
330
1323C
100
DictionaryVariables
280
     0
  1
1:1
  0
DICTIONARYVAR
  5
1323E
102
{ACAD_REACTORS
330
1323C
102
}
330
1323C
100
DictionaryVariables
280
     0
  1
STANDARD
  0
DICTIONARYVAR
  5
1323D
102
{ACAD_REACTORS
330
1323C
102
}
330
1323C
100
DictionaryVariables
280
     0
  1
STANDARD
  0
DICTIONARYVAR
  5
1323F
102
{ACAD_REACTORS
330
1323C
102
}
330
1323C
100
DictionaryVariables
280
     0
  1
Imperial24
  0
DICTIONARYVAR
  5
13240
102
{ACAD_REACTORS
330
1323C
102
}
330
1323C
100
DictionaryVariables
280
     0
  1
Imperial24
  0
DICTIONARYVAR
  5
13244
102
{ACAD_REACTORS
330
1323C
102
}
330
1323C
100
DictionaryVariables
280
     0
  1
1
  0
DICTIONARYVAR
  5
13243
102
{ACAD_REACTORS
330
1323C
102
}
330
1323C
100
DictionaryVariables
280
     0
  1
0
  0
DICTIONARYVAR
  5
13242
102
{ACAD_REACTORS
330
1323C
102
}
330
1323C
100
DictionaryVariables
280
     0
  1
127
  0
DICTIONARYVAR
  5
13245
102
{ACAD_REACTORS
330
1323C
102
}
330
1323C
100
DictionaryVariables
280
     0
  1
2
  0
DICTIONARY
  5
13282
330
13227
100
AcDbDictionary
280
     1
281
     1
  3
ACAD_XREC_ROUNDTRIP
360
13283
  0
DICTIONARY
  5
13284
330
13228
100
AcDbDictionary
280
     1
281
     1
  3
ACAD_XREC_ROUNDTRIP
360
13285
  0
DICTIONARY
  5
13286
330
13229
100
AcDbDictionary
280
     1
281
     1
  3
ACAD_XREC_ROUNDTRIP
360
13287
  0
DICTIONARY
  5
131E5
330
131E4
100
AcDbDictionary
280
     1
281
     1
  3
ACAD_XREC_ROUNDTRIP
360
1324C
  3
BUMPTILE
360
131E7
  3
DIFFUSETILE
360
131E6
  3
OPACITYTILE
360
131EA
  3
REFLECTIONTILE
360
131E9
  3
REFRACTIONTILE
360
131EB
  3
SPECULARTILE
360
131E8
  0
DICTIONARY
  5
131DD
330
131DC
100
AcDbDictionary
280
     1
281
     1
  3
ACAD_XREC_ROUNDTRIP
360
1324B
  3
BUMPTILE
360
131DF
  3
DIFFUSETILE
360
131DE
  3
OPACITYTILE
360
131E2
  3
REFLECTIONTILE
360
131E1
  3
REFRACTIONTILE
360
131E3
  3
SPECULARTILE
360
131E0
  0
DICTIONARY
  5
131ED
330
131EC
100
AcDbDictionary
280
     1
281
     1
  3
ACAD_XREC_ROUNDTRIP
360
1324D
  3
BUMPTILE
360
131EF
  3
DIFFUSETILE
360
131EE
  3
OPACITYTILE
360
131F2
  3
REFLECTIONTILE
360
131F1
  3
REFRACTIONTILE
360
131F3
  3
SPECULARTILE
360
131F0
  0
DICTIONARY
  5
13280
330
13225
100
AcDbDictionary
280
     1
281
     1
  3
ACAD_XREC_ROUNDTRIP
360
13281
  0
DICTIONARY
  5
13247
330
1320F
100
AcDbDictionary
280
     1
281
     1
  3
ACAD_ROUNDTRIP_2008_TABLESTYLE_CELLSTYLEMAP
360
13248
  3
ACAD_XREC_ROUNDTRIP
360
1327E
  0
DICTIONARY
  5
13258
330
131FA
100
AcDbDictionary
280
     1
281
     1
  3
ACAD_XREC_ROUNDTRIP
360
13259
  0
DICTIONARY
  5
13256
330
131F9
100
AcDbDictionary
280
     1
281
     1
  3
ACAD_XREC_ROUNDTRIP
360
13257
  0
DICTIONARY
  5
13264
330
13200
100
AcDbDictionary
280
     1
281
     1
  3
ACAD_XREC_ROUNDTRIP
360
13265
  0
DICTIONARY
  5
1326C
330
13204
100
AcDbDictionary
280
     1
281
     1
  3
ACAD_XREC_ROUNDTRIP
360
1326D
  0
DICTIONARY
  5
1325E
330
131FD
100
AcDbDictionary
280
     1
281
     1
  3
ACAD_XREC_ROUNDTRIP
360
1325F
  0
DICTIONARY
  5
13262
330
131FF
100
AcDbDictionary
280
     1
281
     1
  3
ACAD_XREC_ROUNDTRIP
360
13263
  0
DICTIONARY
  5
1327C
330
1320C
100
AcDbDictionary
280
     1
281
     1
  3
ACAD_XREC_ROUNDTRIP
360
1327D
  0
DICTIONARY
  5
1326A
330
13203
100
AcDbDictionary
280
     1
281
     1
  3
ACAD_XREC_ROUNDTRIP
360
1326B
  0
DICTIONARY
  5
1324E
330
131F5
100
AcDbDictionary
280
     1
281
     1
  3
ACAD_XREC_ROUNDTRIP
360
1324F
  0
DICTIONARY
  5
13250
330
131F6
100
AcDbDictionary
280
     1
281
     1
  3
ACAD_XREC_ROUNDTRIP
360
13251
  0
DICTIONARY
  5
13252
330
131F7
100
AcDbDictionary
280
     1
281
     1
  3
ACAD_XREC_ROUNDTRIP
360
13253
  0
DICTIONARY
  5
13254
330
131F8
100
AcDbDictionary
280
     1
281
     1
  3
ACAD_XREC_ROUNDTRIP
360
13255
  0
DICTIONARY
  5
1325C
330
131FC
100
AcDbDictionary
280
     1
281
     1
  3
ACAD_XREC_ROUNDTRIP
360
1325D
  0
DICTIONARY
  5
13278
330
1320A
100
AcDbDictionary
280
     1
281
     1
  3
ACAD_XREC_ROUNDTRIP
360
13279
  0
DICTIONARY
  5
13268
330
13202
100
AcDbDictionary
280
     1
281
     1
  3
ACAD_XREC_ROUNDTRIP
360
13269
  0
DICTIONARY
  5
1327A
330
1320B
100
AcDbDictionary
280
     1
281
     1
  3
ACAD_XREC_ROUNDTRIP
360
1327B
  0
DICTIONARY
  5
13260
330
131FE
100
AcDbDictionary
280
     1
281
     1
  3
ACAD_XREC_ROUNDTRIP
360
13261
  0
DICTIONARY
  5
13276
330
13209
100
AcDbDictionary
280
     1
281
     1
  3
ACAD_XREC_ROUNDTRIP
360
13277
  0
DICTIONARY
  5
13274
330
13208
100
AcDbDictionary
280
     1
281
     1
  3
ACAD_XREC_ROUNDTRIP
360
13275
  0
DICTIONARY
  5
1326E
330
13205
100
AcDbDictionary
280
     1
281
     1
  3
ACAD_XREC_ROUNDTRIP
360
1326F
  0
DICTIONARY
  5
13270
330
13206
100
AcDbDictionary
280
     1
281
     1
  3
ACAD_XREC_ROUNDTRIP
360
13271
  0
DICTIONARY
  5
13266
330
13201
100
AcDbDictionary
280
     1
281
     1
  3
ACAD_XREC_ROUNDTRIP
360
13267
  0
DICTIONARY
  5
1325A
330
131FB
100
AcDbDictionary
280
     1
281
     1
  3
ACAD_XREC_ROUNDTRIP
360
1325B
  0
DICTIONARY
  5
13272
330
13207
100
AcDbDictionary
280
     1
281
     1
  3
ACAD_XREC_ROUNDTRIP
360
13273
  0
XRECORD
  5
13283
102
{ACAD_REACTORS
330
13282
102
}
330
13282
100
AcDbXrecord
280
     1
102
DISPLAYNAME
  1
Imperial24
102
FLAGS
 90
        0
  0
XRECORD
  5
13285
102
{ACAD_REACTORS
330
13284
102
}
330
13284
100
AcDbXrecord
280
     1
102
SHADEPLOT
 70
     0
102
SHADEPLOTRESLEVEL
 70
     2
102
SHADEPLOTCUSTOMDPI
 70
   300
  0
XRECORD
  5
13287
102
{ACAD_REACTORS
330
13286
102
}
330
13286
100
AcDbXrecord
280
     1
102
SHADEPLOT
 70
     0
102
SHADEPLOTRESLEVEL
 70
     2
102
SHADEPLOTCUSTOMDPI
 70
   300
  0
XRECORD
  5
1324C
102
{ACAD_REACTORS
330
131E5
102
}
330
131E5
100
AcDbXrecord
280
     1
102
MATERIAL
148
0.0
149
0.0
149
0.0
 93
        0
 94
      127
282
     0
 72
     0
 77
     0
171
     0
175
     0
179
     0
273
     0
  0
XRECORD
  5
131E7
102
{ACAD_REACTORS
330
131E5
102
}
330
131E5
100
AcDbXrecord
280
     1
270
     1
271
     1
  0
XRECORD
  5
131E6
102
{ACAD_REACTORS
330
131E5
102
}
330
131E5
100
AcDbXrecord
280
     1
270
     1
271
     1
  0
XRECORD
  5
131EA
102
{ACAD_REACTORS
330
131E5
102
}
330
131E5
100
AcDbXrecord
280
     1
270
     1
271
     1
  0
XRECORD
  5
131E9
102
{ACAD_REACTORS
330
131E5
102
}
330
131E5
100
AcDbXrecord
280
     1
270
     1
271
     1
  0
XRECORD
  5
131EB
102
{ACAD_REACTORS
330
131E5
102
}
330
131E5
100
AcDbXrecord
280
     1
270
     1
271
     1
  0
XRECORD
  5
131E8
102
{ACAD_REACTORS
330
131E5
102
}
330
131E5
100
AcDbXrecord
280
     1
270
     1
271
     1
  0
XRECORD
  5
1324B
102
{ACAD_REACTORS
330
131DD
102
}
330
131DD
100
AcDbXrecord
280
     1
102
MATERIAL
148
0.0
149
0.0
149
0.0
 93
        0
 94
      127
282
     0
 72
     0
 77
     0
171
     0
175
     0
179
     0
273
     0
  0
XRECORD
  5
131DF
102
{ACAD_REACTORS
330
131DD
102
}
330
131DD
100
AcDbXrecord
280
     1
270
     1
271
     1
  0
XRECORD
  5
131DE
102
{ACAD_REACTORS
330
131DD
102
}
330
131DD
100
AcDbXrecord
280
     1
270
     1
271
     1
  0
XRECORD
  5
131E2
102
{ACAD_REACTORS
330
131DD
102
}
330
131DD
100
AcDbXrecord
280
     1
270
     1
271
     1
  0
XRECORD
  5
131E1
102
{ACAD_REACTORS
330
131DD
102
}
330
131DD
100
AcDbXrecord
280
     1
270
     1
271
     1
  0
XRECORD
  5
131E3
102
{ACAD_REACTORS
330
131DD
102
}
330
131DD
100
AcDbXrecord
280
     1
270
     1
271
     1
  0
XRECORD
  5
131E0
102
{ACAD_REACTORS
330
131DD
102
}
330
131DD
100
AcDbXrecord
280
     1
270
     1
271
     1
  0
XRECORD
  5
1324D
102
{ACAD_REACTORS
330
131ED
102
}
330
131ED
100
AcDbXrecord
280
     1
102
MATERIAL
148
0.0
149
0.0
149
0.0
 93
        0
 94
      127
282
     0
 72
     0
 77
     0
171
     0
175
     0
179
     0
273
     0
  0
XRECORD
  5
131EF
102
{ACAD_REACTORS
330
131ED
102
}
330
131ED
100
AcDbXrecord
280
     1
270
     1
271
     1
  0
XRECORD
  5
131EE
102
{ACAD_REACTORS
330
131ED
102
}
330
131ED
100
AcDbXrecord
280
     1
270
     1
271
     1
  0
XRECORD
  5
131F2
102
{ACAD_REACTORS
330
131ED
102
}
330
131ED
100
AcDbXrecord
280
     1
270
     1
271
     1
  0
XRECORD
  5
131F1
102
{ACAD_REACTORS
330
131ED
102
}
330
131ED
100
AcDbXrecord
280
     1
270
     1
271
     1
  0
XRECORD
  5
131F3
102
{ACAD_REACTORS
330
131ED
102
}
330
131ED
100
AcDbXrecord
280
     1
270
     1
271
     1
  0
XRECORD
  5
131F0
102
{ACAD_REACTORS
330
131ED
102
}
330
131ED
100
AcDbXrecord
280
     1
270
     1
271
     1
  0
XRECORD
  5
13281
102
{ACAD_REACTORS
330
13280
102
}
330
13280
100
AcDbXrecord
280
     1
102
DISPLAYNAME
  1
Imperial24
102
FLAGS
 90
        0
  0
CELLSTYLEMAP
  5
13248
102
{ACAD_REACTORS
330
13247
102
}
330
13247
100
AcDbCellStyleMap
 90
        3
300
CELLSTYLE
  1
TABLEFORMAT_BEGIN
 90
        5
170
     1
 91
        0
 92
    32768
 62
   257
 93
        1
300
CONTENTFORMAT
  1
CONTENTFORMAT_BEGIN
 90
        0
 91
        0
 92
      512
 93
        0
300

 40
0.0
140
1.0
 94
        5
 62
     0
340
12E69
144
0.25
309
CONTENTFORMAT_END
171
     0
 94
        0
309
TABLEFORMAT_END
  1
CELLSTYLE_BEGIN
 90
        1
 91
        1
300
_TITLE
309
CELLSTYLE_END
300
CELLSTYLE
  1
TABLEFORMAT_BEGIN
 90
        5
170
     1
 91
        0
 92
        0
 62
   257
 93
        1
300
CONTENTFORMAT
  1
CONTENTFORMAT_BEGIN
 90
        0
 91
        0
 92
      512
 93
        0
300

 40
0.0
140
1.0
 94
        5
 62
     0
340
12E69
144
0.18
309
CONTENTFORMAT_END
171
     0
 94
        0
309
TABLEFORMAT_END
  1
CELLSTYLE_BEGIN
 90
        2
 91
        1
300
_HEADER
309
CELLSTYLE_END
300
CELLSTYLE
  1
TABLEFORMAT_BEGIN
 90
        5
170
     1
 91
        0
 92
        0
 62
   257
 93
        1
300
CONTENTFORMAT
  1
CONTENTFORMAT_BEGIN
 90
        0
 91
        0
 92
      512
 93
        0
300

 40
0.0
140
1.0
 94
        2
 62
     0
340
12E69
144
0.18
309
CONTENTFORMAT_END
171
     0
 94
        0
309
TABLEFORMAT_END
  1
CELLSTYLE_BEGIN
 90
        3
 91
        2
300
_DATA
309
CELLSTYLE_END
  0
XRECORD
  5
1327E
102
{ACAD_REACTORS
330
13247
102
}
330
13247
100
AcDbXrecord
280
     1
102
ACAD_ROUNDTRIP_PRE2007_TABLESTYLE
 90
      512
 91
        0
  1

 92
      512
 93
        0
  2

 94
      512
 95
        0
  3

  0
XRECORD
  5
13259
102
{ACAD_REACTORS
330
13258
102
}
330
13258
100
AcDbXrecord
280
     1
102
RTVSPost2010Prop28
280
     1
102
RTVSPost2010PropOp28
 70
     1
102
RTVSPost2010Prop29
280
     1
102
RTVSPost2010PropOp29
 70
     1
102
RTVSPost2010Prop30
280
     0
102
RTVSPost2010PropOp30
 70
     1
102
RTVSPost2010Prop31
280
     0
102
RTVSPost2010PropOp31
 70
     1
102
RTVSPost2010Prop32
280
     0
102
RTVSPost2010PropOp32
 70
     1
102
RTVSPost2010Prop33
280
     0
102
RTVSPost2010PropOp33
 70
     1
102
RTVSPost2010Prop34
280
     0
102
RTVSPost2010PropOp34
 70
     1
102
RTVSPost2010Prop35
280
     0
102
RTVSPost2010PropOp35
 70
     1
102
RTVSPost2010Prop36
280
     0
102
RTVSPost2010PropOp36
 70
     1
102
RTVSPost2010Prop37
 90
       50
102
RTVSPost2010PropOp37
 70
     1
102
RTVSPost2010Prop38
140
0.0
102
RTVSPost2010PropOp38
 70
     1
102
RTVSPost2010Prop39
140
1.0
102
RTVSPost2010PropOp39
 70
     1
102
RTVSPost2010Prop40
 90
        0
102
RTVSPost2010PropOp40
 70
     1
102
RTVSPost2010Prop41ColorIndex
 90
       18
102
RTVSPost2010Prop41ColorRGB
 90
        0
102
RTVSPost2010PropOp41
 70
     1
102
RTVSPost2010Prop42
 90
       50
102
RTVSPost2010PropOp42
 70
     1
102
RTVSPost2010Prop43
 90
        3
102
RTVSPost2010PropOp43
 70
     1
102
RTVSPost2010Prop44ColorIndex
 90
        5
102
RTVSPost2010Prop44ColorRGB
 90
      255
102
RTVSPost2010PropOp44
 70
     1
102
RTVSPost2010Prop45
280
     0
102
RTVSPost2010PropOp45
 70
     1
102
RTVSPost2010Prop46
 90
       50
102
RTVSPost2010PropOp46
 70
     1
102
RTVSPost2010Prop47
 90
       50
102
RTVSPost2010PropOp47
 70
     1
102
RTVSPost2010Prop48
 90
       50
102
RTVSPost2010PropOp48
 70
     1
102
RTVSPost2010Prop49
280
     0
102
RTVSPost2010PropOp49
 70
     1
102
RTVSPost2010Prop50
 90
       50
102
RTVSPost2010PropOp50
 70
     1
102
RTVSPost2010Prop51ColorIndex
 90
      256
102
RTVSPost2010Prop51ColorRGB
 90
-16777216
102
RTVSPost2010PropOp51
 70
     0
102
RTVSPost2010Prop52
140
1.0
102
RTVSPost2010PropOp52
 70
     0
102
RTVSPost2010Prop53
 90
        2
102
RTVSPost2010PropOp53
 70
     1
102
RTVSPost2010Prop54
  1
strokes_ogs.tif
102
RTVSPost2010PropOp54
 70
     1
102
RTVSPost2010Prop55
280
     0
102
RTVSPost2010PropOp55
 70
     1
102
RTVSPost2010Prop56
140
1.0
102
RTVSPost2010PropOp56
 70
     1
102
RTVSPost2010Prop57
140
1.0
102
RTVSPost2010PropOp57
 70
     1
102
RTVSPropertyOp0
 70
     1
102
RTVSPropertyOp1
 70
     1
102
RTVSPropertyOp2
 70
     1
102
RTVSPropertyOp3
 70
     1
102
RTVSPropertyOp4
 70
     1
102
RTVSPropertyOp5
 70
     1
102
RTVSPropertyOp6
 70
     1
102
RTVSPropertyOp7
 70
     1
102
RTVSPropertyOp8
 70
     1
102
RTVSPropertyOp9
 70
     1
102
RTVSPropertyOp10
 70
     1
102
RTVSPropertyOp11
 70
     1
102
RTVSPropertyOp12
 70
     1
102
RTVSPropertyOp13
 70
     1
102
RTVSPropertyOp14
 70
     1
102
RTVSPropertyOp15
 70
     1
102
RTVSPropertyOp16
 70
     1
102
RTVSPropertyOp17
 70
     1
102
RTVSPropertyOp18
 70
     1
102
RTVSPropertyOp19
 70
     1
102
RTVSPropertyOp20
 70
     1
102
RTVSPropertyOp21
 70
     1
102
RTVSPropertyOp22
 70
     1
102
RTVSPropertyOp23
 70
     1
102
RTVSPropertyOp24
 70
     1
102
RTVSPropertyOp25
 70
     1
102
RTVSPropertyOp26
 70
     1
102
RTVSPropertyOp27
 70
     1
102
RTVSPropertyOp28
 70
     1
102
RTVSPropertyOp29
 70
     1
102
RTVSPropertyOp30
 70
     1
102
RTVSPropertyOp31
 70
     1
102
RTVSPropertyOp32
 70
     1
102
RTVSPropertyOp33
 70
     1
102
RTVSPropertyOp34
 70
     1
102
RTVSPropertyOp35
 70
     1
102
RTVSPropertyOp36
 70
     1
102
RTVSPropertyOp37
 70
     1
102
RTVSPropertyOp38
 70
     1
102
RTVSPropertyOp39
 70
     1
102
RTVSPropertyOp40
 70
     1
102
RTVSPropertyOp41
 70
     1
102
RTVSPropertyOp42
 70
     1
102
RTVSPropertyOp43
 70
     1
102
RTVSPropertyOp44
 70
     1
102
RTVSPropertyOp45
 70
     1
102
RTVSPropertyOp46
 70
     1
102
RTVSPropertyOp47
 70
     1
102
RTVSPropertyOp48
 70
     1
102
RTVSPropertyOp49
 70
     1
102
RTVSPropertyOp50
 70
     1
102
RTVSPropertyOp51
 70
     0
102
RTVSPropertyOp52
 70
     0
102
RTVSPropertyOp53
 70
     1
102
RTVSPropertyOp54
 70
     1
102
RTVSPropertyOp55
 70
     1
102
RTVSPropertyOp56
 70
     1
102
RTVSPropertyOp57
 70
     1
102
RTVSPropertyOp58
 70
     1
102
RTVSPropertyOp59
 70
     1
102
RTVSPropertyOp60
 70
     1
102
RTVSPropertyOp61
 70
     1
102
RTVSPropertyOp62
 70
     1
  0
XRECORD
  5
13257
102
{ACAD_REACTORS
330
13256
102
}
330
13256
100
AcDbXrecord
280
     1
102
RTVSPost2010Prop28
280
     0
102
RTVSPost2010PropOp28
 70
     1
102
RTVSPost2010Prop29
280
     1
102
RTVSPost2010PropOp29
 70
     1
102
RTVSPost2010Prop30
280
     1
102
RTVSPost2010PropOp30
 70
     1
102
RTVSPost2010Prop31
280
     0
102
RTVSPost2010PropOp31
 70
     1
102
RTVSPost2010Prop32
280
     0
102
RTVSPost2010PropOp32
 70
     1
102
RTVSPost2010Prop33
280
     0
102
RTVSPost2010PropOp33
 70
     1
102
RTVSPost2010Prop34
280
     0
102
RTVSPost2010PropOp34
 70
     1
102
RTVSPost2010Prop35
280
     0
102
RTVSPost2010PropOp35
 70
     1
102
RTVSPost2010Prop36
280
     0
102
RTVSPost2010PropOp36
 70
     1
102
RTVSPost2010Prop37
 90
       50
102
RTVSPost2010PropOp37
 70
     1
102
RTVSPost2010Prop38
140
0.0
102
RTVSPost2010PropOp38
 70
     1
102
RTVSPost2010Prop39
140
1.0
102
RTVSPost2010PropOp39
 70
     1
102
RTVSPost2010Prop40
 90
        0
102
RTVSPost2010PropOp40
 70
     1
102
RTVSPost2010Prop41ColorIndex
 90
       18
102
RTVSPost2010Prop41ColorRGB
 90
        0
102
RTVSPost2010PropOp41
 70
     1
102
RTVSPost2010Prop42
 90
       50
102
RTVSPost2010PropOp42
 70
     1
102
RTVSPost2010Prop43
 90
        3
102
RTVSPost2010PropOp43
 70
     1
102
RTVSPost2010Prop44ColorIndex
 90
        5
102
RTVSPost2010Prop44ColorRGB
 90
      255
102
RTVSPost2010PropOp44
 70
     1
102
RTVSPost2010Prop45
280
     0
102
RTVSPost2010PropOp45
 70
     1
102
RTVSPost2010Prop46
 90
       50
102
RTVSPost2010PropOp46
 70
     1
102
RTVSPost2010Prop47
 90
       50
102
RTVSPost2010PropOp47
 70
     1
102
RTVSPost2010Prop48
 90
       50
102
RTVSPost2010PropOp48
 70
     1
102
RTVSPost2010Prop49
280
     0
102
RTVSPost2010PropOp49
 70
     1
102
RTVSPost2010Prop50
 90
       50
102
RTVSPost2010PropOp50
 70
     1
102
RTVSPost2010Prop51ColorIndex
 90
      256
102
RTVSPost2010Prop51ColorRGB
 90
-16777216
102
RTVSPost2010PropOp51
 70
     0
102
RTVSPost2010Prop52
140
1.0
102
RTVSPost2010PropOp52
 70
     0
102
RTVSPost2010Prop53
 90
        2
102
RTVSPost2010PropOp53
 70
     1
102
RTVSPost2010Prop54
  1
strokes_ogs.tif
102
RTVSPost2010PropOp54
 70
     1
102
RTVSPost2010Prop55
280
     0
102
RTVSPost2010PropOp55
 70
     1
102
RTVSPost2010Prop56
140
1.0
102
RTVSPost2010PropOp56
 70
     1
102
RTVSPost2010Prop57
140
1.0
102
RTVSPost2010PropOp57
 70
     1
102
RTVSPropertyOp0
 70
     1
102
RTVSPropertyOp1
 70
     1
102
RTVSPropertyOp2
 70
     1
102
RTVSPropertyOp3
 70
     1
102
RTVSPropertyOp4
 70
     1
102
RTVSPropertyOp5
 70
     1
102
RTVSPropertyOp6
 70
     1
102
RTVSPropertyOp7
 70
     1
102
RTVSPropertyOp8
 70
     1
102
RTVSPropertyOp9
 70
     1
102
RTVSPropertyOp10
 70
     1
102
RTVSPropertyOp11
 70
     1
102
RTVSPropertyOp12
 70
     1
102
RTVSPropertyOp13
 70
     1
102
RTVSPropertyOp14
 70
     1
102
RTVSPropertyOp15
 70
     1
102
RTVSPropertyOp16
 70
     1
102
RTVSPropertyOp17
 70
     1
102
RTVSPropertyOp18
 70
     1
102
RTVSPropertyOp19
 70
     1
102
RTVSPropertyOp20
 70
     1
102
RTVSPropertyOp21
 70
     1
102
RTVSPropertyOp22
 70
     1
102
RTVSPropertyOp23
 70
     1
102
RTVSPropertyOp24
 70
     1
102
RTVSPropertyOp25
 70
     1
102
RTVSPropertyOp26
 70
     1
102
RTVSPropertyOp27
 70
     1
102
RTVSPropertyOp28
 70
     1
102
RTVSPropertyOp29
 70
     1
102
RTVSPropertyOp30
 70
     1
102
RTVSPropertyOp31
 70
     1
102
RTVSPropertyOp32
 70
     1
102
RTVSPropertyOp33
 70
     1
102
RTVSPropertyOp34
 70
     1
102
RTVSPropertyOp35
 70
     1
102
RTVSPropertyOp36
 70
     1
102
RTVSPropertyOp37
 70
     1
102
RTVSPropertyOp38
 70
     1
102
RTVSPropertyOp39
 70
     1
102
RTVSPropertyOp40
 70
     1
102
RTVSPropertyOp41
 70
     1
102
RTVSPropertyOp42
 70
     1
102
RTVSPropertyOp43
 70
     1
102
RTVSPropertyOp44
 70
     1
102
RTVSPropertyOp45
 70
     1
102
RTVSPropertyOp46
 70
     1
102
RTVSPropertyOp47
 70
     1
102
RTVSPropertyOp48
 70
     1
102
RTVSPropertyOp49
 70
     1
102
RTVSPropertyOp50
 70
     1
102
RTVSPropertyOp51
 70
     0
102
RTVSPropertyOp52
 70
     0
102
RTVSPropertyOp53
 70
     1
102
RTVSPropertyOp54
 70
     1
102
RTVSPropertyOp55
 70
     1
102
RTVSPropertyOp56
 70
     1
102
RTVSPropertyOp57
 70
     1
102
RTVSPropertyOp58
 70
     1
102
RTVSPropertyOp59
 70
     1
102
RTVSPropertyOp60
 70
     1
102
RTVSPropertyOp61
 70
     1
102
RTVSPropertyOp62
 70
     1
  0
XRECORD
  5
13265
102
{ACAD_REACTORS
330
13264
102
}
330
13264
100
AcDbXrecord
280
     1
102
RTVSPost2010Prop28
280
     0
102
RTVSPost2010PropOp28
 70
     1
102
RTVSPost2010Prop29
280
     1
102
RTVSPost2010PropOp29
 70
     1
102
RTVSPost2010Prop30
280
     1
102
RTVSPost2010PropOp30
 70
     1
102
RTVSPost2010Prop31
280
     0
102
RTVSPost2010PropOp31
 70
     1
102
RTVSPost2010Prop32
280
     0
102
RTVSPost2010PropOp32
 70
     1
102
RTVSPost2010Prop33
280
     0
102
RTVSPost2010PropOp33
 70
     1
102
RTVSPost2010Prop34
280
     0
102
RTVSPost2010PropOp34
 70
     1
102
RTVSPost2010Prop35
280
     0
102
RTVSPost2010PropOp35
 70
     1
102
RTVSPost2010Prop36
280
     0
102
RTVSPost2010PropOp36
 70
     1
102
RTVSPost2010Prop37
 90
       50
102
RTVSPost2010PropOp37
 70
     1
102
RTVSPost2010Prop38
140
0.0
102
RTVSPost2010PropOp38
 70
     1
102
RTVSPost2010Prop39
140
1.0
102
RTVSPost2010PropOp39
 70
     1
102
RTVSPost2010Prop40
 90
        0
102
RTVSPost2010PropOp40
 70
     1
102
RTVSPost2010Prop41ColorIndex
 90
       18
102
RTVSPost2010Prop41ColorRGB
 90
        0
102
RTVSPost2010PropOp41
 70
     1
102
RTVSPost2010Prop42
 90
       50
102
RTVSPost2010PropOp42
 70
     1
102
RTVSPost2010Prop43
 90
        3
102
RTVSPost2010PropOp43
 70
     1
102
RTVSPost2010Prop44ColorIndex
 90
        5
102
RTVSPost2010Prop44ColorRGB
 90
      255
102
RTVSPost2010PropOp44
 70
     1
102
RTVSPost2010Prop45
280
     0
102
RTVSPost2010PropOp45
 70
     1
102
RTVSPost2010Prop46
 90
       50
102
RTVSPost2010PropOp46
 70
     1
102
RTVSPost2010Prop47
 90
       50
102
RTVSPost2010PropOp47
 70
     1
102
RTVSPost2010Prop48
 90
       50
102
RTVSPost2010PropOp48
 70
     1
102
RTVSPost2010Prop49
280
     0
102
RTVSPost2010PropOp49
 70
     1
102
RTVSPost2010Prop50
 90
       50
102
RTVSPost2010PropOp50
 70
     1
102
RTVSPost2010Prop51ColorIndex
 90
      256
102
RTVSPost2010Prop51ColorRGB
 90
-16777216
102
RTVSPost2010PropOp51
 70
     0
102
RTVSPost2010Prop52
140
1.0
102
RTVSPost2010PropOp52
 70
     0
102
RTVSPost2010Prop53
 90
        2
102
RTVSPost2010PropOp53
 70
     1
102
RTVSPost2010Prop54
  1
strokes_ogs.tif
102
RTVSPost2010PropOp54
 70
     1
102
RTVSPost2010Prop55
280
     0
102
RTVSPost2010PropOp55
 70
     1
102
RTVSPost2010Prop56
140
1.0
102
RTVSPost2010PropOp56
 70
     1
102
RTVSPost2010Prop57
140
1.0
102
RTVSPost2010PropOp57
 70
     1
102
RTVSPropertyOp0
 70
     1
102
RTVSPropertyOp1
 70
     1
102
RTVSPropertyOp2
 70
     1
102
RTVSPropertyOp3
 70
     1
102
RTVSPropertyOp4
 70
     1
102
RTVSPropertyOp5
 70
     1
102
RTVSPropertyOp6
 70
     1
102
RTVSPropertyOp7
 70
     1
102
RTVSPropertyOp8
 70
     1
102
RTVSPropertyOp9
 70
     1
102
RTVSPropertyOp10
 70
     1
102
RTVSPropertyOp11
 70
     1
102
RTVSPropertyOp12
 70
     1
102
RTVSPropertyOp13
 70
     1
102
RTVSPropertyOp14
 70
     1
102
RTVSPropertyOp15
 70
     1
102
RTVSPropertyOp16
 70
     1
102
RTVSPropertyOp17
 70
     1
102
RTVSPropertyOp18
 70
     1
102
RTVSPropertyOp19
 70
     1
102
RTVSPropertyOp20
 70
     1
102
RTVSPropertyOp21
 70
     1
102
RTVSPropertyOp22
 70
     1
102
RTVSPropertyOp23
 70
     1
102
RTVSPropertyOp24
 70
     1
102
RTVSPropertyOp25
 70
     1
102
RTVSPropertyOp26
 70
     1
102
RTVSPropertyOp27
 70
     1
102
RTVSPropertyOp28
 70
     1
102
RTVSPropertyOp29
 70
     1
102
RTVSPropertyOp30
 70
     1
102
RTVSPropertyOp31
 70
     1
102
RTVSPropertyOp32
 70
     1
102
RTVSPropertyOp33
 70
     1
102
RTVSPropertyOp34
 70
     1
102
RTVSPropertyOp35
 70
     1
102
RTVSPropertyOp36
 70
     1
102
RTVSPropertyOp37
 70
     1
102
RTVSPropertyOp38
 70
     1
102
RTVSPropertyOp39
 70
     1
102
RTVSPropertyOp40
 70
     1
102
RTVSPropertyOp41
 70
     1
102
RTVSPropertyOp42
 70
     1
102
RTVSPropertyOp43
 70
     1
102
RTVSPropertyOp44
 70
     1
102
RTVSPropertyOp45
 70
     1
102
RTVSPropertyOp46
 70
     1
102
RTVSPropertyOp47
 70
     1
102
RTVSPropertyOp48
 70
     1
102
RTVSPropertyOp49
 70
     1
102
RTVSPropertyOp50
 70
     1
102
RTVSPropertyOp51
 70
     0
102
RTVSPropertyOp52
 70
     0
102
RTVSPropertyOp53
 70
     1
102
RTVSPropertyOp54
 70
     1
102
RTVSPropertyOp55
 70
     1
102
RTVSPropertyOp56
 70
     1
102
RTVSPropertyOp57
 70
     1
102
RTVSPropertyOp58
 70
     1
102
RTVSPropertyOp59
 70
     1
102
RTVSPropertyOp60
 70
     1
102
RTVSPropertyOp61
 70
     1
102
RTVSPropertyOp62
 70
     1
  0
XRECORD
  5
1326D
102
{ACAD_REACTORS
330
1326C
102
}
330
1326C
100
AcDbXrecord
280
     1
102
RTVSPost2010Prop28
280
     0
102
RTVSPost2010PropOp28
 70
     1
102
RTVSPost2010Prop29
280
     1
102
RTVSPost2010PropOp29
 70
     1
102
RTVSPost2010Prop30
280
     1
102
RTVSPost2010PropOp30
 70
     1
102
RTVSPost2010Prop31
280
     0
102
RTVSPost2010PropOp31
 70
     1
102
RTVSPost2010Prop32
280
     0
102
RTVSPost2010PropOp32
 70
     1
102
RTVSPost2010Prop33
280
     0
102
RTVSPost2010PropOp33
 70
     1
102
RTVSPost2010Prop34
280
     0
102
RTVSPost2010PropOp34
 70
     1
102
RTVSPost2010Prop35
280
     0
102
RTVSPost2010PropOp35
 70
     1
102
RTVSPost2010Prop36
280
     0
102
RTVSPost2010PropOp36
 70
     1
102
RTVSPost2010Prop37
 90
       50
102
RTVSPost2010PropOp37
 70
     1
102
RTVSPost2010Prop38
140
0.0
102
RTVSPost2010PropOp38
 70
     1
102
RTVSPost2010Prop39
140
1.0
102
RTVSPost2010PropOp39
 70
     1
102
RTVSPost2010Prop40
 90
        0
102
RTVSPost2010PropOp40
 70
     1
102
RTVSPost2010Prop41ColorIndex
 90
       18
102
RTVSPost2010Prop41ColorRGB
 90
        0
102
RTVSPost2010PropOp41
 70
     1
102
RTVSPost2010Prop42
 90
       50
102
RTVSPost2010PropOp42
 70
     1
102
RTVSPost2010Prop43
 90
        3
102
RTVSPost2010PropOp43
 70
     1
102
RTVSPost2010Prop44ColorIndex
 90
        5
102
RTVSPost2010Prop44ColorRGB
 90
      255
102
RTVSPost2010PropOp44
 70
     1
102
RTVSPost2010Prop45
280
     0
102
RTVSPost2010PropOp45
 70
     1
102
RTVSPost2010Prop46
 90
       50
102
RTVSPost2010PropOp46
 70
     1
102
RTVSPost2010Prop47
 90
       50
102
RTVSPost2010PropOp47
 70
     1
102
RTVSPost2010Prop48
 90
       50
102
RTVSPost2010PropOp48
 70
     1
102
RTVSPost2010Prop49
280
     0
102
RTVSPost2010PropOp49
 70
     1
102
RTVSPost2010Prop50
 90
       50
102
RTVSPost2010PropOp50
 70
     1
102
RTVSPost2010Prop51ColorIndex
 90
      256
102
RTVSPost2010Prop51ColorRGB
 90
-16777216
102
RTVSPost2010PropOp51
 70
     0
102
RTVSPost2010Prop52
140
1.0
102
RTVSPost2010PropOp52
 70
     0
102
RTVSPost2010Prop53
 90
        2
102
RTVSPost2010PropOp53
 70
     1
102
RTVSPost2010Prop54
  1
strokes_ogs.tif
102
RTVSPost2010PropOp54
 70
     1
102
RTVSPost2010Prop55
280
     0
102
RTVSPost2010PropOp55
 70
     1
102
RTVSPost2010Prop56
140
1.0
102
RTVSPost2010PropOp56
 70
     1
102
RTVSPost2010Prop57
140
1.0
102
RTVSPost2010PropOp57
 70
     1
102
RTVSPropertyOp0
 70
     1
102
RTVSPropertyOp1
 70
     1
102
RTVSPropertyOp2
 70
     1
102
RTVSPropertyOp3
 70
     1
102
RTVSPropertyOp4
 70
     1
102
RTVSPropertyOp5
 70
     1
102
RTVSPropertyOp6
 70
     1
102
RTVSPropertyOp7
 70
     1
102
RTVSPropertyOp8
 70
     1
102
RTVSPropertyOp9
 70
     1
102
RTVSPropertyOp10
 70
     1
102
RTVSPropertyOp11
 70
     1
102
RTVSPropertyOp12
 70
     1
102
RTVSPropertyOp13
 70
     1
102
RTVSPropertyOp14
 70
     1
102
RTVSPropertyOp15
 70
     1
102
RTVSPropertyOp16
 70
     1
102
RTVSPropertyOp17
 70
     1
102
RTVSPropertyOp18
 70
     1
102
RTVSPropertyOp19
 70
     1
102
RTVSPropertyOp20
 70
     1
102
RTVSPropertyOp21
 70
     1
102
RTVSPropertyOp22
 70
     1
102
RTVSPropertyOp23
 70
     1
102
RTVSPropertyOp24
 70
     1
102
RTVSPropertyOp25
 70
     1
102
RTVSPropertyOp26
 70
     1
102
RTVSPropertyOp27
 70
     1
102
RTVSPropertyOp28
 70
     1
102
RTVSPropertyOp29
 70
     1
102
RTVSPropertyOp30
 70
     1
102
RTVSPropertyOp31
 70
     1
102
RTVSPropertyOp32
 70
     1
102
RTVSPropertyOp33
 70
     1
102
RTVSPropertyOp34
 70
     1
102
RTVSPropertyOp35
 70
     1
102
RTVSPropertyOp36
 70
     1
102
RTVSPropertyOp37
 70
     1
102
RTVSPropertyOp38
 70
     1
102
RTVSPropertyOp39
 70
     1
102
RTVSPropertyOp40
 70
     1
102
RTVSPropertyOp41
 70
     1
102
RTVSPropertyOp42
 70
     1
102
RTVSPropertyOp43
 70
     1
102
RTVSPropertyOp44
 70
     1
102
RTVSPropertyOp45
 70
     1
102
RTVSPropertyOp46
 70
     1
102
RTVSPropertyOp47
 70
     1
102
RTVSPropertyOp48
 70
     1
102
RTVSPropertyOp49
 70
     1
102
RTVSPropertyOp50
 70
     1
102
RTVSPropertyOp51
 70
     0
102
RTVSPropertyOp52
 70
     0
102
RTVSPropertyOp53
 70
     1
102
RTVSPropertyOp54
 70
     1
102
RTVSPropertyOp55
 70
     1
102
RTVSPropertyOp56
 70
     1
102
RTVSPropertyOp57
 70
     1
102
RTVSPropertyOp58
 70
     1
102
RTVSPropertyOp59
 70
     1
102
RTVSPropertyOp60
 70
     1
102
RTVSPropertyOp61
 70
     1
102
RTVSPropertyOp62
 70
     1
  0
XRECORD
  5
1325F
102
{ACAD_REACTORS
330
1325E
102
}
330
1325E
100
AcDbXrecord
280
     1
102
RTVSPost2010Prop28
280
     0
102
RTVSPost2010PropOp28
 70
     1
102
RTVSPost2010Prop29
280
     1
102
RTVSPost2010PropOp29
 70
     1
102
RTVSPost2010Prop30
280
     1
102
RTVSPost2010PropOp30
 70
     1
102
RTVSPost2010Prop31
280
     0
102
RTVSPost2010PropOp31
 70
     1
102
RTVSPost2010Prop32
280
     0
102
RTVSPost2010PropOp32
 70
     1
102
RTVSPost2010Prop33
280
     0
102
RTVSPost2010PropOp33
 70
     1
102
RTVSPost2010Prop34
280
     0
102
RTVSPost2010PropOp34
 70
     1
102
RTVSPost2010Prop35
280
     0
102
RTVSPost2010PropOp35
 70
     1
102
RTVSPost2010Prop36
280
     0
102
RTVSPost2010PropOp36
 70
     1
102
RTVSPost2010Prop37
 90
       50
102
RTVSPost2010PropOp37
 70
     1
102
RTVSPost2010Prop38
140
0.0
102
RTVSPost2010PropOp38
 70
     1
102
RTVSPost2010Prop39
140
1.0
102
RTVSPost2010PropOp39
 70
     1
102
RTVSPost2010Prop40
 90
        0
102
RTVSPost2010PropOp40
 70
     1
102
RTVSPost2010Prop41ColorIndex
 90
       18
102
RTVSPost2010Prop41ColorRGB
 90
        0
102
RTVSPost2010PropOp41
 70
     1
102
RTVSPost2010Prop42
 90
       50
102
RTVSPost2010PropOp42
 70
     1
102
RTVSPost2010Prop43
 90
        3
102
RTVSPost2010PropOp43
 70
     1
102
RTVSPost2010Prop44ColorIndex
 90
        5
102
RTVSPost2010Prop44ColorRGB
 90
      255
102
RTVSPost2010PropOp44
 70
     1
102
RTVSPost2010Prop45
280
     0
102
RTVSPost2010PropOp45
 70
     1
102
RTVSPost2010Prop46
 90
       50
102
RTVSPost2010PropOp46
 70
     1
102
RTVSPost2010Prop47
 90
       50
102
RTVSPost2010PropOp47
 70
     1
102
RTVSPost2010Prop48
 90
       50
102
RTVSPost2010PropOp48
 70
     1
102
RTVSPost2010Prop49
280
     0
102
RTVSPost2010PropOp49
 70
     1
102
RTVSPost2010Prop50
 90
       50
102
RTVSPost2010PropOp50
 70
     1
102
RTVSPost2010Prop51ColorIndex
 90
      256
102
RTVSPost2010Prop51ColorRGB
 90
-16777216
102
RTVSPost2010PropOp51
 70
     0
102
RTVSPost2010Prop52
140
1.0
102
RTVSPost2010PropOp52
 70
     0
102
RTVSPost2010Prop53
 90
        2
102
RTVSPost2010PropOp53
 70
     1
102
RTVSPost2010Prop54
  1
strokes_ogs.tif
102
RTVSPost2010PropOp54
 70
     1
102
RTVSPost2010Prop55
280
     0
102
RTVSPost2010PropOp55
 70
     1
102
RTVSPost2010Prop56
140
1.0
102
RTVSPost2010PropOp56
 70
     1
102
RTVSPost2010Prop57
140
1.0
102
RTVSPost2010PropOp57
 70
     1
102
RTVSPropertyOp0
 70
     1
102
RTVSPropertyOp1
 70
     1
102
RTVSPropertyOp2
 70
     1
102
RTVSPropertyOp3
 70
     1
102
RTVSPropertyOp4
 70
     1
102
RTVSPropertyOp5
 70
     1
102
RTVSPropertyOp6
 70
     1
102
RTVSPropertyOp7
 70
     1
102
RTVSPropertyOp8
 70
     1
102
RTVSPropertyOp9
 70
     1
102
RTVSPropertyOp10
 70
     1
102
RTVSPropertyOp11
 70
     1
102
RTVSPropertyOp12
 70
     1
102
RTVSPropertyOp13
 70
     1
102
RTVSPropertyOp14
 70
     1
102
RTVSPropertyOp15
 70
     1
102
RTVSPropertyOp16
 70
     1
102
RTVSPropertyOp17
 70
     1
102
RTVSPropertyOp18
 70
     1
102
RTVSPropertyOp19
 70
     1
102
RTVSPropertyOp20
 70
     1
102
RTVSPropertyOp21
 70
     1
102
RTVSPropertyOp22
 70
     1
102
RTVSPropertyOp23
 70
     1
102
RTVSPropertyOp24
 70
     1
102
RTVSPropertyOp25
 70
     1
102
RTVSPropertyOp26
 70
     1
102
RTVSPropertyOp27
 70
     1
102
RTVSPropertyOp28
 70
     1
102
RTVSPropertyOp29
 70
     1
102
RTVSPropertyOp30
 70
     1
102
RTVSPropertyOp31
 70
     1
102
RTVSPropertyOp32
 70
     1
102
RTVSPropertyOp33
 70
     1
102
RTVSPropertyOp34
 70
     1
102
RTVSPropertyOp35
 70
     1
102
RTVSPropertyOp36
 70
     1
102
RTVSPropertyOp37
 70
     1
102
RTVSPropertyOp38
 70
     1
102
RTVSPropertyOp39
 70
     1
102
RTVSPropertyOp40
 70
     1
102
RTVSPropertyOp41
 70
     1
102
RTVSPropertyOp42
 70
     1
102
RTVSPropertyOp43
 70
     1
102
RTVSPropertyOp44
 70
     1
102
RTVSPropertyOp45
 70
     1
102
RTVSPropertyOp46
 70
     1
102
RTVSPropertyOp47
 70
     1
102
RTVSPropertyOp48
 70
     1
102
RTVSPropertyOp49
 70
     1
102
RTVSPropertyOp50
 70
     1
102
RTVSPropertyOp51
 70
     0
102
RTVSPropertyOp52
 70
     0
102
RTVSPropertyOp53
 70
     1
102
RTVSPropertyOp54
 70
     1
102
RTVSPropertyOp55
 70
     1
102
RTVSPropertyOp56
 70
     1
102
RTVSPropertyOp57
 70
     1
102
RTVSPropertyOp58
 70
     1
102
RTVSPropertyOp59
 70
     1
102
RTVSPropertyOp60
 70
     1
102
RTVSPropertyOp61
 70
     1
102
RTVSPropertyOp62
 70
     1
  0
XRECORD
  5
13263
102
{ACAD_REACTORS
330
13262
102
}
330
13262
100
AcDbXrecord
280
     1
102
RTVSPost2010Prop28
280
     0
102
RTVSPost2010PropOp28
 70
     1
102
RTVSPost2010Prop29
280
     1
102
RTVSPost2010PropOp29
 70
     1
102
RTVSPost2010Prop30
280
     1
102
RTVSPost2010PropOp30
 70
     1
102
RTVSPost2010Prop31
280
     0
102
RTVSPost2010PropOp31
 70
     1
102
RTVSPost2010Prop32
280
     0
102
RTVSPost2010PropOp32
 70
     1
102
RTVSPost2010Prop33
280
     0
102
RTVSPost2010PropOp33
 70
     1
102
RTVSPost2010Prop34
280
     0
102
RTVSPost2010PropOp34
 70
     1
102
RTVSPost2010Prop35
280
     0
102
RTVSPost2010PropOp35
 70
     1
102
RTVSPost2010Prop36
280
     0
102
RTVSPost2010PropOp36
 70
     1
102
RTVSPost2010Prop37
 90
       50
102
RTVSPost2010PropOp37
 70
     1
102
RTVSPost2010Prop38
140
0.0
102
RTVSPost2010PropOp38
 70
     1
102
RTVSPost2010Prop39
140
1.0
102
RTVSPost2010PropOp39
 70
     1
102
RTVSPost2010Prop40
 90
        0
102
RTVSPost2010PropOp40
 70
     1
102
RTVSPost2010Prop41ColorIndex
 90
       18
102
RTVSPost2010Prop41ColorRGB
 90
        0
102
RTVSPost2010PropOp41
 70
     1
102
RTVSPost2010Prop42
 90
       50
102
RTVSPost2010PropOp42
 70
     1
102
RTVSPost2010Prop43
 90
        3
102
RTVSPost2010PropOp43
 70
     1
102
RTVSPost2010Prop44ColorIndex
 90
        5
102
RTVSPost2010Prop44ColorRGB
 90
      255
102
RTVSPost2010PropOp44
 70
     1
102
RTVSPost2010Prop45
280
     0
102
RTVSPost2010PropOp45
 70
     1
102
RTVSPost2010Prop46
 90
       50
102
RTVSPost2010PropOp46
 70
     1
102
RTVSPost2010Prop47
 90
       50
102
RTVSPost2010PropOp47
 70
     1
102
RTVSPost2010Prop48
 90
       50
102
RTVSPost2010PropOp48
 70
     1
102
RTVSPost2010Prop49
280
     0
102
RTVSPost2010PropOp49
 70
     1
102
RTVSPost2010Prop50
 90
       50
102
RTVSPost2010PropOp50
 70
     1
102
RTVSPost2010Prop51ColorIndex
 90
      256
102
RTVSPost2010Prop51ColorRGB
 90
-16777216
102
RTVSPost2010PropOp51
 70
     0
102
RTVSPost2010Prop52
140
1.0
102
RTVSPost2010PropOp52
 70
     0
102
RTVSPost2010Prop53
 90
        2
102
RTVSPost2010PropOp53
 70
     1
102
RTVSPost2010Prop54
  1
strokes_ogs.tif
102
RTVSPost2010PropOp54
 70
     1
102
RTVSPost2010Prop55
280
     0
102
RTVSPost2010PropOp55
 70
     1
102
RTVSPost2010Prop56
140
1.0
102
RTVSPost2010PropOp56
 70
     1
102
RTVSPost2010Prop57
140
1.0
102
RTVSPost2010PropOp57
 70
     1
102
RTVSPropertyOp0
 70
     1
102
RTVSPropertyOp1
 70
     1
102
RTVSPropertyOp2
 70
     1
102
RTVSPropertyOp3
 70
     1
102
RTVSPropertyOp4
 70
     1
102
RTVSPropertyOp5
 70
     1
102
RTVSPropertyOp6
 70
     1
102
RTVSPropertyOp7
 70
     1
102
RTVSPropertyOp8
 70
     1
102
RTVSPropertyOp9
 70
     1
102
RTVSPropertyOp10
 70
     1
102
RTVSPropertyOp11
 70
     1
102
RTVSPropertyOp12
 70
     1
102
RTVSPropertyOp13
 70
     1
102
RTVSPropertyOp14
 70
     1
102
RTVSPropertyOp15
 70
     1
102
RTVSPropertyOp16
 70
     1
102
RTVSPropertyOp17
 70
     1
102
RTVSPropertyOp18
 70
     1
102
RTVSPropertyOp19
 70
     1
102
RTVSPropertyOp20
 70
     1
102
RTVSPropertyOp21
 70
     1
102
RTVSPropertyOp22
 70
     1
102
RTVSPropertyOp23
 70
     1
102
RTVSPropertyOp24
 70
     1
102
RTVSPropertyOp25
 70
     1
102
RTVSPropertyOp26
 70
     1
102
RTVSPropertyOp27
 70
     1
102
RTVSPropertyOp28
 70
     1
102
RTVSPropertyOp29
 70
     1
102
RTVSPropertyOp30
 70
     1
102
RTVSPropertyOp31
 70
     1
102
RTVSPropertyOp32
 70
     1
102
RTVSPropertyOp33
 70
     1
102
RTVSPropertyOp34
 70
     1
102
RTVSPropertyOp35
 70
     1
102
RTVSPropertyOp36
 70
     1
102
RTVSPropertyOp37
 70
     1
102
RTVSPropertyOp38
 70
     1
102
RTVSPropertyOp39
 70
     1
102
RTVSPropertyOp40
 70
     1
102
RTVSPropertyOp41
 70
     1
102
RTVSPropertyOp42
 70
     1
102
RTVSPropertyOp43
 70
     1
102
RTVSPropertyOp44
 70
     1
102
RTVSPropertyOp45
 70
     1
102
RTVSPropertyOp46
 70
     1
102
RTVSPropertyOp47
 70
     1
102
RTVSPropertyOp48
 70
     1
102
RTVSPropertyOp49
 70
     1
102
RTVSPropertyOp50
 70
     1
102
RTVSPropertyOp51
 70
     0
102
RTVSPropertyOp52
 70
     0
102
RTVSPropertyOp53
 70
     1
102
RTVSPropertyOp54
 70
     1
102
RTVSPropertyOp55
 70
     1
102
RTVSPropertyOp56
 70
     1
102
RTVSPropertyOp57
 70
     1
102
RTVSPropertyOp58
 70
     1
102
RTVSPropertyOp59
 70
     1
102
RTVSPropertyOp60
 70
     1
102
RTVSPropertyOp61
 70
     1
102
RTVSPropertyOp62
 70
     1
  0
XRECORD
  5
1327D
102
{ACAD_REACTORS
330
1327C
102
}
330
1327C
100
AcDbXrecord
280
     1
102
RTVSPost2010Prop28
280
     0
102
RTVSPost2010PropOp28
 70
     1
102
RTVSPost2010Prop29
280
     1
102
RTVSPost2010PropOp29
 70
     1
102
RTVSPost2010Prop30
280
     1
102
RTVSPost2010PropOp30
 70
     1
102
RTVSPost2010Prop31
280
     0
102
RTVSPost2010PropOp31
 70
     1
102
RTVSPost2010Prop32
280
     0
102
RTVSPost2010PropOp32
 70
     1
102
RTVSPost2010Prop33
280
     0
102
RTVSPost2010PropOp33
 70
     1
102
RTVSPost2010Prop34
280
     0
102
RTVSPost2010PropOp34
 70
     1
102
RTVSPost2010Prop35
280
     0
102
RTVSPost2010PropOp35
 70
     1
102
RTVSPost2010Prop36
280
     0
102
RTVSPost2010PropOp36
 70
     1
102
RTVSPost2010Prop37
 90
       50
102
RTVSPost2010PropOp37
 70
     0
102
RTVSPost2010Prop38
140
0.0
102
RTVSPost2010PropOp38
 70
     0
102
RTVSPost2010Prop39
140
1.0
102
RTVSPost2010PropOp39
 70
     0
102
RTVSPost2010Prop40
 90
        0
102
RTVSPost2010PropOp40
 70
     0
102
RTVSPost2010Prop41ColorIndex
 90
       18
102
RTVSPost2010Prop41ColorRGB
 90
        0
102
RTVSPost2010PropOp41
 70
     0
102
RTVSPost2010Prop42
 90
       50
102
RTVSPost2010PropOp42
 70
     0
102
RTVSPost2010Prop43
 90
        3
102
RTVSPost2010PropOp43
 70
     0
102
RTVSPost2010Prop44ColorIndex
 90
        5
102
RTVSPost2010Prop44ColorRGB
 90
      255
102
RTVSPost2010PropOp44
 70
     0
102
RTVSPost2010Prop45
280
     0
102
RTVSPost2010PropOp45
 70
     1
102
RTVSPost2010Prop46
 90
       50
102
RTVSPost2010PropOp46
 70
     0
102
RTVSPost2010Prop47
 90
       50
102
RTVSPost2010PropOp47
 70
     0
102
RTVSPost2010Prop48
 90
       50
102
RTVSPost2010PropOp48
 70
     0
102
RTVSPost2010Prop49
280
     0
102
RTVSPost2010PropOp49
 70
     1
102
RTVSPost2010Prop50
 90
       50
102
RTVSPost2010PropOp50
 70
     0
102
RTVSPost2010Prop51ColorIndex
 90
      256
102
RTVSPost2010Prop51ColorRGB
 90
-16777216
102
RTVSPost2010PropOp51
 70
     0
102
RTVSPost2010Prop52
140
1.0
102
RTVSPost2010PropOp52
 70
     0
102
RTVSPost2010Prop53
 90
        2
102
RTVSPost2010PropOp53
 70
     0
102
RTVSPost2010Prop54
  1
strokes_ogs.tif
102
RTVSPost2010PropOp54
 70
     0
102
RTVSPost2010Prop55
280
     0
102
RTVSPost2010PropOp55
 70
     1
102
RTVSPost2010Prop56
140
1.0
102
RTVSPost2010PropOp56
 70
     0
102
RTVSPost2010Prop57
140
1.0
102
RTVSPost2010PropOp57
 70
     0
102
RTVSPropertyOp0
 70
     0
102
RTVSPropertyOp1
 70
     0
102
RTVSPropertyOp2
 70
     0
102
RTVSPropertyOp3
 70
     0
102
RTVSPropertyOp4
 70
     0
102
RTVSPropertyOp5
 70
     0
102
RTVSPropertyOp6
 70
     0
102
RTVSPropertyOp7
 70
     0
102
RTVSPropertyOp8
 70
     0
102
RTVSPropertyOp9
 70
     0
102
RTVSPropertyOp10
 70
     0
102
RTVSPropertyOp11
 70
     0
102
RTVSPropertyOp12
 70
     0
102
RTVSPropertyOp13
 70
     0
102
RTVSPropertyOp14
 70
     2
102
RTVSPropertyOp15
 70
     0
102
RTVSPropertyOp16
 70
     0
102
RTVSPropertyOp17
 70
     0
102
RTVSPropertyOp18
 70
     0
102
RTVSPropertyOp19
 70
     0
102
RTVSPropertyOp20
 70
     0
102
RTVSPropertyOp21
 70
     0
102
RTVSPropertyOp22
 70
     0
102
RTVSPropertyOp23
 70
     0
102
RTVSPropertyOp24
 70
     0
102
RTVSPropertyOp25
 70
     0
102
RTVSPropertyOp26
 70
     0
102
RTVSPropertyOp27
 70
     0
102
RTVSPropertyOp28
 70
     1
102
RTVSPropertyOp29
 70
     1
102
RTVSPropertyOp30
 70
     1
102
RTVSPropertyOp31
 70
     1
102
RTVSPropertyOp32
 70
     1
102
RTVSPropertyOp33
 70
     1
102
RTVSPropertyOp34
 70
     1
102
RTVSPropertyOp35
 70
     1
102
RTVSPropertyOp36
 70
     1
102
RTVSPropertyOp37
 70
     0
102
RTVSPropertyOp38
 70
     0
102
RTVSPropertyOp39
 70
     0
102
RTVSPropertyOp40
 70
     0
102
RTVSPropertyOp41
 70
     0
102
RTVSPropertyOp42
 70
     0
102
RTVSPropertyOp43
 70
     0
102
RTVSPropertyOp44
 70
     0
102
RTVSPropertyOp45
 70
     1
102
RTVSPropertyOp46
 70
     0
102
RTVSPropertyOp47
 70
     0
102
RTVSPropertyOp48
 70
     0
102
RTVSPropertyOp49
 70
     1
102
RTVSPropertyOp50
 70
     0
102
RTVSPropertyOp51
 70
     0
102
RTVSPropertyOp52
 70
     0
102
RTVSPropertyOp53
 70
     0
102
RTVSPropertyOp54
 70
     0
102
RTVSPropertyOp55
 70
     1
102
RTVSPropertyOp56
 70
     0
102
RTVSPropertyOp57
 70
     0
102
RTVSPropertyOp58
 70
     0
102
RTVSPropertyOp59
 70
     0
102
RTVSPropertyOp60
 70
     0
102
RTVSPropertyOp61
 70
     0
102
RTVSPropertyOp62
 70
     0
  0
XRECORD
  5
1326B
102
{ACAD_REACTORS
330
1326A
102
}
330
1326A
100
AcDbXrecord
280
     1
102
RTVSPost2010Prop28
280
     0
102
RTVSPost2010PropOp28
 70
     1
102
RTVSPost2010Prop29
280
     1
102
RTVSPost2010PropOp29
 70
     1
102
RTVSPost2010Prop30
280
     1
102
RTVSPost2010PropOp30
 70
     1
102
RTVSPost2010Prop31
280
     0
102
RTVSPost2010PropOp31
 70
     1
102
RTVSPost2010Prop32
280
     0
102
RTVSPost2010PropOp32
 70
     1
102
RTVSPost2010Prop33
280
     0
102
RTVSPost2010PropOp33
 70
     1
102
RTVSPost2010Prop34
280
     0
102
RTVSPost2010PropOp34
 70
     1
102
RTVSPost2010Prop35
280
     0
102
RTVSPost2010PropOp35
 70
     1
102
RTVSPost2010Prop36
280
     0
102
RTVSPost2010PropOp36
 70
     1
102
RTVSPost2010Prop37
 90
       50
102
RTVSPost2010PropOp37
 70
     1
102
RTVSPost2010Prop38
140
0.0
102
RTVSPost2010PropOp38
 70
     1
102
RTVSPost2010Prop39
140
1.0
102
RTVSPost2010PropOp39
 70
     1
102
RTVSPost2010Prop40
 90
        0
102
RTVSPost2010PropOp40
 70
     1
102
RTVSPost2010Prop41ColorIndex
 90
       18
102
RTVSPost2010Prop41ColorRGB
 90
        0
102
RTVSPost2010PropOp41
 70
     1
102
RTVSPost2010Prop42
 90
       50
102
RTVSPost2010PropOp42
 70
     1
102
RTVSPost2010Prop43
 90
        3
102
RTVSPost2010PropOp43
 70
     1
102
RTVSPost2010Prop44ColorIndex
 90
        5
102
RTVSPost2010Prop44ColorRGB
 90
      255
102
RTVSPost2010PropOp44
 70
     1
102
RTVSPost2010Prop45
280
     0
102
RTVSPost2010PropOp45
 70
     1
102
RTVSPost2010Prop46
 90
       50
102
RTVSPost2010PropOp46
 70
     1
102
RTVSPost2010Prop47
 90
       50
102
RTVSPost2010PropOp47
 70
     1
102
RTVSPost2010Prop48
 90
       50
102
RTVSPost2010PropOp48
 70
     1
102
RTVSPost2010Prop49
280
     0
102
RTVSPost2010PropOp49
 70
     1
102
RTVSPost2010Prop50
 90
       50
102
RTVSPost2010PropOp50
 70
     1
102
RTVSPost2010Prop51ColorIndex
 90
      256
102
RTVSPost2010Prop51ColorRGB
 90
-16777216
102
RTVSPost2010PropOp51
 70
     0
102
RTVSPost2010Prop52
140
1.0
102
RTVSPost2010PropOp52
 70
     0
102
RTVSPost2010Prop53
 90
        2
102
RTVSPost2010PropOp53
 70
     1
102
RTVSPost2010Prop54
  1
strokes_ogs.tif
102
RTVSPost2010PropOp54
 70
     1
102
RTVSPost2010Prop55
280
     0
102
RTVSPost2010PropOp55
 70
     1
102
RTVSPost2010Prop56
140
1.0
102
RTVSPost2010PropOp56
 70
     1
102
RTVSPost2010Prop57
140
1.0
102
RTVSPost2010PropOp57
 70
     1
102
RTVSPropertyOp0
 70
     1
102
RTVSPropertyOp1
 70
     1
102
RTVSPropertyOp2
 70
     1
102
RTVSPropertyOp3
 70
     1
102
RTVSPropertyOp4
 70
     1
102
RTVSPropertyOp5
 70
     1
102
RTVSPropertyOp6
 70
     1
102
RTVSPropertyOp7
 70
     1
102
RTVSPropertyOp8
 70
     1
102
RTVSPropertyOp9
 70
     1
102
RTVSPropertyOp10
 70
     1
102
RTVSPropertyOp11
 70
     1
102
RTVSPropertyOp12
 70
     1
102
RTVSPropertyOp13
 70
     1
102
RTVSPropertyOp14
 70
     1
102
RTVSPropertyOp15
 70
     1
102
RTVSPropertyOp16
 70
     1
102
RTVSPropertyOp17
 70
     1
102
RTVSPropertyOp18
 70
     1
102
RTVSPropertyOp19
 70
     1
102
RTVSPropertyOp20
 70
     1
102
RTVSPropertyOp21
 70
     1
102
RTVSPropertyOp22
 70
     1
102
RTVSPropertyOp23
 70
     1
102
RTVSPropertyOp24
 70
     1
102
RTVSPropertyOp25
 70
     1
102
RTVSPropertyOp26
 70
     1
102
RTVSPropertyOp27
 70
     1
102
RTVSPropertyOp28
 70
     1
102
RTVSPropertyOp29
 70
     1
102
RTVSPropertyOp30
 70
     1
102
RTVSPropertyOp31
 70
     1
102
RTVSPropertyOp32
 70
     1
102
RTVSPropertyOp33
 70
     1
102
RTVSPropertyOp34
 70
     1
102
RTVSPropertyOp35
 70
     1
102
RTVSPropertyOp36
 70
     1
102
RTVSPropertyOp37
 70
     1
102
RTVSPropertyOp38
 70
     1
102
RTVSPropertyOp39
 70
     1
102
RTVSPropertyOp40
 70
     1
102
RTVSPropertyOp41
 70
     1
102
RTVSPropertyOp42
 70
     1
102
RTVSPropertyOp43
 70
     1
102
RTVSPropertyOp44
 70
     1
102
RTVSPropertyOp45
 70
     1
102
RTVSPropertyOp46
 70
     1
102
RTVSPropertyOp47
 70
     1
102
RTVSPropertyOp48
 70
     1
102
RTVSPropertyOp49
 70
     1
102
RTVSPropertyOp50
 70
     1
102
RTVSPropertyOp51
 70
     0
102
RTVSPropertyOp52
 70
     0
102
RTVSPropertyOp53
 70
     1
102
RTVSPropertyOp54
 70
     1
102
RTVSPropertyOp55
 70
     1
102
RTVSPropertyOp56
 70
     1
102
RTVSPropertyOp57
 70
     1
102
RTVSPropertyOp58
 70
     1
102
RTVSPropertyOp59
 70
     1
102
RTVSPropertyOp60
 70
     1
102
RTVSPropertyOp61
 70
     1
102
RTVSPropertyOp62
 70
     1
  0
XRECORD
  5
1324F
102
{ACAD_REACTORS
330
1324E
102
}
330
1324E
100
AcDbXrecord
280
     1
102
RTVSPost2010Prop28
280
     0
102
RTVSPost2010PropOp28
 70
     1
102
RTVSPost2010Prop29
280
     1
102
RTVSPost2010PropOp29
 70
     1
102
RTVSPost2010Prop30
280
     1
102
RTVSPost2010PropOp30
 70
     1
102
RTVSPost2010Prop31
280
     0
102
RTVSPost2010PropOp31
 70
     1
102
RTVSPost2010Prop32
280
     0
102
RTVSPost2010PropOp32
 70
     1
102
RTVSPost2010Prop33
280
     0
102
RTVSPost2010PropOp33
 70
     1
102
RTVSPost2010Prop34
280
     0
102
RTVSPost2010PropOp34
 70
     1
102
RTVSPost2010Prop35
280
     0
102
RTVSPost2010PropOp35
 70
     1
102
RTVSPost2010Prop36
280
     0
102
RTVSPost2010PropOp36
 70
     1
102
RTVSPost2010Prop37
 90
       50
102
RTVSPost2010PropOp37
 70
     1
102
RTVSPost2010Prop38
140
0.0
102
RTVSPost2010PropOp38
 70
     1
102
RTVSPost2010Prop39
140
1.0
102
RTVSPost2010PropOp39
 70
     1
102
RTVSPost2010Prop40
 90
        0
102
RTVSPost2010PropOp40
 70
     1
102
RTVSPost2010Prop41ColorIndex
 90
       18
102
RTVSPost2010Prop41ColorRGB
 90
        0
102
RTVSPost2010PropOp41
 70
     1
102
RTVSPost2010Prop42
 90
       50
102
RTVSPost2010PropOp42
 70
     1
102
RTVSPost2010Prop43
 90
        3
102
RTVSPost2010PropOp43
 70
     1
102
RTVSPost2010Prop44ColorIndex
 90
        5
102
RTVSPost2010Prop44ColorRGB
 90
      255
102
RTVSPost2010PropOp44
 70
     1
102
RTVSPost2010Prop45
280
     0
102
RTVSPost2010PropOp45
 70
     1
102
RTVSPost2010Prop46
 90
       50
102
RTVSPost2010PropOp46
 70
     1
102
RTVSPost2010Prop47
 90
       50
102
RTVSPost2010PropOp47
 70
     1
102
RTVSPost2010Prop48
 90
       50
102
RTVSPost2010PropOp48
 70
     1
102
RTVSPost2010Prop49
280
     0
102
RTVSPost2010PropOp49
 70
     1
102
RTVSPost2010Prop50
 90
       50
102
RTVSPost2010PropOp50
 70
     1
102
RTVSPost2010Prop51ColorIndex
 90
      256
102
RTVSPost2010Prop51ColorRGB
 90
-16777216
102
RTVSPost2010PropOp51
 70
     0
102
RTVSPost2010Prop52
140
1.0
102
RTVSPost2010PropOp52
 70
     0
102
RTVSPost2010Prop53
 90
        2
102
RTVSPost2010PropOp53
 70
     1
102
RTVSPost2010Prop54
  1
strokes_ogs.tif
102
RTVSPost2010PropOp54
 70
     1
102
RTVSPost2010Prop55
280
     0
102
RTVSPost2010PropOp55
 70
     1
102
RTVSPost2010Prop56
140
1.0
102
RTVSPost2010PropOp56
 70
     1
102
RTVSPost2010Prop57
140
1.0
102
RTVSPost2010PropOp57
 70
     1
102
RTVSPropertyOp0
 70
     1
102
RTVSPropertyOp1
 70
     1
102
RTVSPropertyOp2
 70
     1
102
RTVSPropertyOp3
 70
     1
102
RTVSPropertyOp4
 70
     1
102
RTVSPropertyOp5
 70
     1
102
RTVSPropertyOp6
 70
     1
102
RTVSPropertyOp7
 70
     1
102
RTVSPropertyOp8
 70
     1
102
RTVSPropertyOp9
 70
     1
102
RTVSPropertyOp10
 70
     1
102
RTVSPropertyOp11
 70
     1
102
RTVSPropertyOp12
 70
     1
102
RTVSPropertyOp13
 70
     1
102
RTVSPropertyOp14
 70
     1
102
RTVSPropertyOp15
 70
     1
102
RTVSPropertyOp16
 70
     1
102
RTVSPropertyOp17
 70
     1
102
RTVSPropertyOp18
 70
     1
102
RTVSPropertyOp19
 70
     1
102
RTVSPropertyOp20
 70
     1
102
RTVSPropertyOp21
 70
     1
102
RTVSPropertyOp22
 70
     1
102
RTVSPropertyOp23
 70
     1
102
RTVSPropertyOp24
 70
     1
102
RTVSPropertyOp25
 70
     1
102
RTVSPropertyOp26
 70
     1
102
RTVSPropertyOp27
 70
     1
102
RTVSPropertyOp28
 70
     1
102
RTVSPropertyOp29
 70
     1
102
RTVSPropertyOp30
 70
     1
102
RTVSPropertyOp31
 70
     1
102
RTVSPropertyOp32
 70
     1
102
RTVSPropertyOp33
 70
     1
102
RTVSPropertyOp34
 70
     1
102
RTVSPropertyOp35
 70
     1
102
RTVSPropertyOp36
 70
     1
102
RTVSPropertyOp37
 70
     1
102
RTVSPropertyOp38
 70
     1
102
RTVSPropertyOp39
 70
     1
102
RTVSPropertyOp40
 70
     1
102
RTVSPropertyOp41
 70
     1
102
RTVSPropertyOp42
 70
     1
102
RTVSPropertyOp43
 70
     1
102
RTVSPropertyOp44
 70
     1
102
RTVSPropertyOp45
 70
     1
102
RTVSPropertyOp46
 70
     1
102
RTVSPropertyOp47
 70
     1
102
RTVSPropertyOp48
 70
     1
102
RTVSPropertyOp49
 70
     1
102
RTVSPropertyOp50
 70
     1
102
RTVSPropertyOp51
 70
     0
102
RTVSPropertyOp52
 70
     0
102
RTVSPropertyOp53
 70
     1
102
RTVSPropertyOp54
 70
     1
102
RTVSPropertyOp55
 70
     1
102
RTVSPropertyOp56
 70
     1
102
RTVSPropertyOp57
 70
     1
102
RTVSPropertyOp58
 70
     1
102
RTVSPropertyOp59
 70
     1
102
RTVSPropertyOp60
 70
     1
102
RTVSPropertyOp61
 70
     1
102
RTVSPropertyOp62
 70
     1
  0
XRECORD
  5
13251
102
{ACAD_REACTORS
330
13250
102
}
330
13250
100
AcDbXrecord
280
     1
102
RTVSPost2010Prop28
280
     0
102
RTVSPost2010PropOp28
 70
     1
102
RTVSPost2010Prop29
280
     1
102
RTVSPost2010PropOp29
 70
     1
102
RTVSPost2010Prop30
280
     1
102
RTVSPost2010PropOp30
 70
     1
102
RTVSPost2010Prop31
280
     0
102
RTVSPost2010PropOp31
 70
     1
102
RTVSPost2010Prop32
280
     0
102
RTVSPost2010PropOp32
 70
     1
102
RTVSPost2010Prop33
280
     0
102
RTVSPost2010PropOp33
 70
     1
102
RTVSPost2010Prop34
280
     0
102
RTVSPost2010PropOp34
 70
     1
102
RTVSPost2010Prop35
280
     0
102
RTVSPost2010PropOp35
 70
     1
102
RTVSPost2010Prop36
280
     0
102
RTVSPost2010PropOp36
 70
     1
102
RTVSPost2010Prop37
 90
       50
102
RTVSPost2010PropOp37
 70
     1
102
RTVSPost2010Prop38
140
0.0
102
RTVSPost2010PropOp38
 70
     1
102
RTVSPost2010Prop39
140
1.0
102
RTVSPost2010PropOp39
 70
     1
102
RTVSPost2010Prop40
 90
        0
102
RTVSPost2010PropOp40
 70
     1
102
RTVSPost2010Prop41ColorIndex
 90
       18
102
RTVSPost2010Prop41ColorRGB
 90
        0
102
RTVSPost2010PropOp41
 70
     1
102
RTVSPost2010Prop42
 90
       50
102
RTVSPost2010PropOp42
 70
     1
102
RTVSPost2010Prop43
 90
        3
102
RTVSPost2010PropOp43
 70
     1
102
RTVSPost2010Prop44ColorIndex
 90
        5
102
RTVSPost2010Prop44ColorRGB
 90
      255
102
RTVSPost2010PropOp44
 70
     1
102
RTVSPost2010Prop45
280
     0
102
RTVSPost2010PropOp45
 70
     1
102
RTVSPost2010Prop46
 90
       50
102
RTVSPost2010PropOp46
 70
     1
102
RTVSPost2010Prop47
 90
       50
102
RTVSPost2010PropOp47
 70
     1
102
RTVSPost2010Prop48
 90
       50
102
RTVSPost2010PropOp48
 70
     1
102
RTVSPost2010Prop49
280
     0
102
RTVSPost2010PropOp49
 70
     1
102
RTVSPost2010Prop50
 90
       50
102
RTVSPost2010PropOp50
 70
     1
102
RTVSPost2010Prop51ColorIndex
 90
      256
102
RTVSPost2010Prop51ColorRGB
 90
-16777216
102
RTVSPost2010PropOp51
 70
     0
102
RTVSPost2010Prop52
140
1.0
102
RTVSPost2010PropOp52
 70
     0
102
RTVSPost2010Prop53
 90
        2
102
RTVSPost2010PropOp53
 70
     1
102
RTVSPost2010Prop54
  1
strokes_ogs.tif
102
RTVSPost2010PropOp54
 70
     1
102
RTVSPost2010Prop55
280
     0
102
RTVSPost2010PropOp55
 70
     1
102
RTVSPost2010Prop56
140
1.0
102
RTVSPost2010PropOp56
 70
     1
102
RTVSPost2010Prop57
140
1.0
102
RTVSPost2010PropOp57
 70
     1
102
RTVSPropertyOp0
 70
     1
102
RTVSPropertyOp1
 70
     1
102
RTVSPropertyOp2
 70
     1
102
RTVSPropertyOp3
 70
     1
102
RTVSPropertyOp4
 70
     1
102
RTVSPropertyOp5
 70
     1
102
RTVSPropertyOp6
 70
     1
102
RTVSPropertyOp7
 70
     1
102
RTVSPropertyOp8
 70
     1
102
RTVSPropertyOp9
 70
     1
102
RTVSPropertyOp10
 70
     1
102
RTVSPropertyOp11
 70
     1
102
RTVSPropertyOp12
 70
     1
102
RTVSPropertyOp13
 70
     1
102
RTVSPropertyOp14
 70
     1
102
RTVSPropertyOp15
 70
     1
102
RTVSPropertyOp16
 70
     1
102
RTVSPropertyOp17
 70
     1
102
RTVSPropertyOp18
 70
     1
102
RTVSPropertyOp19
 70
     1
102
RTVSPropertyOp20
 70
     1
102
RTVSPropertyOp21
 70
     1
102
RTVSPropertyOp22
 70
     1
102
RTVSPropertyOp23
 70
     1
102
RTVSPropertyOp24
 70
     1
102
RTVSPropertyOp25
 70
     1
102
RTVSPropertyOp26
 70
     1
102
RTVSPropertyOp27
 70
     1
102
RTVSPropertyOp28
 70
     1
102
RTVSPropertyOp29
 70
     1
102
RTVSPropertyOp30
 70
     1
102
RTVSPropertyOp31
 70
     1
102
RTVSPropertyOp32
 70
     1
102
RTVSPropertyOp33
 70
     1
102
RTVSPropertyOp34
 70
     1
102
RTVSPropertyOp35
 70
     1
102
RTVSPropertyOp36
 70
     1
102
RTVSPropertyOp37
 70
     1
102
RTVSPropertyOp38
 70
     1
102
RTVSPropertyOp39
 70
     1
102
RTVSPropertyOp40
 70
     1
102
RTVSPropertyOp41
 70
     1
102
RTVSPropertyOp42
 70
     1
102
RTVSPropertyOp43
 70
     1
102
RTVSPropertyOp44
 70
     1
102
RTVSPropertyOp45
 70
     1
102
RTVSPropertyOp46
 70
     1
102
RTVSPropertyOp47
 70
     1
102
RTVSPropertyOp48
 70
     1
102
RTVSPropertyOp49
 70
     1
102
RTVSPropertyOp50
 70
     1
102
RTVSPropertyOp51
 70
     0
102
RTVSPropertyOp52
 70
     0
102
RTVSPropertyOp53
 70
     1
102
RTVSPropertyOp54
 70
     1
102
RTVSPropertyOp55
 70
     1
102
RTVSPropertyOp56
 70
     1
102
RTVSPropertyOp57
 70
     1
102
RTVSPropertyOp58
 70
     1
102
RTVSPropertyOp59
 70
     1
102
RTVSPropertyOp60
 70
     1
102
RTVSPropertyOp61
 70
     1
102
RTVSPropertyOp62
 70
     1
  0
XRECORD
  5
13253
102
{ACAD_REACTORS
330
13252
102
}
330
13252
100
AcDbXrecord
280
     1
102
RTVSPost2010Prop28
280
     0
102
RTVSPost2010PropOp28
 70
     1
102
RTVSPost2010Prop29
280
     1
102
RTVSPost2010PropOp29
 70
     1
102
RTVSPost2010Prop30
280
     1
102
RTVSPost2010PropOp30
 70
     1
102
RTVSPost2010Prop31
280
     0
102
RTVSPost2010PropOp31
 70
     1
102
RTVSPost2010Prop32
280
     0
102
RTVSPost2010PropOp32
 70
     1
102
RTVSPost2010Prop33
280
     0
102
RTVSPost2010PropOp33
 70
     1
102
RTVSPost2010Prop34
280
     0
102
RTVSPost2010PropOp34
 70
     1
102
RTVSPost2010Prop35
280
     0
102
RTVSPost2010PropOp35
 70
     1
102
RTVSPost2010Prop36
280
     0
102
RTVSPost2010PropOp36
 70
     1
102
RTVSPost2010Prop37
 90
       50
102
RTVSPost2010PropOp37
 70
     1
102
RTVSPost2010Prop38
140
0.0
102
RTVSPost2010PropOp38
 70
     1
102
RTVSPost2010Prop39
140
1.0
102
RTVSPost2010PropOp39
 70
     1
102
RTVSPost2010Prop40
 90
        0
102
RTVSPost2010PropOp40
 70
     1
102
RTVSPost2010Prop41ColorIndex
 90
       18
102
RTVSPost2010Prop41ColorRGB
 90
        0
102
RTVSPost2010PropOp41
 70
     1
102
RTVSPost2010Prop42
 90
       50
102
RTVSPost2010PropOp42
 70
     1
102
RTVSPost2010Prop43
 90
        3
102
RTVSPost2010PropOp43
 70
     1
102
RTVSPost2010Prop44ColorIndex
 90
        5
102
RTVSPost2010Prop44ColorRGB
 90
      255
102
RTVSPost2010PropOp44
 70
     1
102
RTVSPost2010Prop45
280
     0
102
RTVSPost2010PropOp45
 70
     1
102
RTVSPost2010Prop46
 90
       50
102
RTVSPost2010PropOp46
 70
     1
102
RTVSPost2010Prop47
 90
       50
102
RTVSPost2010PropOp47
 70
     1
102
RTVSPost2010Prop48
 90
       50
102
RTVSPost2010PropOp48
 70
     1
102
RTVSPost2010Prop49
280
     0
102
RTVSPost2010PropOp49
 70
     1
102
RTVSPost2010Prop50
 90
       50
102
RTVSPost2010PropOp50
 70
     1
102
RTVSPost2010Prop51ColorIndex
 90
      256
102
RTVSPost2010Prop51ColorRGB
 90
-16777216
102
RTVSPost2010PropOp51
 70
     0
102
RTVSPost2010Prop52
140
1.0
102
RTVSPost2010PropOp52
 70
     0
102
RTVSPost2010Prop53
 90
        2
102
RTVSPost2010PropOp53
 70
     1
102
RTVSPost2010Prop54
  1
strokes_ogs.tif
102
RTVSPost2010PropOp54
 70
     1
102
RTVSPost2010Prop55
280
     0
102
RTVSPost2010PropOp55
 70
     1
102
RTVSPost2010Prop56
140
1.0
102
RTVSPost2010PropOp56
 70
     1
102
RTVSPost2010Prop57
140
1.0
102
RTVSPost2010PropOp57
 70
     1
102
RTVSPropertyOp0
 70
     1
102
RTVSPropertyOp1
 70
     1
102
RTVSPropertyOp2
 70
     1
102
RTVSPropertyOp3
 70
     1
102
RTVSPropertyOp4
 70
     1
102
RTVSPropertyOp5
 70
     1
102
RTVSPropertyOp6
 70
     1
102
RTVSPropertyOp7
 70
     1
102
RTVSPropertyOp8
 70
     1
102
RTVSPropertyOp9
 70
     1
102
RTVSPropertyOp10
 70
     1
102
RTVSPropertyOp11
 70
     1
102
RTVSPropertyOp12
 70
     1
102
RTVSPropertyOp13
 70
     1
102
RTVSPropertyOp14
 70
     1
102
RTVSPropertyOp15
 70
     1
102
RTVSPropertyOp16
 70
     1
102
RTVSPropertyOp17
 70
     1
102
RTVSPropertyOp18
 70
     1
102
RTVSPropertyOp19
 70
     1
102
RTVSPropertyOp20
 70
     1
102
RTVSPropertyOp21
 70
     1
102
RTVSPropertyOp22
 70
     1
102
RTVSPropertyOp23
 70
     1
102
RTVSPropertyOp24
 70
     1
102
RTVSPropertyOp25
 70
     1
102
RTVSPropertyOp26
 70
     1
102
RTVSPropertyOp27
 70
     1
102
RTVSPropertyOp28
 70
     1
102
RTVSPropertyOp29
 70
     1
102
RTVSPropertyOp30
 70
     1
102
RTVSPropertyOp31
 70
     1
102
RTVSPropertyOp32
 70
     1
102
RTVSPropertyOp33
 70
     1
102
RTVSPropertyOp34
 70
     1
102
RTVSPropertyOp35
 70
     1
102
RTVSPropertyOp36
 70
     1
102
RTVSPropertyOp37
 70
     1
102
RTVSPropertyOp38
 70
     1
102
RTVSPropertyOp39
 70
     1
102
RTVSPropertyOp40
 70
     1
102
RTVSPropertyOp41
 70
     1
102
RTVSPropertyOp42
 70
     1
102
RTVSPropertyOp43
 70
     1
102
RTVSPropertyOp44
 70
     1
102
RTVSPropertyOp45
 70
     1
102
RTVSPropertyOp46
 70
     1
102
RTVSPropertyOp47
 70
     1
102
RTVSPropertyOp48
 70
     1
102
RTVSPropertyOp49
 70
     1
102
RTVSPropertyOp50
 70
     1
102
RTVSPropertyOp51
 70
     0
102
RTVSPropertyOp52
 70
     0
102
RTVSPropertyOp53
 70
     1
102
RTVSPropertyOp54
 70
     1
102
RTVSPropertyOp55
 70
     1
102
RTVSPropertyOp56
 70
     1
102
RTVSPropertyOp57
 70
     1
102
RTVSPropertyOp58
 70
     1
102
RTVSPropertyOp59
 70
     1
102
RTVSPropertyOp60
 70
     1
102
RTVSPropertyOp61
 70
     1
102
RTVSPropertyOp62
 70
     1
  0
XRECORD
  5
13255
102
{ACAD_REACTORS
330
13254
102
}
330
13254
100
AcDbXrecord
280
     1
102
RTVSPost2010Prop28
280
     0
102
RTVSPost2010PropOp28
 70
     1
102
RTVSPost2010Prop29
280
     1
102
RTVSPost2010PropOp29
 70
     1
102
RTVSPost2010Prop30
280
     1
102
RTVSPost2010PropOp30
 70
     1
102
RTVSPost2010Prop31
280
     0
102
RTVSPost2010PropOp31
 70
     1
102
RTVSPost2010Prop32
280
     0
102
RTVSPost2010PropOp32
 70
     1
102
RTVSPost2010Prop33
280
     0
102
RTVSPost2010PropOp33
 70
     1
102
RTVSPost2010Prop34
280
     0
102
RTVSPost2010PropOp34
 70
     1
102
RTVSPost2010Prop35
280
     0
102
RTVSPost2010PropOp35
 70
     1
102
RTVSPost2010Prop36
280
     0
102
RTVSPost2010PropOp36
 70
     1
102
RTVSPost2010Prop37
 90
       50
102
RTVSPost2010PropOp37
 70
     1
102
RTVSPost2010Prop38
140
0.0
102
RTVSPost2010PropOp38
 70
     1
102
RTVSPost2010Prop39
140
1.0
102
RTVSPost2010PropOp39
 70
     1
102
RTVSPost2010Prop40
 90
        0
102
RTVSPost2010PropOp40
 70
     1
102
RTVSPost2010Prop41ColorIndex
 90
       18
102
RTVSPost2010Prop41ColorRGB
 90
        0
102
RTVSPost2010PropOp41
 70
     1
102
RTVSPost2010Prop42
 90
       50
102
RTVSPost2010PropOp42
 70
     1
102
RTVSPost2010Prop43
 90
        3
102
RTVSPost2010PropOp43
 70
     1
102
RTVSPost2010Prop44ColorIndex
 90
        5
102
RTVSPost2010Prop44ColorRGB
 90
      255
102
RTVSPost2010PropOp44
 70
     1
102
RTVSPost2010Prop45
280
     0
102
RTVSPost2010PropOp45
 70
     1
102
RTVSPost2010Prop46
 90
       50
102
RTVSPost2010PropOp46
 70
     1
102
RTVSPost2010Prop47
 90
       50
102
RTVSPost2010PropOp47
 70
     1
102
RTVSPost2010Prop48
 90
       50
102
RTVSPost2010PropOp48
 70
     1
102
RTVSPost2010Prop49
280
     0
102
RTVSPost2010PropOp49
 70
     1
102
RTVSPost2010Prop50
 90
       50
102
RTVSPost2010PropOp50
 70
     1
102
RTVSPost2010Prop51ColorIndex
 90
      256
102
RTVSPost2010Prop51ColorRGB
 90
-16777216
102
RTVSPost2010PropOp51
 70
     0
102
RTVSPost2010Prop52
140
1.0
102
RTVSPost2010PropOp52
 70
     0
102
RTVSPost2010Prop53
 90
        2
102
RTVSPost2010PropOp53
 70
     1
102
RTVSPost2010Prop54
  1
strokes_ogs.tif
102
RTVSPost2010PropOp54
 70
     1
102
RTVSPost2010Prop55
280
     0
102
RTVSPost2010PropOp55
 70
     1
102
RTVSPost2010Prop56
140
1.0
102
RTVSPost2010PropOp56
 70
     1
102
RTVSPost2010Prop57
140
1.0
102
RTVSPost2010PropOp57
 70
     1
102
RTVSPropertyOp0
 70
     1
102
RTVSPropertyOp1
 70
     1
102
RTVSPropertyOp2
 70
     1
102
RTVSPropertyOp3
 70
     1
102
RTVSPropertyOp4
 70
     1
102
RTVSPropertyOp5
 70
     1
102
RTVSPropertyOp6
 70
     1
102
RTVSPropertyOp7
 70
     1
102
RTVSPropertyOp8
 70
     1
102
RTVSPropertyOp9
 70
     1
102
RTVSPropertyOp10
 70
     1
102
RTVSPropertyOp11
 70
     1
102
RTVSPropertyOp12
 70
     1
102
RTVSPropertyOp13
 70
     1
102
RTVSPropertyOp14
 70
     1
102
RTVSPropertyOp15
 70
     1
102
RTVSPropertyOp16
 70
     1
102
RTVSPropertyOp17
 70
     1
102
RTVSPropertyOp18
 70
     1
102
RTVSPropertyOp19
 70
     1
102
RTVSPropertyOp20
 70
     1
102
RTVSPropertyOp21
 70
     1
102
RTVSPropertyOp22
 70
     1
102
RTVSPropertyOp23
 70
     1
102
RTVSPropertyOp24
 70
     1
102
RTVSPropertyOp25
 70
     1
102
RTVSPropertyOp26
 70
     1
102
RTVSPropertyOp27
 70
     1
102
RTVSPropertyOp28
 70
     1
102
RTVSPropertyOp29
 70
     1
102
RTVSPropertyOp30
 70
     1
102
RTVSPropertyOp31
 70
     1
102
RTVSPropertyOp32
 70
     1
102
RTVSPropertyOp33
 70
     1
102
RTVSPropertyOp34
 70
     1
102
RTVSPropertyOp35
 70
     1
102
RTVSPropertyOp36
 70
     1
102
RTVSPropertyOp37
 70
     1
102
RTVSPropertyOp38
 70
     1
102
RTVSPropertyOp39
 70
     1
102
RTVSPropertyOp40
 70
     1
102
RTVSPropertyOp41
 70
     1
102
RTVSPropertyOp42
 70
     1
102
RTVSPropertyOp43
 70
     1
102
RTVSPropertyOp44
 70
     1
102
RTVSPropertyOp45
 70
     1
102
RTVSPropertyOp46
 70
     1
102
RTVSPropertyOp47
 70
     1
102
RTVSPropertyOp48
 70
     1
102
RTVSPropertyOp49
 70
     1
102
RTVSPropertyOp50
 70
     1
102
RTVSPropertyOp51
 70
     0
102
RTVSPropertyOp52
 70
     0
102
RTVSPropertyOp53
 70
     1
102
RTVSPropertyOp54
 70
     1
102
RTVSPropertyOp55
 70
     1
102
RTVSPropertyOp56
 70
     1
102
RTVSPropertyOp57
 70
     1
102
RTVSPropertyOp58
 70
     1
102
RTVSPropertyOp59
 70
     1
102
RTVSPropertyOp60
 70
     1
102
RTVSPropertyOp61
 70
     1
102
RTVSPropertyOp62
 70
     1
  0
XRECORD
  5
1325D
102
{ACAD_REACTORS
330
1325C
102
}
330
1325C
100
AcDbXrecord
280
     1
102
RTVSPost2010Prop28
280
     0
102
RTVSPost2010PropOp28
 70
     1
102
RTVSPost2010Prop29
280
     1
102
RTVSPost2010PropOp29
 70
     1
102
RTVSPost2010Prop30
280
     1
102
RTVSPost2010PropOp30
 70
     1
102
RTVSPost2010Prop31
280
     0
102
RTVSPost2010PropOp31
 70
     1
102
RTVSPost2010Prop32
280
     0
102
RTVSPost2010PropOp32
 70
     1
102
RTVSPost2010Prop33
280
     0
102
RTVSPost2010PropOp33
 70
     1
102
RTVSPost2010Prop34
280
     0
102
RTVSPost2010PropOp34
 70
     1
102
RTVSPost2010Prop35
280
     0
102
RTVSPost2010PropOp35
 70
     1
102
RTVSPost2010Prop36
280
     0
102
RTVSPost2010PropOp36
 70
     1
102
RTVSPost2010Prop37
 90
       50
102
RTVSPost2010PropOp37
 70
     1
102
RTVSPost2010Prop38
140
0.0
102
RTVSPost2010PropOp38
 70
     1
102
RTVSPost2010Prop39
140
1.0
102
RTVSPost2010PropOp39
 70
     1
102
RTVSPost2010Prop40
 90
        0
102
RTVSPost2010PropOp40
 70
     1
102
RTVSPost2010Prop41ColorIndex
 90
       18
102
RTVSPost2010Prop41ColorRGB
 90
        0
102
RTVSPost2010PropOp41
 70
     1
102
RTVSPost2010Prop42
 90
       50
102
RTVSPost2010PropOp42
 70
     1
102
RTVSPost2010Prop43
 90
        3
102
RTVSPost2010PropOp43
 70
     1
102
RTVSPost2010Prop44ColorIndex
 90
        5
102
RTVSPost2010Prop44ColorRGB
 90
      255
102
RTVSPost2010PropOp44
 70
     1
102
RTVSPost2010Prop45
280
     0
102
RTVSPost2010PropOp45
 70
     1
102
RTVSPost2010Prop46
 90
       50
102
RTVSPost2010PropOp46
 70
     1
102
RTVSPost2010Prop47
 90
       50
102
RTVSPost2010PropOp47
 70
     1
102
RTVSPost2010Prop48
 90
       50
102
RTVSPost2010PropOp48
 70
     1
102
RTVSPost2010Prop49
280
     0
102
RTVSPost2010PropOp49
 70
     1
102
RTVSPost2010Prop50
 90
       50
102
RTVSPost2010PropOp50
 70
     1
102
RTVSPost2010Prop51ColorIndex
 90
      256
102
RTVSPost2010Prop51ColorRGB
 90
-16777216
102
RTVSPost2010PropOp51
 70
     0
102
RTVSPost2010Prop52
140
1.0
102
RTVSPost2010PropOp52
 70
     0
102
RTVSPost2010Prop53
 90
        2
102
RTVSPost2010PropOp53
 70
     1
102
RTVSPost2010Prop54
  1
strokes_ogs.tif
102
RTVSPost2010PropOp54
 70
     1
102
RTVSPost2010Prop55
280
     0
102
RTVSPost2010PropOp55
 70
     1
102
RTVSPost2010Prop56
140
1.0
102
RTVSPost2010PropOp56
 70
     1
102
RTVSPost2010Prop57
140
1.0
102
RTVSPost2010PropOp57
 70
     1
102
RTVSPropertyOp0
 70
     1
102
RTVSPropertyOp1
 70
     1
102
RTVSPropertyOp2
 70
     1
102
RTVSPropertyOp3
 70
     1
102
RTVSPropertyOp4
 70
     1
102
RTVSPropertyOp5
 70
     1
102
RTVSPropertyOp6
 70
     1
102
RTVSPropertyOp7
 70
     1
102
RTVSPropertyOp8
 70
     1
102
RTVSPropertyOp9
 70
     1
102
RTVSPropertyOp10
 70
     1
102
RTVSPropertyOp11
 70
     1
102
RTVSPropertyOp12
 70
     1
102
RTVSPropertyOp13
 70
     1
102
RTVSPropertyOp14
 70
     1
102
RTVSPropertyOp15
 70
     1
102
RTVSPropertyOp16
 70
     1
102
RTVSPropertyOp17
 70
     1
102
RTVSPropertyOp18
 70
     1
102
RTVSPropertyOp19
 70
     1
102
RTVSPropertyOp20
 70
     1
102
RTVSPropertyOp21
 70
     1
102
RTVSPropertyOp22
 70
     1
102
RTVSPropertyOp23
 70
     1
102
RTVSPropertyOp24
 70
     1
102
RTVSPropertyOp25
 70
     1
102
RTVSPropertyOp26
 70
     1
102
RTVSPropertyOp27
 70
     1
102
RTVSPropertyOp28
 70
     1
102
RTVSPropertyOp29
 70
     1
102
RTVSPropertyOp30
 70
     1
102
RTVSPropertyOp31
 70
     1
102
RTVSPropertyOp32
 70
     1
102
RTVSPropertyOp33
 70
     1
102
RTVSPropertyOp34
 70
     1
102
RTVSPropertyOp35
 70
     1
102
RTVSPropertyOp36
 70
     1
102
RTVSPropertyOp37
 70
     1
102
RTVSPropertyOp38
 70
     1
102
RTVSPropertyOp39
 70
     1
102
RTVSPropertyOp40
 70
     1
102
RTVSPropertyOp41
 70
     1
102
RTVSPropertyOp42
 70
     1
102
RTVSPropertyOp43
 70
     1
102
RTVSPropertyOp44
 70
     1
102
RTVSPropertyOp45
 70
     1
102
RTVSPropertyOp46
 70
     1
102
RTVSPropertyOp47
 70
     1
102
RTVSPropertyOp48
 70
     1
102
RTVSPropertyOp49
 70
     1
102
RTVSPropertyOp50
 70
     1
102
RTVSPropertyOp51
 70
     0
102
RTVSPropertyOp52
 70
     0
102
RTVSPropertyOp53
 70
     1
102
RTVSPropertyOp54
 70
     1
102
RTVSPropertyOp55
 70
     1
102
RTVSPropertyOp56
 70
     1
102
RTVSPropertyOp57
 70
     1
102
RTVSPropertyOp58
 70
     1
102
RTVSPropertyOp59
 70
     1
102
RTVSPropertyOp60
 70
     1
102
RTVSPropertyOp61
 70
     1
102
RTVSPropertyOp62
 70
     1
  0
XRECORD
  5
13279
102
{ACAD_REACTORS
330
13278
102
}
330
13278
100
AcDbXrecord
280
     1
102
RTVSPost2010Prop28
280
     0
102
RTVSPost2010PropOp28
 70
     1
102
RTVSPost2010Prop29
280
     1
102
RTVSPost2010PropOp29
 70
     1
102
RTVSPost2010Prop30
280
     1
102
RTVSPost2010PropOp30
 70
     1
102
RTVSPost2010Prop31
280
     0
102
RTVSPost2010PropOp31
 70
     1
102
RTVSPost2010Prop32
280
     0
102
RTVSPost2010PropOp32
 70
     1
102
RTVSPost2010Prop33
280
     0
102
RTVSPost2010PropOp33
 70
     1
102
RTVSPost2010Prop34
280
     0
102
RTVSPost2010PropOp34
 70
     1
102
RTVSPost2010Prop35
280
     0
102
RTVSPost2010PropOp35
 70
     1
102
RTVSPost2010Prop36
280
     0
102
RTVSPost2010PropOp36
 70
     1
102
RTVSPost2010Prop37
 90
       50
102
RTVSPost2010PropOp37
 70
     0
102
RTVSPost2010Prop38
140
0.0
102
RTVSPost2010PropOp38
 70
     0
102
RTVSPost2010Prop39
140
1.0
102
RTVSPost2010PropOp39
 70
     0
102
RTVSPost2010Prop40
 90
        0
102
RTVSPost2010PropOp40
 70
     0
102
RTVSPost2010Prop41ColorIndex
 90
       18
102
RTVSPost2010Prop41ColorRGB
 90
        0
102
RTVSPost2010PropOp41
 70
     0
102
RTVSPost2010Prop42
 90
       50
102
RTVSPost2010PropOp42
 70
     0
102
RTVSPost2010Prop43
 90
        3
102
RTVSPost2010PropOp43
 70
     0
102
RTVSPost2010Prop44ColorIndex
 90
        5
102
RTVSPost2010Prop44ColorRGB
 90
      255
102
RTVSPost2010PropOp44
 70
     0
102
RTVSPost2010Prop45
280
     0
102
RTVSPost2010PropOp45
 70
     1
102
RTVSPost2010Prop46
 90
       50
102
RTVSPost2010PropOp46
 70
     0
102
RTVSPost2010Prop47
 90
       50
102
RTVSPost2010PropOp47
 70
     0
102
RTVSPost2010Prop48
 90
       50
102
RTVSPost2010PropOp48
 70
     0
102
RTVSPost2010Prop49
280
     0
102
RTVSPost2010PropOp49
 70
     1
102
RTVSPost2010Prop50
 90
       50
102
RTVSPost2010PropOp50
 70
     0
102
RTVSPost2010Prop51ColorIndex
 90
      256
102
RTVSPost2010Prop51ColorRGB
 90
-16777216
102
RTVSPost2010PropOp51
 70
     0
102
RTVSPost2010Prop52
140
1.0
102
RTVSPost2010PropOp52
 70
     0
102
RTVSPost2010Prop53
 90
        2
102
RTVSPost2010PropOp53
 70
     0
102
RTVSPost2010Prop54
  1
strokes_ogs.tif
102
RTVSPost2010PropOp54
 70
     0
102
RTVSPost2010Prop55
280
     0
102
RTVSPost2010PropOp55
 70
     1
102
RTVSPost2010Prop56
140
1.0
102
RTVSPost2010PropOp56
 70
     0
102
RTVSPost2010Prop57
140
1.0
102
RTVSPost2010PropOp57
 70
     0
102
RTVSPropertyOp0
 70
     0
102
RTVSPropertyOp1
 70
     0
102
RTVSPropertyOp2
 70
     0
102
RTVSPropertyOp3
 70
     0
102
RTVSPropertyOp4
 70
     0
102
RTVSPropertyOp5
 70
     0
102
RTVSPropertyOp6
 70
     0
102
RTVSPropertyOp7
 70
     0
102
RTVSPropertyOp8
 70
     0
102
RTVSPropertyOp9
 70
     0
102
RTVSPropertyOp10
 70
     0
102
RTVSPropertyOp11
 70
     0
102
RTVSPropertyOp12
 70
     0
102
RTVSPropertyOp13
 70
     0
102
RTVSPropertyOp14
 70
     2
102
RTVSPropertyOp15
 70
     0
102
RTVSPropertyOp16
 70
     0
102
RTVSPropertyOp17
 70
     0
102
RTVSPropertyOp18
 70
     0
102
RTVSPropertyOp19
 70
     0
102
RTVSPropertyOp20
 70
     0
102
RTVSPropertyOp21
 70
     0
102
RTVSPropertyOp22
 70
     0
102
RTVSPropertyOp23
 70
     0
102
RTVSPropertyOp24
 70
     0
102
RTVSPropertyOp25
 70
     0
102
RTVSPropertyOp26
 70
     0
102
RTVSPropertyOp27
 70
     0
102
RTVSPropertyOp28
 70
     1
102
RTVSPropertyOp29
 70
     1
102
RTVSPropertyOp30
 70
     1
102
RTVSPropertyOp31
 70
     1
102
RTVSPropertyOp32
 70
     1
102
RTVSPropertyOp33
 70
     1
102
RTVSPropertyOp34
 70
     1
102
RTVSPropertyOp35
 70
     1
102
RTVSPropertyOp36
 70
     1
102
RTVSPropertyOp37
 70
     0
102
RTVSPropertyOp38
 70
     0
102
RTVSPropertyOp39
 70
     0
102
RTVSPropertyOp40
 70
     0
102
RTVSPropertyOp41
 70
     0
102
RTVSPropertyOp42
 70
     0
102
RTVSPropertyOp43
 70
     0
102
RTVSPropertyOp44
 70
     0
102
RTVSPropertyOp45
 70
     1
102
RTVSPropertyOp46
 70
     0
102
RTVSPropertyOp47
 70
     0
102
RTVSPropertyOp48
 70
     0
102
RTVSPropertyOp49
 70
     1
102
RTVSPropertyOp50
 70
     0
102
RTVSPropertyOp51
 70
     0
102
RTVSPropertyOp52
 70
     0
102
RTVSPropertyOp53
 70
     0
102
RTVSPropertyOp54
 70
     0
102
RTVSPropertyOp55
 70
     1
102
RTVSPropertyOp56
 70
     0
102
RTVSPropertyOp57
 70
     0
102
RTVSPropertyOp58
 70
     0
102
RTVSPropertyOp59
 70
     0
102
RTVSPropertyOp60
 70
     0
102
RTVSPropertyOp61
 70
     0
102
RTVSPropertyOp62
 70
     0
  0
XRECORD
  5
13269
102
{ACAD_REACTORS
330
13268
102
}
330
13268
100
AcDbXrecord
280
     1
102
RTVSPost2010Prop28
280
     0
102
RTVSPost2010PropOp28
 70
     1
102
RTVSPost2010Prop29
280
     1
102
RTVSPost2010PropOp29
 70
     1
102
RTVSPost2010Prop30
280
     1
102
RTVSPost2010PropOp30
 70
     1
102
RTVSPost2010Prop31
280
     0
102
RTVSPost2010PropOp31
 70
     1
102
RTVSPost2010Prop32
280
     0
102
RTVSPost2010PropOp32
 70
     1
102
RTVSPost2010Prop33
280
     0
102
RTVSPost2010PropOp33
 70
     1
102
RTVSPost2010Prop34
280
     0
102
RTVSPost2010PropOp34
 70
     1
102
RTVSPost2010Prop35
280
     0
102
RTVSPost2010PropOp35
 70
     1
102
RTVSPost2010Prop36
280
     0
102
RTVSPost2010PropOp36
 70
     1
102
RTVSPost2010Prop37
 90
       50
102
RTVSPost2010PropOp37
 70
     1
102
RTVSPost2010Prop38
140
0.0
102
RTVSPost2010PropOp38
 70
     1
102
RTVSPost2010Prop39
140
1.0
102
RTVSPost2010PropOp39
 70
     1
102
RTVSPost2010Prop40
 90
        0
102
RTVSPost2010PropOp40
 70
     1
102
RTVSPost2010Prop41ColorIndex
 90
       18
102
RTVSPost2010Prop41ColorRGB
 90
        0
102
RTVSPost2010PropOp41
 70
     1
102
RTVSPost2010Prop42
 90
       50
102
RTVSPost2010PropOp42
 70
     1
102
RTVSPost2010Prop43
 90
        3
102
RTVSPost2010PropOp43
 70
     1
102
RTVSPost2010Prop44ColorIndex
 90
        5
102
RTVSPost2010Prop44ColorRGB
 90
      255
102
RTVSPost2010PropOp44
 70
     1
102
RTVSPost2010Prop45
280
     0
102
RTVSPost2010PropOp45
 70
     1
102
RTVSPost2010Prop46
 90
       50
102
RTVSPost2010PropOp46
 70
     1
102
RTVSPost2010Prop47
 90
       50
102
RTVSPost2010PropOp47
 70
     1
102
RTVSPost2010Prop48
 90
       50
102
RTVSPost2010PropOp48
 70
     1
102
RTVSPost2010Prop49
280
     0
102
RTVSPost2010PropOp49
 70
     1
102
RTVSPost2010Prop50
 90
       50
102
RTVSPost2010PropOp50
 70
     1
102
RTVSPost2010Prop51ColorIndex
 90
      256
102
RTVSPost2010Prop51ColorRGB
 90
-16777216
102
RTVSPost2010PropOp51
 70
     0
102
RTVSPost2010Prop52
140
1.0
102
RTVSPost2010PropOp52
 70
     0
102
RTVSPost2010Prop53
 90
        2
102
RTVSPost2010PropOp53
 70
     1
102
RTVSPost2010Prop54
  1
strokes_ogs.tif
102
RTVSPost2010PropOp54
 70
     1
102
RTVSPost2010Prop55
280
     0
102
RTVSPost2010PropOp55
 70
     1
102
RTVSPost2010Prop56
140
1.0
102
RTVSPost2010PropOp56
 70
     1
102
RTVSPost2010Prop57
140
1.0
102
RTVSPost2010PropOp57
 70
     1
102
RTVSPropertyOp0
 70
     1
102
RTVSPropertyOp1
 70
     1
102
RTVSPropertyOp2
 70
     1
102
RTVSPropertyOp3
 70
     1
102
RTVSPropertyOp4
 70
     1
102
RTVSPropertyOp5
 70
     1
102
RTVSPropertyOp6
 70
     1
102
RTVSPropertyOp7
 70
     1
102
RTVSPropertyOp8
 70
     1
102
RTVSPropertyOp9
 70
     1
102
RTVSPropertyOp10
 70
     1
102
RTVSPropertyOp11
 70
     1
102
RTVSPropertyOp12
 70
     1
102
RTVSPropertyOp13
 70
     1
102
RTVSPropertyOp14
 70
     1
102
RTVSPropertyOp15
 70
     1
102
RTVSPropertyOp16
 70
     1
102
RTVSPropertyOp17
 70
     1
102
RTVSPropertyOp18
 70
     1
102
RTVSPropertyOp19
 70
     1
102
RTVSPropertyOp20
 70
     1
102
RTVSPropertyOp21
 70
     1
102
RTVSPropertyOp22
 70
     1
102
RTVSPropertyOp23
 70
     1
102
RTVSPropertyOp24
 70
     1
102
RTVSPropertyOp25
 70
     1
102
RTVSPropertyOp26
 70
     1
102
RTVSPropertyOp27
 70
     1
102
RTVSPropertyOp28
 70
     1
102
RTVSPropertyOp29
 70
     1
102
RTVSPropertyOp30
 70
     1
102
RTVSPropertyOp31
 70
     1
102
RTVSPropertyOp32
 70
     1
102
RTVSPropertyOp33
 70
     1
102
RTVSPropertyOp34
 70
     1
102
RTVSPropertyOp35
 70
     1
102
RTVSPropertyOp36
 70
     1
102
RTVSPropertyOp37
 70
     1
102
RTVSPropertyOp38
 70
     1
102
RTVSPropertyOp39
 70
     1
102
RTVSPropertyOp40
 70
     1
102
RTVSPropertyOp41
 70
     1
102
RTVSPropertyOp42
 70
     1
102
RTVSPropertyOp43
 70
     1
102
RTVSPropertyOp44
 70
     1
102
RTVSPropertyOp45
 70
     1
102
RTVSPropertyOp46
 70
     1
102
RTVSPropertyOp47
 70
     1
102
RTVSPropertyOp48
 70
     1
102
RTVSPropertyOp49
 70
     1
102
RTVSPropertyOp50
 70
     1
102
RTVSPropertyOp51
 70
     0
102
RTVSPropertyOp52
 70
     0
102
RTVSPropertyOp53
 70
     1
102
RTVSPropertyOp54
 70
     1
102
RTVSPropertyOp55
 70
     1
102
RTVSPropertyOp56
 70
     1
102
RTVSPropertyOp57
 70
     1
102
RTVSPropertyOp58
 70
     1
102
RTVSPropertyOp59
 70
     1
102
RTVSPropertyOp60
 70
     1
102
RTVSPropertyOp61
 70
     1
102
RTVSPropertyOp62
 70
     1
  0
XRECORD
  5
1327B
102
{ACAD_REACTORS
330
1327A
102
}
330
1327A
100
AcDbXrecord
280
     1
102
RTVSPost2010Prop28
280
     0
102
RTVSPost2010PropOp28
 70
     1
102
RTVSPost2010Prop29
280
     1
102
RTVSPost2010PropOp29
 70
     1
102
RTVSPost2010Prop30
280
     1
102
RTVSPost2010PropOp30
 70
     1
102
RTVSPost2010Prop31
280
     0
102
RTVSPost2010PropOp31
 70
     1
102
RTVSPost2010Prop32
280
     0
102
RTVSPost2010PropOp32
 70
     1
102
RTVSPost2010Prop33
280
     0
102
RTVSPost2010PropOp33
 70
     1
102
RTVSPost2010Prop34
280
     0
102
RTVSPost2010PropOp34
 70
     1
102
RTVSPost2010Prop35
280
     0
102
RTVSPost2010PropOp35
 70
     1
102
RTVSPost2010Prop36
280
     0
102
RTVSPost2010PropOp36
 70
     1
102
RTVSPost2010Prop37
 90
       50
102
RTVSPost2010PropOp37
 70
     0
102
RTVSPost2010Prop38
140
0.0
102
RTVSPost2010PropOp38
 70
     0
102
RTVSPost2010Prop39
140
1.0
102
RTVSPost2010PropOp39
 70
     0
102
RTVSPost2010Prop40
 90
        0
102
RTVSPost2010PropOp40
 70
     0
102
RTVSPost2010Prop41ColorIndex
 90
       18
102
RTVSPost2010Prop41ColorRGB
 90
        0
102
RTVSPost2010PropOp41
 70
     0
102
RTVSPost2010Prop42
 90
       50
102
RTVSPost2010PropOp42
 70
     0
102
RTVSPost2010Prop43
 90
        3
102
RTVSPost2010PropOp43
 70
     0
102
RTVSPost2010Prop44ColorIndex
 90
        5
102
RTVSPost2010Prop44ColorRGB
 90
      255
102
RTVSPost2010PropOp44
 70
     0
102
RTVSPost2010Prop45
280
     0
102
RTVSPost2010PropOp45
 70
     1
102
RTVSPost2010Prop46
 90
       50
102
RTVSPost2010PropOp46
 70
     0
102
RTVSPost2010Prop47
 90
       50
102
RTVSPost2010PropOp47
 70
     0
102
RTVSPost2010Prop48
 90
       50
102
RTVSPost2010PropOp48
 70
     0
102
RTVSPost2010Prop49
280
     0
102
RTVSPost2010PropOp49
 70
     1
102
RTVSPost2010Prop50
 90
       50
102
RTVSPost2010PropOp50
 70
     0
102
RTVSPost2010Prop51ColorIndex
 90
      256
102
RTVSPost2010Prop51ColorRGB
 90
-16777216
102
RTVSPost2010PropOp51
 70
     0
102
RTVSPost2010Prop52
140
1.0
102
RTVSPost2010PropOp52
 70
     0
102
RTVSPost2010Prop53
 90
        2
102
RTVSPost2010PropOp53
 70
     0
102
RTVSPost2010Prop54
  1
strokes_ogs.tif
102
RTVSPost2010PropOp54
 70
     0
102
RTVSPost2010Prop55
280
     0
102
RTVSPost2010PropOp55
 70
     1
102
RTVSPost2010Prop56
140
1.0
102
RTVSPost2010PropOp56
 70
     0
102
RTVSPost2010Prop57
140
1.0
102
RTVSPost2010PropOp57
 70
     0
102
RTVSPropertyOp0
 70
     0
102
RTVSPropertyOp1
 70
     0
102
RTVSPropertyOp2
 70
     0
102
RTVSPropertyOp3
 70
     0
102
RTVSPropertyOp4
 70
     0
102
RTVSPropertyOp5
 70
     0
102
RTVSPropertyOp6
 70
     0
102
RTVSPropertyOp7
 70
     0
102
RTVSPropertyOp8
 70
     0
102
RTVSPropertyOp9
 70
     0
102
RTVSPropertyOp10
 70
     0
102
RTVSPropertyOp11
 70
     0
102
RTVSPropertyOp12
 70
     0
102
RTVSPropertyOp13
 70
     0
102
RTVSPropertyOp14
 70
     2
102
RTVSPropertyOp15
 70
     0
102
RTVSPropertyOp16
 70
     0
102
RTVSPropertyOp17
 70
     0
102
RTVSPropertyOp18
 70
     0
102
RTVSPropertyOp19
 70
     0
102
RTVSPropertyOp20
 70
     0
102
RTVSPropertyOp21
 70
     0
102
RTVSPropertyOp22
 70
     0
102
RTVSPropertyOp23
 70
     0
102
RTVSPropertyOp24
 70
     0
102
RTVSPropertyOp25
 70
     0
102
RTVSPropertyOp26
 70
     0
102
RTVSPropertyOp27
 70
     0
102
RTVSPropertyOp28
 70
     1
102
RTVSPropertyOp29
 70
     1
102
RTVSPropertyOp30
 70
     1
102
RTVSPropertyOp31
 70
     1
102
RTVSPropertyOp32
 70
     1
102
RTVSPropertyOp33
 70
     1
102
RTVSPropertyOp34
 70
     1
102
RTVSPropertyOp35
 70
     1
102
RTVSPropertyOp36
 70
     1
102
RTVSPropertyOp37
 70
     0
102
RTVSPropertyOp38
 70
     0
102
RTVSPropertyOp39
 70
     0
102
RTVSPropertyOp40
 70
     0
102
RTVSPropertyOp41
 70
     0
102
RTVSPropertyOp42
 70
     0
102
RTVSPropertyOp43
 70
     0
102
RTVSPropertyOp44
 70
     0
102
RTVSPropertyOp45
 70
     1
102
RTVSPropertyOp46
 70
     0
102
RTVSPropertyOp47
 70
     0
102
RTVSPropertyOp48
 70
     0
102
RTVSPropertyOp49
 70
     1
102
RTVSPropertyOp50
 70
     0
102
RTVSPropertyOp51
 70
     0
102
RTVSPropertyOp52
 70
     0
102
RTVSPropertyOp53
 70
     0
102
RTVSPropertyOp54
 70
     0
102
RTVSPropertyOp55
 70
     1
102
RTVSPropertyOp56
 70
     0
102
RTVSPropertyOp57
 70
     0
102
RTVSPropertyOp58
 70
     0
102
RTVSPropertyOp59
 70
     0
102
RTVSPropertyOp60
 70
     0
102
RTVSPropertyOp61
 70
     0
102
RTVSPropertyOp62
 70
     0
  0
XRECORD
  5
13261
102
{ACAD_REACTORS
330
13260
102
}
330
13260
100
AcDbXrecord
280
     1
102
RTVSPost2010Prop28
280
     0
102
RTVSPost2010PropOp28
 70
     1
102
RTVSPost2010Prop29
280
     1
102
RTVSPost2010PropOp29
 70
     1
102
RTVSPost2010Prop30
280
     1
102
RTVSPost2010PropOp30
 70
     1
102
RTVSPost2010Prop31
280
     0
102
RTVSPost2010PropOp31
 70
     1
102
RTVSPost2010Prop32
280
     0
102
RTVSPost2010PropOp32
 70
     1
102
RTVSPost2010Prop33
280
     0
102
RTVSPost2010PropOp33
 70
     1
102
RTVSPost2010Prop34
280
     0
102
RTVSPost2010PropOp34
 70
     1
102
RTVSPost2010Prop35
280
     0
102
RTVSPost2010PropOp35
 70
     1
102
RTVSPost2010Prop36
280
     0
102
RTVSPost2010PropOp36
 70
     1
102
RTVSPost2010Prop37
 90
       50
102
RTVSPost2010PropOp37
 70
     1
102
RTVSPost2010Prop38
140
0.0
102
RTVSPost2010PropOp38
 70
     1
102
RTVSPost2010Prop39
140
1.0
102
RTVSPost2010PropOp39
 70
     1
102
RTVSPost2010Prop40
 90
        0
102
RTVSPost2010PropOp40
 70
     1
102
RTVSPost2010Prop41ColorIndex
 90
       18
102
RTVSPost2010Prop41ColorRGB
 90
        0
102
RTVSPost2010PropOp41
 70
     1
102
RTVSPost2010Prop42
 90
       50
102
RTVSPost2010PropOp42
 70
     1
102
RTVSPost2010Prop43
 90
        3
102
RTVSPost2010PropOp43
 70
     1
102
RTVSPost2010Prop44ColorIndex
 90
        5
102
RTVSPost2010Prop44ColorRGB
 90
      255
102
RTVSPost2010PropOp44
 70
     1
102
RTVSPost2010Prop45
280
     0
102
RTVSPost2010PropOp45
 70
     1
102
RTVSPost2010Prop46
 90
       50
102
RTVSPost2010PropOp46
 70
     1
102
RTVSPost2010Prop47
 90
       50
102
RTVSPost2010PropOp47
 70
     1
102
RTVSPost2010Prop48
 90
       50
102
RTVSPost2010PropOp48
 70
     1
102
RTVSPost2010Prop49
280
     0
102
RTVSPost2010PropOp49
 70
     1
102
RTVSPost2010Prop50
 90
       50
102
RTVSPost2010PropOp50
 70
     1
102
RTVSPost2010Prop51ColorIndex
 90
      256
102
RTVSPost2010Prop51ColorRGB
 90
-16777216
102
RTVSPost2010PropOp51
 70
     0
102
RTVSPost2010Prop52
140
1.0
102
RTVSPost2010PropOp52
 70
     0
102
RTVSPost2010Prop53
 90
        2
102
RTVSPost2010PropOp53
 70
     1
102
RTVSPost2010Prop54
  1
strokes_ogs.tif
102
RTVSPost2010PropOp54
 70
     1
102
RTVSPost2010Prop55
280
     0
102
RTVSPost2010PropOp55
 70
     1
102
RTVSPost2010Prop56
140
1.0
102
RTVSPost2010PropOp56
 70
     1
102
RTVSPost2010Prop57
140
1.0
102
RTVSPost2010PropOp57
 70
     1
102
RTVSPropertyOp0
 70
     1
102
RTVSPropertyOp1
 70
     1
102
RTVSPropertyOp2
 70
     1
102
RTVSPropertyOp3
 70
     1
102
RTVSPropertyOp4
 70
     1
102
RTVSPropertyOp5
 70
     1
102
RTVSPropertyOp6
 70
     1
102
RTVSPropertyOp7
 70
     1
102
RTVSPropertyOp8
 70
     1
102
RTVSPropertyOp9
 70
     1
102
RTVSPropertyOp10
 70
     1
102
RTVSPropertyOp11
 70
     1
102
RTVSPropertyOp12
 70
     1
102
RTVSPropertyOp13
 70
     1
102
RTVSPropertyOp14
 70
     1
102
RTVSPropertyOp15
 70
     1
102
RTVSPropertyOp16
 70
     1
102
RTVSPropertyOp17
 70
     1
102
RTVSPropertyOp18
 70
     1
102
RTVSPropertyOp19
 70
     1
102
RTVSPropertyOp20
 70
     1
102
RTVSPropertyOp21
 70
     1
102
RTVSPropertyOp22
 70
     1
102
RTVSPropertyOp23
 70
     1
102
RTVSPropertyOp24
 70
     1
102
RTVSPropertyOp25
 70
     1
102
RTVSPropertyOp26
 70
     1
102
RTVSPropertyOp27
 70
     1
102
RTVSPropertyOp28
 70
     1
102
RTVSPropertyOp29
 70
     1
102
RTVSPropertyOp30
 70
     1
102
RTVSPropertyOp31
 70
     1
102
RTVSPropertyOp32
 70
     1
102
RTVSPropertyOp33
 70
     1
102
RTVSPropertyOp34
 70
     1
102
RTVSPropertyOp35
 70
     1
102
RTVSPropertyOp36
 70
     1
102
RTVSPropertyOp37
 70
     1
102
RTVSPropertyOp38
 70
     1
102
RTVSPropertyOp39
 70
     1
102
RTVSPropertyOp40
 70
     1
102
RTVSPropertyOp41
 70
     1
102
RTVSPropertyOp42
 70
     1
102
RTVSPropertyOp43
 70
     1
102
RTVSPropertyOp44
 70
     1
102
RTVSPropertyOp45
 70
     1
102
RTVSPropertyOp46
 70
     1
102
RTVSPropertyOp47
 70
     1
102
RTVSPropertyOp48
 70
     1
102
RTVSPropertyOp49
 70
     1
102
RTVSPropertyOp50
 70
     1
102
RTVSPropertyOp51
 70
     0
102
RTVSPropertyOp52
 70
     0
102
RTVSPropertyOp53
 70
     1
102
RTVSPropertyOp54
 70
     1
102
RTVSPropertyOp55
 70
     1
102
RTVSPropertyOp56
 70
     1
102
RTVSPropertyOp57
 70
     1
102
RTVSPropertyOp58
 70
     1
102
RTVSPropertyOp59
 70
     1
102
RTVSPropertyOp60
 70
     1
102
RTVSPropertyOp61
 70
     1
102
RTVSPropertyOp62
 70
     1
  0
XRECORD
  5
13277
102
{ACAD_REACTORS
330
13276
102
}
330
13276
100
AcDbXrecord
280
     1
102
RTVSPost2010Prop28
280
     0
102
RTVSPost2010PropOp28
 70
     1
102
RTVSPost2010Prop29
280
     1
102
RTVSPost2010PropOp29
 70
     1
102
RTVSPost2010Prop30
280
     1
102
RTVSPost2010PropOp30
 70
     1
102
RTVSPost2010Prop31
280
     0
102
RTVSPost2010PropOp31
 70
     1
102
RTVSPost2010Prop32
280
     0
102
RTVSPost2010PropOp32
 70
     1
102
RTVSPost2010Prop33
280
     0
102
RTVSPost2010PropOp33
 70
     1
102
RTVSPost2010Prop34
280
     0
102
RTVSPost2010PropOp34
 70
     1
102
RTVSPost2010Prop35
280
     0
102
RTVSPost2010PropOp35
 70
     1
102
RTVSPost2010Prop36
280
     0
102
RTVSPost2010PropOp36
 70
     1
102
RTVSPost2010Prop37
 90
       50
102
RTVSPost2010PropOp37
 70
     1
102
RTVSPost2010Prop38
140
0.0
102
RTVSPost2010PropOp38
 70
     1
102
RTVSPost2010Prop39
140
1.0
102
RTVSPost2010PropOp39
 70
     1
102
RTVSPost2010Prop40
 90
        0
102
RTVSPost2010PropOp40
 70
     1
102
RTVSPost2010Prop41ColorIndex
 90
       18
102
RTVSPost2010Prop41ColorRGB
 90
        0
102
RTVSPost2010PropOp41
 70
     1
102
RTVSPost2010Prop42
 90
       50
102
RTVSPost2010PropOp42
 70
     1
102
RTVSPost2010Prop43
 90
        3
102
RTVSPost2010PropOp43
 70
     1
102
RTVSPost2010Prop44ColorIndex
 90
        5
102
RTVSPost2010Prop44ColorRGB
 90
      255
102
RTVSPost2010PropOp44
 70
     1
102
RTVSPost2010Prop45
280
     0
102
RTVSPost2010PropOp45
 70
     1
102
RTVSPost2010Prop46
 90
       50
102
RTVSPost2010PropOp46
 70
     1
102
RTVSPost2010Prop47
 90
       50
102
RTVSPost2010PropOp47
 70
     1
102
RTVSPost2010Prop48
 90
       50
102
RTVSPost2010PropOp48
 70
     1
102
RTVSPost2010Prop49
280
     0
102
RTVSPost2010PropOp49
 70
     1
102
RTVSPost2010Prop50
 90
       50
102
RTVSPost2010PropOp50
 70
     1
102
RTVSPost2010Prop51ColorIndex
 90
      256
102
RTVSPost2010Prop51ColorRGB
 90
-16777216
102
RTVSPost2010PropOp51
 70
     0
102
RTVSPost2010Prop52
140
1.0
102
RTVSPost2010PropOp52
 70
     0
102
RTVSPost2010Prop53
 90
        2
102
RTVSPost2010PropOp53
 70
     1
102
RTVSPost2010Prop54
  1
strokes_ogs.tif
102
RTVSPost2010PropOp54
 70
     1
102
RTVSPost2010Prop55
280
     0
102
RTVSPost2010PropOp55
 70
     1
102
RTVSPost2010Prop56
140
1.0
102
RTVSPost2010PropOp56
 70
     1
102
RTVSPost2010Prop57
140
1.0
102
RTVSPost2010PropOp57
 70
     1
102
RTVSPropertyOp0
 70
     1
102
RTVSPropertyOp1
 70
     1
102
RTVSPropertyOp2
 70
     1
102
RTVSPropertyOp3
 70
     1
102
RTVSPropertyOp4
 70
     1
102
RTVSPropertyOp5
 70
     1
102
RTVSPropertyOp6
 70
     1
102
RTVSPropertyOp7
 70
     1
102
RTVSPropertyOp8
 70
     1
102
RTVSPropertyOp9
 70
     1
102
RTVSPropertyOp10
 70
     1
102
RTVSPropertyOp11
 70
     1
102
RTVSPropertyOp12
 70
     1
102
RTVSPropertyOp13
 70
     1
102
RTVSPropertyOp14
 70
     1
102
RTVSPropertyOp15
 70
     1
102
RTVSPropertyOp16
 70
     1
102
RTVSPropertyOp17
 70
     1
102
RTVSPropertyOp18
 70
     1
102
RTVSPropertyOp19
 70
     1
102
RTVSPropertyOp20
 70
     1
102
RTVSPropertyOp21
 70
     1
102
RTVSPropertyOp22
 70
     1
102
RTVSPropertyOp23
 70
     1
102
RTVSPropertyOp24
 70
     1
102
RTVSPropertyOp25
 70
     1
102
RTVSPropertyOp26
 70
     1
102
RTVSPropertyOp27
 70
     1
102
RTVSPropertyOp28
 70
     1
102
RTVSPropertyOp29
 70
     1
102
RTVSPropertyOp30
 70
     1
102
RTVSPropertyOp31
 70
     1
102
RTVSPropertyOp32
 70
     1
102
RTVSPropertyOp33
 70
     1
102
RTVSPropertyOp34
 70
     1
102
RTVSPropertyOp35
 70
     1
102
RTVSPropertyOp36
 70
     1
102
RTVSPropertyOp37
 70
     1
102
RTVSPropertyOp38
 70
     1
102
RTVSPropertyOp39
 70
     1
102
RTVSPropertyOp40
 70
     1
102
RTVSPropertyOp41
 70
     1
102
RTVSPropertyOp42
 70
     1
102
RTVSPropertyOp43
 70
     1
102
RTVSPropertyOp44
 70
     1
102
RTVSPropertyOp45
 70
     1
102
RTVSPropertyOp46
 70
     1
102
RTVSPropertyOp47
 70
     1
102
RTVSPropertyOp48
 70
     1
102
RTVSPropertyOp49
 70
     1
102
RTVSPropertyOp50
 70
     1
102
RTVSPropertyOp51
 70
     0
102
RTVSPropertyOp52
 70
     0
102
RTVSPropertyOp53
 70
     1
102
RTVSPropertyOp54
 70
     1
102
RTVSPropertyOp55
 70
     1
102
RTVSPropertyOp56
 70
     1
102
RTVSPropertyOp57
 70
     1
102
RTVSPropertyOp58
 70
     1
102
RTVSPropertyOp59
 70
     1
102
RTVSPropertyOp60
 70
     1
102
RTVSPropertyOp61
 70
     1
102
RTVSPropertyOp62
 70
     1
  0
XRECORD
  5
13275
102
{ACAD_REACTORS
330
13274
102
}
330
13274
100
AcDbXrecord
280
     1
102
RTVSPost2010Prop28
280
     0
102
RTVSPost2010PropOp28
 70
     1
102
RTVSPost2010Prop29
280
     1
102
RTVSPost2010PropOp29
 70
     1
102
RTVSPost2010Prop30
280
     1
102
RTVSPost2010PropOp30
 70
     1
102
RTVSPost2010Prop31
280
     0
102
RTVSPost2010PropOp31
 70
     1
102
RTVSPost2010Prop32
280
     0
102
RTVSPost2010PropOp32
 70
     1
102
RTVSPost2010Prop33
280
     0
102
RTVSPost2010PropOp33
 70
     1
102
RTVSPost2010Prop34
280
     0
102
RTVSPost2010PropOp34
 70
     1
102
RTVSPost2010Prop35
280
     0
102
RTVSPost2010PropOp35
 70
     1
102
RTVSPost2010Prop36
280
     0
102
RTVSPost2010PropOp36
 70
     1
102
RTVSPost2010Prop37
 90
       50
102
RTVSPost2010PropOp37
 70
     1
102
RTVSPost2010Prop38
140
0.0
102
RTVSPost2010PropOp38
 70
     1
102
RTVSPost2010Prop39
140
1.0
102
RTVSPost2010PropOp39
 70
     1
102
RTVSPost2010Prop40
 90
        0
102
RTVSPost2010PropOp40
 70
     1
102
RTVSPost2010Prop41ColorIndex
 90
       18
102
RTVSPost2010Prop41ColorRGB
 90
        0
102
RTVSPost2010PropOp41
 70
     1
102
RTVSPost2010Prop42
 90
       50
102
RTVSPost2010PropOp42
 70
     1
102
RTVSPost2010Prop43
 90
        3
102
RTVSPost2010PropOp43
 70
     1
102
RTVSPost2010Prop44ColorIndex
 90
        5
102
RTVSPost2010Prop44ColorRGB
 90
      255
102
RTVSPost2010PropOp44
 70
     1
102
RTVSPost2010Prop45
280
     0
102
RTVSPost2010PropOp45
 70
     1
102
RTVSPost2010Prop46
 90
       50
102
RTVSPost2010PropOp46
 70
     1
102
RTVSPost2010Prop47
 90
       50
102
RTVSPost2010PropOp47
 70
     1
102
RTVSPost2010Prop48
 90
       50
102
RTVSPost2010PropOp48
 70
     1
102
RTVSPost2010Prop49
280
     0
102
RTVSPost2010PropOp49
 70
     1
102
RTVSPost2010Prop50
 90
       50
102
RTVSPost2010PropOp50
 70
     1
102
RTVSPost2010Prop51ColorIndex
 90
      256
102
RTVSPost2010Prop51ColorRGB
 90
-16777216
102
RTVSPost2010PropOp51
 70
     0
102
RTVSPost2010Prop52
140
1.0
102
RTVSPost2010PropOp52
 70
     0
102
RTVSPost2010Prop53
 90
        2
102
RTVSPost2010PropOp53
 70
     1
102
RTVSPost2010Prop54
  1
strokes_ogs.tif
102
RTVSPost2010PropOp54
 70
     1
102
RTVSPost2010Prop55
280
     0
102
RTVSPost2010PropOp55
 70
     1
102
RTVSPost2010Prop56
140
1.0
102
RTVSPost2010PropOp56
 70
     1
102
RTVSPost2010Prop57
140
1.0
102
RTVSPost2010PropOp57
 70
     1
102
RTVSPropertyOp0
 70
     1
102
RTVSPropertyOp1
 70
     1
102
RTVSPropertyOp2
 70
     1
102
RTVSPropertyOp3
 70
     1
102
RTVSPropertyOp4
 70
     1
102
RTVSPropertyOp5
 70
     1
102
RTVSPropertyOp6
 70
     1
102
RTVSPropertyOp7
 70
     1
102
RTVSPropertyOp8
 70
     1
102
RTVSPropertyOp9
 70
     1
102
RTVSPropertyOp10
 70
     1
102
RTVSPropertyOp11
 70
     1
102
RTVSPropertyOp12
 70
     1
102
RTVSPropertyOp13
 70
     1
102
RTVSPropertyOp14
 70
     1
102
RTVSPropertyOp15
 70
     1
102
RTVSPropertyOp16
 70
     1
102
RTVSPropertyOp17
 70
     1
102
RTVSPropertyOp18
 70
     1
102
RTVSPropertyOp19
 70
     1
102
RTVSPropertyOp20
 70
     1
102
RTVSPropertyOp21
 70
     1
102
RTVSPropertyOp22
 70
     1
102
RTVSPropertyOp23
 70
     1
102
RTVSPropertyOp24
 70
     1
102
RTVSPropertyOp25
 70
     1
102
RTVSPropertyOp26
 70
     1
102
RTVSPropertyOp27
 70
     1
102
RTVSPropertyOp28
 70
     1
102
RTVSPropertyOp29
 70
     1
102
RTVSPropertyOp30
 70
     1
102
RTVSPropertyOp31
 70
     1
102
RTVSPropertyOp32
 70
     1
102
RTVSPropertyOp33
 70
     1
102
RTVSPropertyOp34
 70
     1
102
RTVSPropertyOp35
 70
     1
102
RTVSPropertyOp36
 70
     1
102
RTVSPropertyOp37
 70
     1
102
RTVSPropertyOp38
 70
     1
102
RTVSPropertyOp39
 70
     1
102
RTVSPropertyOp40
 70
     1
102
RTVSPropertyOp41
 70
     1
102
RTVSPropertyOp42
 70
     1
102
RTVSPropertyOp43
 70
     1
102
RTVSPropertyOp44
 70
     1
102
RTVSPropertyOp45
 70
     1
102
RTVSPropertyOp46
 70
     1
102
RTVSPropertyOp47
 70
     1
102
RTVSPropertyOp48
 70
     1
102
RTVSPropertyOp49
 70
     1
102
RTVSPropertyOp50
 70
     1
102
RTVSPropertyOp51
 70
     0
102
RTVSPropertyOp52
 70
     0
102
RTVSPropertyOp53
 70
     1
102
RTVSPropertyOp54
 70
     1
102
RTVSPropertyOp55
 70
     1
102
RTVSPropertyOp56
 70
     1
102
RTVSPropertyOp57
 70
     1
102
RTVSPropertyOp58
 70
     1
102
RTVSPropertyOp59
 70
     1
102
RTVSPropertyOp60
 70
     1
102
RTVSPropertyOp61
 70
     1
102
RTVSPropertyOp62
 70
     1
  0
XRECORD
  5
1326F
102
{ACAD_REACTORS
330
1326E
102
}
330
1326E
100
AcDbXrecord
280
     1
102
RTVSPost2010Prop28
280
     0
102
RTVSPost2010PropOp28
 70
     1
102
RTVSPost2010Prop29
280
     1
102
RTVSPost2010PropOp29
 70
     1
102
RTVSPost2010Prop30
280
     1
102
RTVSPost2010PropOp30
 70
     1
102
RTVSPost2010Prop31
280
     0
102
RTVSPost2010PropOp31
 70
     1
102
RTVSPost2010Prop32
280
     0
102
RTVSPost2010PropOp32
 70
     1
102
RTVSPost2010Prop33
280
     0
102
RTVSPost2010PropOp33
 70
     1
102
RTVSPost2010Prop34
280
     0
102
RTVSPost2010PropOp34
 70
     1
102
RTVSPost2010Prop35
280
     0
102
RTVSPost2010PropOp35
 70
     1
102
RTVSPost2010Prop36
280
     0
102
RTVSPost2010PropOp36
 70
     1
102
RTVSPost2010Prop37
 90
       50
102
RTVSPost2010PropOp37
 70
     1
102
RTVSPost2010Prop38
140
0.0
102
RTVSPost2010PropOp38
 70
     1
102
RTVSPost2010Prop39
140
1.0
102
RTVSPost2010PropOp39
 70
     1
102
RTVSPost2010Prop40
 90
        0
102
RTVSPost2010PropOp40
 70
     1
102
RTVSPost2010Prop41ColorIndex
 90
       18
102
RTVSPost2010Prop41ColorRGB
 90
        0
102
RTVSPost2010PropOp41
 70
     1
102
RTVSPost2010Prop42
 90
       50
102
RTVSPost2010PropOp42
 70
     1
102
RTVSPost2010Prop43
 90
        3
102
RTVSPost2010PropOp43
 70
     1
102
RTVSPost2010Prop44ColorIndex
 90
        5
102
RTVSPost2010Prop44ColorRGB
 90
      255
102
RTVSPost2010PropOp44
 70
     1
102
RTVSPost2010Prop45
280
     0
102
RTVSPost2010PropOp45
 70
     1
102
RTVSPost2010Prop46
 90
       50
102
RTVSPost2010PropOp46
 70
     1
102
RTVSPost2010Prop47
 90
       50
102
RTVSPost2010PropOp47
 70
     1
102
RTVSPost2010Prop48
 90
       50
102
RTVSPost2010PropOp48
 70
     1
102
RTVSPost2010Prop49
280
     0
102
RTVSPost2010PropOp49
 70
     1
102
RTVSPost2010Prop50
 90
       50
102
RTVSPost2010PropOp50
 70
     1
102
RTVSPost2010Prop51ColorIndex
 90
      256
102
RTVSPost2010Prop51ColorRGB
 90
-16777216
102
RTVSPost2010PropOp51
 70
     0
102
RTVSPost2010Prop52
140
1.0
102
RTVSPost2010PropOp52
 70
     0
102
RTVSPost2010Prop53
 90
        2
102
RTVSPost2010PropOp53
 70
     1
102
RTVSPost2010Prop54
  1
strokes_ogs.tif
102
RTVSPost2010PropOp54
 70
     1
102
RTVSPost2010Prop55
280
     0
102
RTVSPost2010PropOp55
 70
     1
102
RTVSPost2010Prop56
140
1.0
102
RTVSPost2010PropOp56
 70
     1
102
RTVSPost2010Prop57
140
1.0
102
RTVSPost2010PropOp57
 70
     1
102
RTVSPropertyOp0
 70
     1
102
RTVSPropertyOp1
 70
     1
102
RTVSPropertyOp2
 70
     1
102
RTVSPropertyOp3
 70
     1
102
RTVSPropertyOp4
 70
     1
102
RTVSPropertyOp5
 70
     1
102
RTVSPropertyOp6
 70
     1
102
RTVSPropertyOp7
 70
     1
102
RTVSPropertyOp8
 70
     1
102
RTVSPropertyOp9
 70
     1
102
RTVSPropertyOp10
 70
     1
102
RTVSPropertyOp11
 70
     1
102
RTVSPropertyOp12
 70
     1
102
RTVSPropertyOp13
 70
     1
102
RTVSPropertyOp14
 70
     1
102
RTVSPropertyOp15
 70
     1
102
RTVSPropertyOp16
 70
     1
102
RTVSPropertyOp17
 70
     1
102
RTVSPropertyOp18
 70
     1
102
RTVSPropertyOp19
 70
     1
102
RTVSPropertyOp20
 70
     1
102
RTVSPropertyOp21
 70
     1
102
RTVSPropertyOp22
 70
     1
102
RTVSPropertyOp23
 70
     1
102
RTVSPropertyOp24
 70
     1
102
RTVSPropertyOp25
 70
     1
102
RTVSPropertyOp26
 70
     1
102
RTVSPropertyOp27
 70
     1
102
RTVSPropertyOp28
 70
     1
102
RTVSPropertyOp29
 70
     1
102
RTVSPropertyOp30
 70
     1
102
RTVSPropertyOp31
 70
     1
102
RTVSPropertyOp32
 70
     1
102
RTVSPropertyOp33
 70
     1
102
RTVSPropertyOp34
 70
     1
102
RTVSPropertyOp35
 70
     1
102
RTVSPropertyOp36
 70
     1
102
RTVSPropertyOp37
 70
     1
102
RTVSPropertyOp38
 70
     1
102
RTVSPropertyOp39
 70
     1
102
RTVSPropertyOp40
 70
     1
102
RTVSPropertyOp41
 70
     1
102
RTVSPropertyOp42
 70
     1
102
RTVSPropertyOp43
 70
     1
102
RTVSPropertyOp44
 70
     1
102
RTVSPropertyOp45
 70
     1
102
RTVSPropertyOp46
 70
     1
102
RTVSPropertyOp47
 70
     1
102
RTVSPropertyOp48
 70
     1
102
RTVSPropertyOp49
 70
     1
102
RTVSPropertyOp50
 70
     1
102
RTVSPropertyOp51
 70
     0
102
RTVSPropertyOp52
 70
     0
102
RTVSPropertyOp53
 70
     1
102
RTVSPropertyOp54
 70
     1
102
RTVSPropertyOp55
 70
     1
102
RTVSPropertyOp56
 70
     1
102
RTVSPropertyOp57
 70
     1
102
RTVSPropertyOp58
 70
     1
102
RTVSPropertyOp59
 70
     1
102
RTVSPropertyOp60
 70
     1
102
RTVSPropertyOp61
 70
     1
102
RTVSPropertyOp62
 70
     1
  0
XRECORD
  5
13271
102
{ACAD_REACTORS
330
13270
102
}
330
13270
100
AcDbXrecord
280
     1
102
RTVSPost2010Prop28
280
     0
102
RTVSPost2010PropOp28
 70
     1
102
RTVSPost2010Prop29
280
     1
102
RTVSPost2010PropOp29
 70
     1
102
RTVSPost2010Prop30
280
     1
102
RTVSPost2010PropOp30
 70
     1
102
RTVSPost2010Prop31
280
     0
102
RTVSPost2010PropOp31
 70
     1
102
RTVSPost2010Prop32
280
     0
102
RTVSPost2010PropOp32
 70
     1
102
RTVSPost2010Prop33
280
     0
102
RTVSPost2010PropOp33
 70
     1
102
RTVSPost2010Prop34
280
     0
102
RTVSPost2010PropOp34
 70
     1
102
RTVSPost2010Prop35
280
     0
102
RTVSPost2010PropOp35
 70
     1
102
RTVSPost2010Prop36
280
     0
102
RTVSPost2010PropOp36
 70
     1
102
RTVSPost2010Prop37
 90
       50
102
RTVSPost2010PropOp37
 70
     1
102
RTVSPost2010Prop38
140
0.0
102
RTVSPost2010PropOp38
 70
     1
102
RTVSPost2010Prop39
140
1.0
102
RTVSPost2010PropOp39
 70
     1
102
RTVSPost2010Prop40
 90
        0
102
RTVSPost2010PropOp40
 70
     1
102
RTVSPost2010Prop41ColorIndex
 90
       18
102
RTVSPost2010Prop41ColorRGB
 90
        0
102
RTVSPost2010PropOp41
 70
     1
102
RTVSPost2010Prop42
 90
       50
102
RTVSPost2010PropOp42
 70
     1
102
RTVSPost2010Prop43
 90
        3
102
RTVSPost2010PropOp43
 70
     1
102
RTVSPost2010Prop44ColorIndex
 90
        5
102
RTVSPost2010Prop44ColorRGB
 90
      255
102
RTVSPost2010PropOp44
 70
     1
102
RTVSPost2010Prop45
280
     0
102
RTVSPost2010PropOp45
 70
     1
102
RTVSPost2010Prop46
 90
       50
102
RTVSPost2010PropOp46
 70
     1
102
RTVSPost2010Prop47
 90
       50
102
RTVSPost2010PropOp47
 70
     1
102
RTVSPost2010Prop48
 90
       50
102
RTVSPost2010PropOp48
 70
     1
102
RTVSPost2010Prop49
280
     0
102
RTVSPost2010PropOp49
 70
     1
102
RTVSPost2010Prop50
 90
       50
102
RTVSPost2010PropOp50
 70
     1
102
RTVSPost2010Prop51ColorIndex
 90
      256
102
RTVSPost2010Prop51ColorRGB
 90
-16777216
102
RTVSPost2010PropOp51
 70
     0
102
RTVSPost2010Prop52
140
1.0
102
RTVSPost2010PropOp52
 70
     0
102
RTVSPost2010Prop53
 90
        2
102
RTVSPost2010PropOp53
 70
     1
102
RTVSPost2010Prop54
  1
strokes_ogs.tif
102
RTVSPost2010PropOp54
 70
     1
102
RTVSPost2010Prop55
280
     0
102
RTVSPost2010PropOp55
 70
     1
102
RTVSPost2010Prop56
140
1.0
102
RTVSPost2010PropOp56
 70
     1
102
RTVSPost2010Prop57
140
1.0
102
RTVSPost2010PropOp57
 70
     1
102
RTVSPropertyOp0
 70
     1
102
RTVSPropertyOp1
 70
     1
102
RTVSPropertyOp2
 70
     1
102
RTVSPropertyOp3
 70
     1
102
RTVSPropertyOp4
 70
     1
102
RTVSPropertyOp5
 70
     1
102
RTVSPropertyOp6
 70
     1
102
RTVSPropertyOp7
 70
     1
102
RTVSPropertyOp8
 70
     1
102
RTVSPropertyOp9
 70
     1
102
RTVSPropertyOp10
 70
     1
102
RTVSPropertyOp11
 70
     1
102
RTVSPropertyOp12
 70
     1
102
RTVSPropertyOp13
 70
     1
102
RTVSPropertyOp14
 70
     1
102
RTVSPropertyOp15
 70
     1
102
RTVSPropertyOp16
 70
     1
102
RTVSPropertyOp17
 70
     1
102
RTVSPropertyOp18
 70
     1
102
RTVSPropertyOp19
 70
     1
102
RTVSPropertyOp20
 70
     1
102
RTVSPropertyOp21
 70
     1
102
RTVSPropertyOp22
 70
     1
102
RTVSPropertyOp23
 70
     1
102
RTVSPropertyOp24
 70
     1
102
RTVSPropertyOp25
 70
     1
102
RTVSPropertyOp26
 70
     1
102
RTVSPropertyOp27
 70
     1
102
RTVSPropertyOp28
 70
     1
102
RTVSPropertyOp29
 70
     1
102
RTVSPropertyOp30
 70
     1
102
RTVSPropertyOp31
 70
     1
102
RTVSPropertyOp32
 70
     1
102
RTVSPropertyOp33
 70
     1
102
RTVSPropertyOp34
 70
     1
102
RTVSPropertyOp35
 70
     1
102
RTVSPropertyOp36
 70
     1
102
RTVSPropertyOp37
 70
     1
102
RTVSPropertyOp38
 70
     1
102
RTVSPropertyOp39
 70
     1
102
RTVSPropertyOp40
 70
     1
102
RTVSPropertyOp41
 70
     1
102
RTVSPropertyOp42
 70
     1
102
RTVSPropertyOp43
 70
     1
102
RTVSPropertyOp44
 70
     1
102
RTVSPropertyOp45
 70
     1
102
RTVSPropertyOp46
 70
     1
102
RTVSPropertyOp47
 70
     1
102
RTVSPropertyOp48
 70
     1
102
RTVSPropertyOp49
 70
     1
102
RTVSPropertyOp50
 70
     1
102
RTVSPropertyOp51
 70
     0
102
RTVSPropertyOp52
 70
     0
102
RTVSPropertyOp53
 70
     1
102
RTVSPropertyOp54
 70
     1
102
RTVSPropertyOp55
 70
     1
102
RTVSPropertyOp56
 70
     1
102
RTVSPropertyOp57
 70
     1
102
RTVSPropertyOp58
 70
     1
102
RTVSPropertyOp59
 70
     1
102
RTVSPropertyOp60
 70
     1
102
RTVSPropertyOp61
 70
     1
102
RTVSPropertyOp62
 70
     1
  0
XRECORD
  5
13267
102
{ACAD_REACTORS
330
13266
102
}
330
13266
100
AcDbXrecord
280
     1
102
RTVSPost2010Prop28
280
     0
102
RTVSPost2010PropOp28
 70
     1
102
RTVSPost2010Prop29
280
     1
102
RTVSPost2010PropOp29
 70
     1
102
RTVSPost2010Prop30
280
     1
102
RTVSPost2010PropOp30
 70
     1
102
RTVSPost2010Prop31
280
     0
102
RTVSPost2010PropOp31
 70
     1
102
RTVSPost2010Prop32
280
     0
102
RTVSPost2010PropOp32
 70
     1
102
RTVSPost2010Prop33
280
     0
102
RTVSPost2010PropOp33
 70
     1
102
RTVSPost2010Prop34
280
     0
102
RTVSPost2010PropOp34
 70
     1
102
RTVSPost2010Prop35
280
     0
102
RTVSPost2010PropOp35
 70
     1
102
RTVSPost2010Prop36
280
     0
102
RTVSPost2010PropOp36
 70
     1
102
RTVSPost2010Prop37
 90
       50
102
RTVSPost2010PropOp37
 70
     1
102
RTVSPost2010Prop38
140
0.0
102
RTVSPost2010PropOp38
 70
     1
102
RTVSPost2010Prop39
140
1.0
102
RTVSPost2010PropOp39
 70
     1
102
RTVSPost2010Prop40
 90
        0
102
RTVSPost2010PropOp40
 70
     1
102
RTVSPost2010Prop41ColorIndex
 90
       18
102
RTVSPost2010Prop41ColorRGB
 90
        0
102
RTVSPost2010PropOp41
 70
     1
102
RTVSPost2010Prop42
 90
       50
102
RTVSPost2010PropOp42
 70
     1
102
RTVSPost2010Prop43
 90
        3
102
RTVSPost2010PropOp43
 70
     1
102
RTVSPost2010Prop44ColorIndex
 90
        5
102
RTVSPost2010Prop44ColorRGB
 90
      255
102
RTVSPost2010PropOp44
 70
     1
102
RTVSPost2010Prop45
280
     0
102
RTVSPost2010PropOp45
 70
     1
102
RTVSPost2010Prop46
 90
       50
102
RTVSPost2010PropOp46
 70
     1
102
RTVSPost2010Prop47
 90
       50
102
RTVSPost2010PropOp47
 70
     1
102
RTVSPost2010Prop48
 90
       50
102
RTVSPost2010PropOp48
 70
     1
102
RTVSPost2010Prop49
280
     0
102
RTVSPost2010PropOp49
 70
     1
102
RTVSPost2010Prop50
 90
       50
102
RTVSPost2010PropOp50
 70
     1
102
RTVSPost2010Prop51ColorIndex
 90
      256
102
RTVSPost2010Prop51ColorRGB
 90
-16777216
102
RTVSPost2010PropOp51
 70
     0
102
RTVSPost2010Prop52
140
1.0
102
RTVSPost2010PropOp52
 70
     0
102
RTVSPost2010Prop53
 90
        2
102
RTVSPost2010PropOp53
 70
     1
102
RTVSPost2010Prop54
  1
strokes_ogs.tif
102
RTVSPost2010PropOp54
 70
     1
102
RTVSPost2010Prop55
280
     0
102
RTVSPost2010PropOp55
 70
     1
102
RTVSPost2010Prop56
140
1.0
102
RTVSPost2010PropOp56
 70
     1
102
RTVSPost2010Prop57
140
1.0
102
RTVSPost2010PropOp57
 70
     1
102
RTVSPropertyOp0
 70
     1
102
RTVSPropertyOp1
 70
     1
102
RTVSPropertyOp2
 70
     1
102
RTVSPropertyOp3
 70
     1
102
RTVSPropertyOp4
 70
     1
102
RTVSPropertyOp5
 70
     1
102
RTVSPropertyOp6
 70
     1
102
RTVSPropertyOp7
 70
     1
102
RTVSPropertyOp8
 70
     1
102
RTVSPropertyOp9
 70
     1
102
RTVSPropertyOp10
 70
     1
102
RTVSPropertyOp11
 70
     1
102
RTVSPropertyOp12
 70
     1
102
RTVSPropertyOp13
 70
     1
102
RTVSPropertyOp14
 70
     1
102
RTVSPropertyOp15
 70
     1
102
RTVSPropertyOp16
 70
     1
102
RTVSPropertyOp17
 70
     1
102
RTVSPropertyOp18
 70
     1
102
RTVSPropertyOp19
 70
     1
102
RTVSPropertyOp20
 70
     1
102
RTVSPropertyOp21
 70
     1
102
RTVSPropertyOp22
 70
     1
102
RTVSPropertyOp23
 70
     1
102
RTVSPropertyOp24
 70
     1
102
RTVSPropertyOp25
 70
     1
102
RTVSPropertyOp26
 70
     1
102
RTVSPropertyOp27
 70
     1
102
RTVSPropertyOp28
 70
     1
102
RTVSPropertyOp29
 70
     1
102
RTVSPropertyOp30
 70
     1
102
RTVSPropertyOp31
 70
     1
102
RTVSPropertyOp32
 70
     1
102
RTVSPropertyOp33
 70
     1
102
RTVSPropertyOp34
 70
     1
102
RTVSPropertyOp35
 70
     1
102
RTVSPropertyOp36
 70
     1
102
RTVSPropertyOp37
 70
     1
102
RTVSPropertyOp38
 70
     1
102
RTVSPropertyOp39
 70
     1
102
RTVSPropertyOp40
 70
     1
102
RTVSPropertyOp41
 70
     1
102
RTVSPropertyOp42
 70
     1
102
RTVSPropertyOp43
 70
     1
102
RTVSPropertyOp44
 70
     1
102
RTVSPropertyOp45
 70
     1
102
RTVSPropertyOp46
 70
     1
102
RTVSPropertyOp47
 70
     1
102
RTVSPropertyOp48
 70
     1
102
RTVSPropertyOp49
 70
     1
102
RTVSPropertyOp50
 70
     1
102
RTVSPropertyOp51
 70
     0
102
RTVSPropertyOp52
 70
     0
102
RTVSPropertyOp53
 70
     1
102
RTVSPropertyOp54
 70
     1
102
RTVSPropertyOp55
 70
     1
102
RTVSPropertyOp56
 70
     1
102
RTVSPropertyOp57
 70
     1
102
RTVSPropertyOp58
 70
     1
102
RTVSPropertyOp59
 70
     1
102
RTVSPropertyOp60
 70
     1
102
RTVSPropertyOp61
 70
     1
102
RTVSPropertyOp62
 70
     1
  0
XRECORD
  5
1325B
102
{ACAD_REACTORS
330
1325A
102
}
330
1325A
100
AcDbXrecord
280
     1
102
RTVSPost2010Prop28
280
     0
102
RTVSPost2010PropOp28
 70
     1
102
RTVSPost2010Prop29
280
     1
102
RTVSPost2010PropOp29
 70
     1
102
RTVSPost2010Prop30
280
     1
102
RTVSPost2010PropOp30
 70
     1
102
RTVSPost2010Prop31
280
     0
102
RTVSPost2010PropOp31
 70
     1
102
RTVSPost2010Prop32
280
     0
102
RTVSPost2010PropOp32
 70
     1
102
RTVSPost2010Prop33
280
     0
102
RTVSPost2010PropOp33
 70
     1
102
RTVSPost2010Prop34
280
     0
102
RTVSPost2010PropOp34
 70
     1
102
RTVSPost2010Prop35
280
     0
102
RTVSPost2010PropOp35
 70
     1
102
RTVSPost2010Prop36
280
     0
102
RTVSPost2010PropOp36
 70
     1
102
RTVSPost2010Prop37
 90
       50
102
RTVSPost2010PropOp37
 70
     1
102
RTVSPost2010Prop38
140
0.0
102
RTVSPost2010PropOp38
 70
     1
102
RTVSPost2010Prop39
140
1.0
102
RTVSPost2010PropOp39
 70
     1
102
RTVSPost2010Prop40
 90
        0
102
RTVSPost2010PropOp40
 70
     1
102
RTVSPost2010Prop41ColorIndex
 90
       18
102
RTVSPost2010Prop41ColorRGB
 90
        0
102
RTVSPost2010PropOp41
 70
     1
102
RTVSPost2010Prop42
 90
       50
102
RTVSPost2010PropOp42
 70
     1
102
RTVSPost2010Prop43
 90
        3
102
RTVSPost2010PropOp43
 70
     1
102
RTVSPost2010Prop44ColorIndex
 90
        5
102
RTVSPost2010Prop44ColorRGB
 90
      255
102
RTVSPost2010PropOp44
 70
     1
102
RTVSPost2010Prop45
280
     0
102
RTVSPost2010PropOp45
 70
     1
102
RTVSPost2010Prop46
 90
       50
102
RTVSPost2010PropOp46
 70
     1
102
RTVSPost2010Prop47
 90
       50
102
RTVSPost2010PropOp47
 70
     1
102
RTVSPost2010Prop48
 90
       50
102
RTVSPost2010PropOp48
 70
     1
102
RTVSPost2010Prop49
280
     0
102
RTVSPost2010PropOp49
 70
     1
102
RTVSPost2010Prop50
 90
       50
102
RTVSPost2010PropOp50
 70
     1
102
RTVSPost2010Prop51ColorIndex
 90
      256
102
RTVSPost2010Prop51ColorRGB
 90
-16777216
102
RTVSPost2010PropOp51
 70
     0
102
RTVSPost2010Prop52
140
1.0
102
RTVSPost2010PropOp52
 70
     0
102
RTVSPost2010Prop53
 90
        2
102
RTVSPost2010PropOp53
 70
     1
102
RTVSPost2010Prop54
  1
strokes_ogs.tif
102
RTVSPost2010PropOp54
 70
     1
102
RTVSPost2010Prop55
280
     0
102
RTVSPost2010PropOp55
 70
     1
102
RTVSPost2010Prop56
140
1.0
102
RTVSPost2010PropOp56
 70
     1
102
RTVSPost2010Prop57
140
1.0
102
RTVSPost2010PropOp57
 70
     1
102
RTVSPropertyOp0
 70
     1
102
RTVSPropertyOp1
 70
     1
102
RTVSPropertyOp2
 70
     1
102
RTVSPropertyOp3
 70
     1
102
RTVSPropertyOp4
 70
     1
102
RTVSPropertyOp5
 70
     1
102
RTVSPropertyOp6
 70
     1
102
RTVSPropertyOp7
 70
     1
102
RTVSPropertyOp8
 70
     1
102
RTVSPropertyOp9
 70
     1
102
RTVSPropertyOp10
 70
     1
102
RTVSPropertyOp11
 70
     1
102
RTVSPropertyOp12
 70
     1
102
RTVSPropertyOp13
 70
     1
102
RTVSPropertyOp14
 70
     1
102
RTVSPropertyOp15
 70
     1
102
RTVSPropertyOp16
 70
     1
102
RTVSPropertyOp17
 70
     1
102
RTVSPropertyOp18
 70
     1
102
RTVSPropertyOp19
 70
     1
102
RTVSPropertyOp20
 70
     1
102
RTVSPropertyOp21
 70
     1
102
RTVSPropertyOp22
 70
     1
102
RTVSPropertyOp23
 70
     1
102
RTVSPropertyOp24
 70
     1
102
RTVSPropertyOp25
 70
     1
102
RTVSPropertyOp26
 70
     1
102
RTVSPropertyOp27
 70
     1
102
RTVSPropertyOp28
 70
     1
102
RTVSPropertyOp29
 70
     1
102
RTVSPropertyOp30
 70
     1
102
RTVSPropertyOp31
 70
     1
102
RTVSPropertyOp32
 70
     1
102
RTVSPropertyOp33
 70
     1
102
RTVSPropertyOp34
 70
     1
102
RTVSPropertyOp35
 70
     1
102
RTVSPropertyOp36
 70
     1
102
RTVSPropertyOp37
 70
     1
102
RTVSPropertyOp38
 70
     1
102
RTVSPropertyOp39
 70
     1
102
RTVSPropertyOp40
 70
     1
102
RTVSPropertyOp41
 70
     1
102
RTVSPropertyOp42
 70
     1
102
RTVSPropertyOp43
 70
     1
102
RTVSPropertyOp44
 70
     1
102
RTVSPropertyOp45
 70
     1
102
RTVSPropertyOp46
 70
     1
102
RTVSPropertyOp47
 70
     1
102
RTVSPropertyOp48
 70
     1
102
RTVSPropertyOp49
 70
     1
102
RTVSPropertyOp50
 70
     1
102
RTVSPropertyOp51
 70
     0
102
RTVSPropertyOp52
 70
     0
102
RTVSPropertyOp53
 70
     1
102
RTVSPropertyOp54
 70
     1
102
RTVSPropertyOp55
 70
     1
102
RTVSPropertyOp56
 70
     1
102
RTVSPropertyOp57
 70
     1
102
RTVSPropertyOp58
 70
     1
102
RTVSPropertyOp59
 70
     1
102
RTVSPropertyOp60
 70
     1
102
RTVSPropertyOp61
 70
     1
102
RTVSPropertyOp62
 70
     1
  0
XRECORD
  5
13273
102
{ACAD_REACTORS
330
13272
102
}
330
13272
100
AcDbXrecord
280
     1
102
RTVSPost2010Prop28
280
     0
102
RTVSPost2010PropOp28
 70
     1
102
RTVSPost2010Prop29
280
     1
102
RTVSPost2010PropOp29
 70
     1
102
RTVSPost2010Prop30
280
     1
102
RTVSPost2010PropOp30
 70
     1
102
RTVSPost2010Prop31
280
     0
102
RTVSPost2010PropOp31
 70
     1
102
RTVSPost2010Prop32
280
     0
102
RTVSPost2010PropOp32
 70
     1
102
RTVSPost2010Prop33
280
     0
102
RTVSPost2010PropOp33
 70
     1
102
RTVSPost2010Prop34
280
     0
102
RTVSPost2010PropOp34
 70
     1
102
RTVSPost2010Prop35
280
     0
102
RTVSPost2010PropOp35
 70
     1
102
RTVSPost2010Prop36
280
     0
102
RTVSPost2010PropOp36
 70
     1
102
RTVSPost2010Prop37
 90
       50
102
RTVSPost2010PropOp37
 70
     1
102
RTVSPost2010Prop38
140
0.0
102
RTVSPost2010PropOp38
 70
     1
102
RTVSPost2010Prop39
140
1.0
102
RTVSPost2010PropOp39
 70
     1
102
RTVSPost2010Prop40
 90
        0
102
RTVSPost2010PropOp40
 70
     1
102
RTVSPost2010Prop41ColorIndex
 90
       18
102
RTVSPost2010Prop41ColorRGB
 90
        0
102
RTVSPost2010PropOp41
 70
     1
102
RTVSPost2010Prop42
 90
       50
102
RTVSPost2010PropOp42
 70
     1
102
RTVSPost2010Prop43
 90
        3
102
RTVSPost2010PropOp43
 70
     1
102
RTVSPost2010Prop44ColorIndex
 90
        5
102
RTVSPost2010Prop44ColorRGB
 90
      255
102
RTVSPost2010PropOp44
 70
     1
102
RTVSPost2010Prop45
280
     0
102
RTVSPost2010PropOp45
 70
     1
102
RTVSPost2010Prop46
 90
       50
102
RTVSPost2010PropOp46
 70
     1
102
RTVSPost2010Prop47
 90
       50
102
RTVSPost2010PropOp47
 70
     1
102
RTVSPost2010Prop48
 90
       50
102
RTVSPost2010PropOp48
 70
     1
102
RTVSPost2010Prop49
280
     0
102
RTVSPost2010PropOp49
 70
     1
102
RTVSPost2010Prop50
 90
       50
102
RTVSPost2010PropOp50
 70
     1
102
RTVSPost2010Prop51ColorIndex
 90
      256
102
RTVSPost2010Prop51ColorRGB
 90
-16777216
102
RTVSPost2010PropOp51
 70
     0
102
RTVSPost2010Prop52
140
1.0
102
RTVSPost2010PropOp52
 70
     0
102
RTVSPost2010Prop53
 90
        2
102
RTVSPost2010PropOp53
 70
     1
102
RTVSPost2010Prop54
  1
strokes_ogs.tif
102
RTVSPost2010PropOp54
 70
     1
102
RTVSPost2010Prop55
280
     0
102
RTVSPost2010PropOp55
 70
     1
102
RTVSPost2010Prop56
140
1.0
102
RTVSPost2010PropOp56
 70
     1
102
RTVSPost2010Prop57
140
1.0
102
RTVSPost2010PropOp57
 70
     1
102
RTVSPropertyOp0
 70
     1
102
RTVSPropertyOp1
 70
     1
102
RTVSPropertyOp2
 70
     1
102
RTVSPropertyOp3
 70
     1
102
RTVSPropertyOp4
 70
     1
102
RTVSPropertyOp5
 70
     1
102
RTVSPropertyOp6
 70
     1
102
RTVSPropertyOp7
 70
     1
102
RTVSPropertyOp8
 70
     1
102
RTVSPropertyOp9
 70
     1
102
RTVSPropertyOp10
 70
     1
102
RTVSPropertyOp11
 70
     1
102
RTVSPropertyOp12
 70
     1
102
RTVSPropertyOp13
 70
     1
102
RTVSPropertyOp14
 70
     1
102
RTVSPropertyOp15
 70
     1
102
RTVSPropertyOp16
 70
     1
102
RTVSPropertyOp17
 70
     1
102
RTVSPropertyOp18
 70
     1
102
RTVSPropertyOp19
 70
     1
102
RTVSPropertyOp20
 70
     1
102
RTVSPropertyOp21
 70
     1
102
RTVSPropertyOp22
 70
     1
102
RTVSPropertyOp23
 70
     1
102
RTVSPropertyOp24
 70
     1
102
RTVSPropertyOp25
 70
     1
102
RTVSPropertyOp26
 70
     1
102
RTVSPropertyOp27
 70
     1
102
RTVSPropertyOp28
 70
     1
102
RTVSPropertyOp29
 70
     1
102
RTVSPropertyOp30
 70
     1
102
RTVSPropertyOp31
 70
     1
102
RTVSPropertyOp32
 70
     1
102
RTVSPropertyOp33
 70
     1
102
RTVSPropertyOp34
 70
     1
102
RTVSPropertyOp35
 70
     1
102
RTVSPropertyOp36
 70
     1
102
RTVSPropertyOp37
 70
     1
102
RTVSPropertyOp38
 70
     1
102
RTVSPropertyOp39
 70
     1
102
RTVSPropertyOp40
 70
     1
102
RTVSPropertyOp41
 70
     1
102
RTVSPropertyOp42
 70
     1
102
RTVSPropertyOp43
 70
     1
102
RTVSPropertyOp44
 70
     1
102
RTVSPropertyOp45
 70
     1
102
RTVSPropertyOp46
 70
     1
102
RTVSPropertyOp47
 70
     1
102
RTVSPropertyOp48
 70
     1
102
RTVSPropertyOp49
 70
     1
102
RTVSPropertyOp50
 70
     1
102
RTVSPropertyOp51
 70
     0
102
RTVSPropertyOp52
 70
     0
102
RTVSPropertyOp53
 70
     1
102
RTVSPropertyOp54
 70
     1
102
RTVSPropertyOp55
 70
     1
102
RTVSPropertyOp56
 70
     1
102
RTVSPropertyOp57
 70
     1
102
RTVSPropertyOp58
 70
     1
102
RTVSPropertyOp59
 70
     1
102
RTVSPropertyOp60
 70
     1
102
RTVSPropertyOp61
 70
     1
102
RTVSPropertyOp62
 70
     1
  0
ENDSEC
  0
EOF
