  0
SECTION
  2
HEADER
  9
$ACADVER
  1
AC1015
  9
$ACADMAINTVER
 70
    20
  9
$DWGCODEPAGE
  3
ANSI_932
  9
$INSBASE
 10
0.0
 20
0.0
 30
0.0
  9
$EXTMIN
 10
10.0
 20
9.999999999999998
 30
0.0
  9
$EXTMAX
 10
764.4026740000001
 20
784.849816
 30
0.0
  9
$LIMMIN
 10
0.0
 20
0.0
  9
$LIMMAX
 10
1227.6
 20
846.2999999999999
  9
$ORTHOMODE
 70
     1
  9
$REGENMODE
 70
     1
  9
$FILLMODE
 70
     1
  9
$QTEXTMODE
 70
     0
  9
$MIRRTEXT
 70
     1
  9
$LTSCALE
 40
20.0
  9
$ATTMODE
 70
     1
  9
$TEXTSIZE
 40
5.0
  9
$TRACEWID
 40
1.0
  9
$TEXTSTYLE
  7
STANDARD
  9
$CLAYER
  8
0
  9
$CELTYPE
  6
BYLAYER
  9
$CECOLOR
 62
   256
  9
$CELTSCALE
 40
1.0
  9
$DISPSILH
 70
     0
  9
$DIMSCALE
 40
1.0
  9
$DIMASZ
 40
3.0
  9
$DIMEXO
 40
1.0
  9
$DIMDLI
 40
10.0
  9
$DIMRND
 40
0.0
  9
$DIMDLE
 40
0.0
  9
$DIMEXE
 40
1.0
  9
$DIMTP
 40
0.0
  9
$DIMTM
 40
0.0
  9
$DIMTXT
 40
2.5
  9
$DIMCEN
 40
0.0
  9
$DIMTSZ
 40
0.0
  9
$DIMTOL
 70
     0
  9
$DIMLIM
 70
     0
  9
$DIMTIH
 70
     0
  9
$DIMTOH
 70
     0
  9
$DIMSE1
 70
     0
  9
$DIMSE2
 70
     0
  9
$DIMTAD
 70
     3
  9
$DIMZIN
 70
     8
  9
$DIMBLK
  1

  9
$DIMASO
 70
     1
  9
$DIMSHO
 70
     1
  9
$DIMPOST
  1

  9
$DIMAPOST
  1

  9
$DIMALT
 70
     0
  9
$DIMALTD
 70
     2
  9
$DIMALTF
 40
25.4
  9
$DIMLFAC
 40
1.0
  9
$DIMTOFL
 70
     1
  9
$DIMTVP
 40
0.0
  9
$DIMTIX
 70
     0
  9
$DIMSOXD
 70
     0
  9
$DIMSAH
 70
     1
  9
$DIMBLK1
  1

  9
$DIMBLK2
  1

  9
$DIMSTYLE
  2
STANDARD
  9
$DIMCLRD
 70
     0
  9
$DIMCLRE
 70
     0
  9
$DIMCLRT
 70
     0
  9
$DIMTFAC
 40
1.0
  9
$DIMGAP
 40
1.0
  9
$DIMJUST
 70
     0
  9
$DIMSD1
 70
     0
  9
$DIMSD2
 70
     0
  9
$DIMTOLJ
 70
     1
  9
$DIMTZIN
 70
     0
  9
$DIMALTZ
 70
     0
  9
$DIMALTTZ
 70
     0
  9
$DIMUPT
 70
     0
  9
$DIMDEC
 70
     4
  9
$DIMTDEC
 70
     4
  9
$DIMALTU
 70
     2
  9
$DIMALTTD
 70
     2
  9
$DIMTXSTY
  7
STANDARD
  9
$DIMAUNIT
 70
     0
  9
$DIMADEC
 70
     0
  9
$DIMALTRND
 40
0.0
  9
$DIMAZIN
 70
     0
  9
$DIMDSEP
 70
    46
  9
$DIMATFIT
 70
     3
  9
$DIMFRAC
 70
     0
  9
$DIMLDRBLK
  1

  9
$DIMLUNIT
 70
     2
  9
$DIMLWD
 70
    -2
  9
$DIMLWE
 70
    -2
  9
$DIMTMOVE
 70
     0
  9
$LUNITS
 70
     2
  9
$LUPREC
 70
     4
  9
$SKETCHINC
 40
1.0
  9
$FILLETRAD
 40
0.0
  9
$AUNITS
 70
     0
  9
$AUPREC
 70
     2
  9
$MENU
  1
.
  9
$ELEVATION
 40
0.0
  9
$PELEVATION
 40
0.0
  9
$THICKNESS
 40
0.0
  9
$LIMCHECK
 70
     0
  9
$CHAMFERA
 40
10.0
  9
$CHAMFERB
 40
10.0
  9
$CHAMFERC
 40
0.0
  9
$CHAMFERD
 40
0.0
  9
$SKPOLY
 70
     0
  9
$TDCREATE
 40
2451233.439560879
  9
$TDUCREATE
 40
2451233.064560879
  9
$TDUPDATE
 40
2457192.665732442
  9
$TDUUPDATE
 40
2457192.290732442
  9
$TDINDWG
 40
0.0000138657
  9
$TDUSRTIMER
 40
0.0000133912
  9
$USRTIMER
 70
     1
  9
$ANGBASE
 50
0.0
  9
$ANGDIR
 70
     0
  9
$PDMODE
 70
     0
  9
$PDSIZE
 40
0.0
  9
$PLINEWID
 40
0.0
  9
$SPLFRAME
 70
     0
  9
$SPLINETYPE
 70
     6
  9
$SPLINESEGS
 70
     8
  9
$HANDSEED
  5
13D58
  9
$SURFTAB1
 70
     6
  9
$SURFTAB2
 70
     6
  9
$SURFTYPE
 70
     6
  9
$SURFU
 70
     6
  9
$SURFV
 70
     6
  9
$UCSBASE
  2

  9
$UCSNAME
  2

  9
$UCSORG
 10
0.0
 20
0.0
 30
0.0
  9
$UCSXDIR
 10
1.0
 20
0.0
 30
0.0
  9
$UCSYDIR
 10
0.0
 20
1.0
 30
0.0
  9
$UCSORTHOREF
  2

  9
$UCSORTHOVIEW
 70
     0
  9
$UCSORGTOP
 10
0.0
 20
0.0
 30
0.0
  9
$UCSORGBOTTOM
 10
0.0
 20
0.0
 30
0.0
  9
$UCSORGLEFT
 10
0.0
 20
0.0
 30
0.0
  9
$UCSORGRIGHT
 10
0.0
 20
0.0
 30
0.0
  9
$UCSORGFRONT
 10
0.0
 20
0.0
 30
0.0
  9
$UCSORGBACK
 10
0.0
 20
0.0
 30
0.0
  9
$PUCSBASE
  2

  9
$PUCSNAME
  2

  9
$PUCSORG
 10
0.0
 20
0.0
 30
0.0
  9
$PUCSXDIR
 10
1.0
 20
0.0
 30
0.0
  9
$PUCSYDIR
 10
0.0
 20
1.0
 30
0.0
  9
$PUCSORTHOREF
  2

  9
$PUCSORTHOVIEW
 70
     0
  9
$PUCSORGTOP
 10
0.0
 20
0.0
 30
0.0
  9
$PUCSORGBOTTOM
 10
0.0
 20
0.0
 30
0.0
  9
$PUCSORGLEFT
 10
0.0
 20
0.0
 30
0.0
  9
$PUCSORGRIGHT
 10
0.0
 20
0.0
 30
0.0
  9
$PUCSORGFRONT
 10
0.0
 20
0.0
 30
0.0
  9
$PUCSORGBACK
 10
0.0
 20
0.0
 30
0.0
  9
$USERI1
 70
     0
  9
$USERI2
 70
     0
  9
$USERI3
 70
     0
  9
$USERI4
 70
     0
  9
$USERI5
 70
     0
  9
$USERR1
 40
0.0
  9
$USERR2
 40
0.0
  9
$USERR3
 40
0.0
  9
$USERR4
 40
0.0
  9
$USERR5
 40
0.0
  9
$WORLDVIEW
 70
     1
  9
$SHADEDGE
 70
     3
  9
$SHADEDIF
 70
    70
  9
$TILEMODE
 70
     1
  9
$MAXACTVP
 70
    16
  9
$PINSBASE
 10
0.0
 20
0.0
 30
0.0
  9
$PLIMCHECK
 70
     0
  9
$PEXTMIN
 10
1.000000000000000E+20
 20
1.000000000000000E+20
 30
1.000000000000000E+20
  9
$PEXTMAX
 10
-1.000000000000000E+20
 20
-1.000000000000000E+20
 30
-1.000000000000000E+20
  9
$PLIMMIN
 10
0.0
 20
0.0
  9
$PLIMMAX
 10
420.0
 20
297.0
  9
$UNITMODE
 70
     0
  9
$VISRETAIN
 70
     0
  9
$PLINEGEN
 70
     0
  9
$PSLTSCALE
 70
     0
  9
$TREEDEPTH
 70
  3020
  9
$CMLSTYLE
  2
STANDARD
  9
$CMLJUST
 70
     0
  9
$CMLSCALE
 40
1.0
  9
$PROXYGRAPHICS
 70
     1
  9
$MEASUREMENT
 70
     0
  9
$CELWEIGHT
370
    -1
  9
$ENDCAPS
280
     0
  9
$JOINSTYLE
280
     0
  9
$LWDISPLAY
290
     0
  9
$INSUNITS
 70
     0
  9
$HYPERLINKBASE
  1

  9
$STYLESHEET
  1

  9
$XEDIT
290
     1
  9
$CEPSNTYPE
380
     0
  9
$PSTYLEMODE
290
     1
  9
$FINGERPRINTGUID
  2
{5C86D89E-6EA4-4C4B-922A-F6C95301429C}
  9
$VERSIONGUID
  2
{26DF8DA9-2BD0-42A6-ADF7-CBC0437F4E4C}
  9
$EXTNAMES
290
     1
  9
$PSVPSCALE
 40
0.0
  9
$OLESTARTUP
290
     0
  0
ENDSEC
  0
SECTION
  2
CLASSES
  0
CLASS
  1
ACDBDICTIONARYWDFLT
  2
AcDbDictionaryWithDefault
  3
ObjectDBX Classes
 90
        0
280
     0
281
     0
  0
CLASS
  1
ACDBPLACEHOLDER
  2
AcDbPlaceHolder
  3
ObjectDBX Classes
 90
        0
280
     0
281
     0
  0
CLASS
  1
LAYOUT
  2
AcDbLayout
  3
ObjectDBX Classes
 90
        0
280
     0
281
     0
  0
CLASS
  1
DICTIONARYVAR
  2
AcDbDictionaryVar
  3
ObjectDBX Classes
 90
        0
280
     0
281
     0
  0
CLASS
  1
MATERIAL
  2
AcDbMaterial
  3
ObjectDBX Classes
 90
     1153
280
     0
281
     0
  0
CLASS
  1
VISUALSTYLE
  2
AcDbVisualStyle
  3
ObjectDBX Classes
 90
     4095
280
     0
281
     0
  0
CLASS
  1
TABLESTYLE
  2
AcDbTableStyle
  3
ObjectDBX Classes
 90
     4095
280
     0
281
     0
  0
CLASS
  1
SCALE
  2
AcDbScale
  3
ObjectDBX Classes
 90
     1153
280
     0
281
     0
  0
CLASS
  1
MLEADERSTYLE
  2
AcDbMLeaderStyle
  3
ACDB_MLEADERSTYLE_CLASS
 90
     4095
280
     0
281
     0
  0
CLASS
  1
ACDBSECTIONVIEWSTYLE
  2
AcDbSectionViewStyle
  3
ObjectDBX Classes
 90
     1025
280
     0
281
     0
  0
CLASS
  1
ACDBDETAILVIEWSTYLE
  2
AcDbDetailViewStyle
  3
ObjectDBX Classes
 90
     1025
280
     0
281
     0
  0
CLASS
  1
CELLSTYLEMAP
  2
AcDbCellStyleMap
  3
ObjectDBX Classes
 90
     1152
280
     0
281
     0
  0
ENDSEC
  0
SECTION
  2
TABLES
  0
TABLE
  2
VPORT
  5
13931
330
0
100
AcDbSymbolTable
 70
     1
  0
VPORT
  5
13CA1
330
13931
100
AcDbSymbolTableRecord
100
AcDbViewportTableRecord
  2
*ACTIVE
 70
     0
 10
0.0
 20
0.0
 11
1.0
 21
1.0
 12
621.8891535151885
 22
397.4198269221811
 13
0.0
 23
0.0
 14
10.0
 24
10.0
 15
10.0
 25
10.0
 16
0.0
 26
0.0
 36
1.0
 17
0.0
 27
0.0
 37
0.0
 40
783.5418881585337
 41
1.899603698811096
 42
50.0
 43
0.0
 44
0.0
 50
0.0
 51
0.0
 71
     0
 72
   100
 73
     1
 74
     0
 75
     0
 76
     0
 77
     0
 78
     0
281
     0
 65
     1
110
0.0
120
0.0
130
0.0
111
1.0
121
0.0
131
0.0
112
0.0
122
1.0
132
0.0
 79
     0
146
0.0
1001
ACAD_NAV_VCDISPLAY
1070
     3
  0
ENDTAB
  0
TABLE
  2
LTYPE
  5
1392E
330
0
100
AcDbSymbolTable
 70
     4
  0
LTYPE
  5
1393C
330
1392E
100
AcDbSymbolTableRecord
100
AcDbLinetypeTableRecord
  2
BYBLOCK
 70
     0
  3

 72
    65
 73
     0
 40
0.0
  0
LTYPE
  5
1393D
330
1392E
100
AcDbSymbolTableRecord
100
AcDbLinetypeTableRecord
  2
BYLAYER
 70
     0
  3

 72
    65
 73
     0
 40
0.0
  0
LTYPE
  5
1393E
330
1392E
100
AcDbSymbolTableRecord
100
AcDbLinetypeTableRecord
  2
CONTINUOUS
 70
     0
  3
Solid line
 72
    65
 73
     0
 40
0.0
  0
LTYPE
  5
1394C
330
1392E
100
AcDbSymbolTableRecord
100
AcDbLinetypeTableRecord
  2
DASHED
 70
     0
  3
__ __ __ __ __ __ __ __ __ __ __ __ __ __ __ __
 72
    65
 73
     2
 40
0.75
 49
0.5
 74
     0
 49
-0.25
 74
     0
  0
LTYPE
  5
1394D
330
1392E
100
AcDbSymbolTableRecord
100
AcDbLinetypeTableRecord
  2
CENTER
 70
     0
  3
____ _ ____ _ ____ _ ____ _ ____ _ ____ _ ____ 
 72
    65
 73
     4
 40
2.0
 49
1.25
 74
     0
 49
-0.25
 74
     0
 49
0.25
 74
     0
 49
-0.25
 74
     0
  0
LTYPE
  5
1394E
330
1392E
100
AcDbSymbolTableRecord
100
AcDbLinetypeTableRecord
  2
PHANTOM
 70
     0
  3
______  __  __  ______  __  __  ______  __  __ 
 72
    65
 73
     6
 40
2.5
 49
1.25
 74
     0
 49
-0.25
 74
     0
 49
0.25
 74
     0
 49
-0.25
 74
     0
 49
0.25
 74
     0
 49
-0.25
 74
     0
  0
ENDTAB
  0
TABLE
  2
LAYER
  5
1392B
330
0
100
AcDbSymbolTable
 70
     8
  0
LAYER
  5
13939
102
{ACAD_XDICTIONARY
360
13CFC
102
}
330
1392B
100
AcDbSymbolTableRecord
100
AcDbLayerTableRecord
  2
0
 70
     0
 62
     7
  6
CONTINUOUS
370
    -3
390
13CAA
  0
LAYER
  5
1394F
102
{ACAD_XDICTIONARY
360
13CFE
102
}
330
1392B
100
AcDbSymbolTableRecord
100
AcDbLayerTableRecord
  2
4
 70
     0
 62
     1
  6
CENTER
370
    -3
390
13CAA
  0
LAYER
  5
13950
102
{ACAD_XDICTIONARY
360
13D00
102
}
330
1392B
100
AcDbSymbolTableRecord
100
AcDbLayerTableRecord
  2
5
 70
     0
 62
     6
  6
PHANTOM
370
    -3
390
13CAA
  0
LAYER
  5
13951
102
{ACAD_XDICTIONARY
360
13D02
102
}
330
1392B
100
AcDbSymbolTableRecord
100
AcDbLayerTableRecord
  2
1
 70
     0
 62
     7
  6
CONTINUOUS
370
    -3
390
13CAA
  0
LAYER
  5
13952
102
{ACAD_XDICTIONARY
360
13D04
102
}
330
1392B
100
AcDbSymbolTableRecord
100
AcDbLayerTableRecord
  2
2
 70
     0
 62
     4
  6
CONTINUOUS
370
    -3
390
13CAA
  0
LAYER
  5
13953
102
{ACAD_XDICTIONARY
360
13D06
102
}
330
1392B
100
AcDbSymbolTableRecord
100
AcDbLayerTableRecord
  2
3
 70
     0
 62
     2
  6
DASHED
370
    -3
390
13CAA
  0
LAYER
  5
13954
102
{ACAD_XDICTIONARY
360
13D08
102
}
330
1392B
100
AcDbSymbolTableRecord
100
AcDbLayerTableRecord
  2
6
 70
     0
 62
     5
  6
CONTINUOUS
370
    -3
390
13CAA
  0
LAYER
  5
13955
102
{ACAD_XDICTIONARY
360
13D0A
102
}
330
1392B
100
AcDbSymbolTableRecord
100
AcDbLayerTableRecord
  2
7
 70
     0
 62
     3
  6
CONTINUOUS
370
    -3
390
13CAA
  0
ENDTAB
  0
TABLE
  2
STYLE
  5
1392C
330
0
100
AcDbSymbolTable
 70
     1
  0
STYLE
  5
1393A
330
1392C
100
AcDbSymbolTableRecord
100
AcDbTextStyleTableRecord
  2
STANDARD
 70
     0
 40
0.0
 41
1.0
 50
0.0
 71
     0
 42
5.0
  3
txt
  4

  0
ENDTAB
  0
TABLE
  2
VIEW
  5
1392F
330
0
100
AcDbSymbolTable
 70
     0
  0
ENDTAB
  0
TABLE
  2
UCS
  5
13930
330
0
100
AcDbSymbolTable
 70
     0
  0
ENDTAB
  0
TABLE
  2
APPID
  5
13932
330
0
100
AcDbSymbolTable
 70
     3
  0
APPID
  5
1393B
330
13932
100
AcDbSymbolTableRecord
100
AcDbRegAppTableRecord
  2
ACAD
 70
     0
  0
APPID
  5
13D16
330
13932
100
AcDbSymbolTableRecord
100
AcDbRegAppTableRecord
  2
ACAD_NAV_VCDISPLAY
 70
     0
  0
APPID
  5
13D4F
330
13932
100
AcDbSymbolTableRecord
100
AcDbRegAppTableRecord
  2
ACAD_MLEADERVER
 70
     0
  0
ENDTAB
  0
TABLE
  2
DIMSTYLE
  5
13933
330
0
100
AcDbSymbolTable
 70
     1
100
AcDbDimStyleTable
 71
     0
  0
DIMSTYLE
105
13957
330
13933
100
AcDbSymbolTableRecord
100
AcDbDimStyleTableRecord
  2
STANDARD
 70
     0
 41
3.0
 42
1.0
 43
10.0
 44
1.0
 73
     0
 74
     0
 77
     3
 78
     8
140
2.5
141
0.0
147
1.0
172
     1
173
     1
284
     8
285
     8
286
     8
340
1393A
  0
ENDTAB
  0
TABLE
  2
BLOCK_RECORD
  5
1392A
330
0
100
AcDbSymbolTable
 70
     0
  0
BLOCK_RECORD
  5
13947
102
{ACAD_XDICTIONARY
360
13CA4
102
}
330
1392A
100
AcDbSymbolTableRecord
100
AcDbBlockTableRecord
  2
*MODEL_SPACE
340
13CF8
  0
BLOCK_RECORD
  5
13943
102
{ACAD_XDICTIONARY
360
13CA2
102
}
330
1392A
100
AcDbSymbolTableRecord
100
AcDbBlockTableRecord
  2
*PAPER_SPACE
340
13CF9
  0
ENDTAB
  0
ENDSEC
  0
SECTION
  2
BLOCKS
  0
BLOCK
  5
13948
330
13947
100
AcDbEntity
  8
0
100
AcDbBlockBegin
  2
*MODEL_SPACE
 70
     0
 10
0.0
 20
0.0
 30
0.0
  3
*MODEL_SPACE
  1

  0
ENDBLK
  5
13949
330
13947
100
AcDbEntity
  8
0
100
AcDbBlockEnd
  0
BLOCK
  5
13944
330
13943
100
AcDbEntity
 67
     1
  8
0
100
AcDbBlockBegin
  2
*PAPER_SPACE
 70
     0
 10
0.0
 20
0.0
 30
0.0
  3
*PAPER_SPACE
  1

  0
ENDBLK
  5
13945
330
13943
100
AcDbEntity
 67
     1
  8
0
100
AcDbBlockEnd
  0
ENDSEC
  0
SECTION
  2
ENTITIES
  0
TEXT
  5
1395F
330
13947
100
AcDbEntity
  8
7
  6
Continuous
100
AcDbText
 10
10.0
 20
18.0
 30
0.0
 40
3.0
  1
TYPE No.TM-95-2
100
AcDbText
  0
TEXT
  5
13960
330
13947
100
AcDbEntity
  8
7
  6
Continuous
100
AcDbText
 10
10.0
 20
26.0
 30
0.0
 40
3.0
  1
CODE No.5275
100
AcDbText
  0
TEXT
  5
13961
330
13947
100
AcDbEntity
  8
1
  6
Continuous
100
AcDbText
 10
10.0
 20
10.0
 30
0.0
 40
1.399999999999999
  1
LAYER
100
AcDbText
  0
TEXT
  5
13962
330
13947
100
AcDbEntity
  8
1
  6
Continuous
100
AcDbText
 10
17.97951099999998
 20
10.04873699999998
 30
0.0
 40
1.399999999999999
  1
1
100
AcDbText
  0
TEXT
  5
13963
330
13947
100
AcDbEntity
  8
7
  6
Continuous
100
AcDbText
 10
29.97951099999999
 20
10.04873699999998
 30
0.0
 40
1.399999999999999
  1
7
100
AcDbText
  0
TEXT
  5
13964
330
13947
100
AcDbEntity
  8
4
  6
CENTER
100
AcDbText
 10
23.97951099999999
 20
10.04873699999998
 30
0.0
 40
1.399999999999999
  1
4
100
AcDbText
  0
TEXT
  5
13965
330
13947
100
AcDbEntity
  8
3
  6
DASHED
100
AcDbText
 10
21.979511
 20
10.04873699999998
 30
0.0
 40
1.399999999999999
  1
3
100
AcDbText
  0
TEXT
  5
13966
330
13947
100
AcDbEntity
  8
2
  6
Continuous
100
AcDbText
 10
19.97951099999999
 20
10.04873699999998
 30
0.0
 40
1.399999999999999
  1
2
100
AcDbText
  0
TEXT
  5
13967
330
13947
100
AcDbEntity
  8
6
  6
Continuous
100
AcDbText
 10
27.979511
 20
10.04873699999998
 30
0.0
 40
1.399999999999999
  1
6
100
AcDbText
  0
TEXT
  5
13968
330
13947
100
AcDbEntity
  8
5
  6
PHANTOM
100
AcDbText
 10
25.97951099999999
 20
10.04873699999998
 30
0.0
 40
1.399999999999999
  1
5
100
AcDbText
  0
LINE
  5
13969
330
13947
100
AcDbEntity
  8
1
  6
Continuous
100
AcDbLine
 10
348.8820759999999
 20
554.849816
 30
0.0
 11
367.8820759999999
 21
554.849816
 31
0.0
  0
LINE
  5
1396A
330
13947
100
AcDbEntity
  8
1
  6
Continuous
100
AcDbLine
 10
348.8820759999999
 20
577.849816
 30
0.0
 11
395.882076
 21
577.849816
 31
0.0
  0
LINE
  5
1396B
330
13947
100
AcDbEntity
  8
1
  6
Continuous
100
AcDbLine
 10
395.882076
 20
579.4498160000001
 30
0.0
 11
695.882076
 21
579.4498160000001
 31
0.0
  0
LINE
  5
1396C
330
13947
100
AcDbEntity
  8
1
  6
Continuous
100
AcDbLine
 10
367.8820759999999
 20
553.249816
 30
0.0
 11
695.882076
 21
553.249816
 31
0.0
  0
LINE
  5
1396D
330
13947
100
AcDbEntity
  8
1
  6
Continuous
100
AcDbLine
 10
695.882076
 20
553.249816
 30
0.0
 11
695.882076
 21
579.4498160000001
 31
0.0
  0
ARC
  5
1396E
330
13947
100
AcDbEntity
  8
1
  6
Continuous
100
AcDbCircle
 10
348.8820759999999
 20
574.849816
 30
0.0
 40
3.0
100
AcDbArc
 50
90.0
 51
180.0
  0
ARC
  5
1396F
330
13947
100
AcDbEntity
  8
1
  6
Continuous
100
AcDbCircle
 10
348.8820759999999
 20
557.849816
 30
0.0
 40
3.0
100
AcDbArc
 50
180.0
 51
270.0
  0
LINE
  5
13970
330
13947
100
AcDbEntity
  8
1
  6
Continuous
100
AcDbLine
 10
367.8820759999999
 20
553.249816
 30
0.0
 11
367.8820759999999
 21
554.849816
 31
0.0
  0
LINE
  5
13971
330
13947
100
AcDbEntity
  8
1
  6
Continuous
100
AcDbLine
 10
395.882076
 20
577.849816
 30
0.0
 11
395.882076
 21
579.4498160000001
 31
0.0
  0
LINE
  5
13972
330
13947
100
AcDbEntity
  8
4
  6
CENTER
100
AcDbLine
 10
340.8820759999999
 20
566.349816
 30
0.0
 11
700.8820759999996
 21
566.349816
 31
0.0
  0
ARC
  5
13973
330
13947
100
AcDbEntity
  8
1
  6
Continuous
100
AcDbCircle
 10
356.8820759999999
 20
560.849816
 30
0.0
 40
11.0
100
AcDbArc
 50
210.751502
 51
326.944269
  0
LINE
  5
13974
330
13947
100
AcDbEntity
  8
4
  6
CENTER
100
AcDbLine
 10
370.882076
 20
560.849816
 30
0.0
 11
342.8820759999999
 21
560.849816
 31
0.0
  0
LINE
  5
13975
330
13947
100
AcDbEntity
  8
4
  6
CENTER
100
AcDbLine
 10
356.8820759999999
 20
574.849816
 30
0.0
 11
356.8820759999999
 21
546.849816
 31
0.0
  0
CIRCLE
  5
13976
330
13947
100
AcDbEntity
  8
1
  6
Continuous
100
AcDbCircle
 10
365.8820759999999
 20
566.349816
 30
0.0
 40
2.0
  0
ARC
  5
13977
330
13947
100
AcDbEntity
  8
1
  6
Continuous
100
AcDbCircle
 10
356.8820759999999
 20
560.849816
 30
0.0
 40
11.0
100
AcDbArc
 50
21.052718
 51
41.806413
  0
LINE
  5
13978
330
13947
100
AcDbEntity
  8
4
  6
CENTER
100
AcDbLine
 10
365.8820759999999
 20
570.349816
 30
0.0
 11
365.8820759999999
 21
562.349816
 31
0.0
  0
CIRCLE
  5
13979
330
13947
100
AcDbEntity
  8
1
  6
Continuous
100
AcDbCircle
 10
356.8820759999999
 20
560.849816
 30
0.0
 40
3.649999999999999
  0
LINE
  5
1397A
330
13947
100
AcDbEntity
  8
4
  6
CENTER
100
AcDbLine
 10
377.8820759999999
 20
560.349816
 30
0.0
 11
377.8820759999999
 21
572.349816
 31
0.0
  0
CIRCLE
  5
1397B
330
13947
100
AcDbEntity
  8
1
  6
Continuous
100
AcDbCircle
 10
377.8820759999999
 20
566.349816
 30
0.0
 40
3.0
  0
LINE
  5
1397C
330
13947
100
AcDbEntity
  8
4
  6
CENTER
100
AcDbLine
 10
477.882076
 20
560.349816
 30
0.0
 11
477.882076
 21
572.349816
 31
0.0
  0
CIRCLE
  5
1397D
330
13947
100
AcDbEntity
  8
1
  6
Continuous
100
AcDbCircle
 10
477.882076
 20
566.349816
 30
0.0
 40
3.0
  0
CIRCLE
  5
1397E
330
13947
100
AcDbEntity
  8
1
  6
Continuous
100
AcDbCircle
 10
577.882076
 20
566.349816
 30
0.0
 40
3.0
  0
LINE
  5
1397F
330
13947
100
AcDbEntity
  8
4
  6
CENTER
100
AcDbLine
 10
577.882076
 20
560.349816
 30
0.0
 11
577.882076
 21
572.349816
 31
0.0
  0
LINE
  5
13980
330
13947
100
AcDbEntity
  8
4
  6
CENTER
100
AcDbLine
 10
677.882076
 20
560.349816
 30
0.0
 11
677.882076
 21
572.349816
 31
0.0
  0
CIRCLE
  5
13981
330
13947
100
AcDbEntity
  8
1
  6
Continuous
100
AcDbCircle
 10
677.882076
 20
566.349816
 30
0.0
 40
3.0
  0
LINE
  5
13982
330
13947
100
AcDbEntity
  8
4
  6
CENTER
100
AcDbLine
 10
662.8820759999999
 20
561.849816
 30
0.0
 11
662.8820759999999
 21
570.849816
 31
0.0
  0
CIRCLE
  5
13983
330
13947
100
AcDbEntity
  8
1
  6
Continuous
100
AcDbCircle
 10
662.8820759999999
 20
566.349816
 30
0.0
 40
2.0
  0
LINE
  5
13984
330
13947
100
AcDbEntity
  8
1
  6
Continuous
100
AcDbLine
 10
35.4
 20
579.4498160000001
 30
0.0
 11
29.0
 21
579.4498160000001
 31
0.0
  0
LINE
  5
13985
330
13947
100
AcDbEntity
  8
1
  6
Continuous
100
AcDbLine
 10
37.0
 20
577.849816
 30
0.0
 11
29.0
 21
577.849816
 31
0.0
  0
LINE
  5
13986
330
13947
100
AcDbEntity
  8
1
  6
Continuous
100
AcDbLine
 10
37.0
 20
577.849816
 30
0.0
 11
37.0
 21
554.849816
 31
0.0
  0
LINE
  5
13987
330
13947
100
AcDbEntity
  8
1
  6
Continuous
100
AcDbLine
 10
37.0
 20
554.849816
 30
0.0
 11
34.39999999999999
 21
554.849816
 31
0.0
  0
LINE
  5
13988
330
13947
100
AcDbEntity
  8
1
  6
Continuous
100
AcDbLine
 10
35.4
 20
553.249816
 30
0.0
 11
34.39999999999999
 21
553.249816
 31
0.0
  0
LINE
  5
13989
330
13947
100
AcDbEntity
  8
1
  6
Continuous
100
AcDbLine
 10
29.0
 20
579.4498160000001
 30
0.0
 11
29.0
 21
577.849816
 31
0.0
  0
LINE
  5
1398A
330
13947
100
AcDbEntity
  8
1
  6
Continuous
100
AcDbLine
 10
35.4
 20
577.849816
 30
0.0
 11
35.4
 21
554.849816
 31
0.0
  0
ARC
  5
1398B
330
13947
100
AcDbEntity
  8
1
  6
Continuous
100
AcDbCircle
 10
35.4
 20
577.849816
 30
0.0
 40
1.6
100
AcDbArc
 50
0.0
 51
90.0
  0
ARC
  5
1398C
330
13947
100
AcDbEntity
  8
1
  6
Continuous
100
AcDbCircle
 10
35.4
 20
554.849816
 30
0.0
 40
1.6
100
AcDbArc
 50
270.0
 51
0.0
  0
LINE
  5
1398D
330
13947
100
AcDbEntity
  8
4
  6
CENTER
100
AcDbLine
 10
32.512867
 20
566.349816
 30
0.0
 11
39.43426999999999
 21
566.349816
 31
0.0
  0
LINE
  5
1398E
330
13947
100
AcDbEntity
  8
1
  6
Continuous
100
AcDbLine
 10
34.6
 20
576.349816
 30
0.0
 11
34.6
 21
565.599816
 31
0.0
  0
LINE
  5
1398F
330
13947
100
AcDbEntity
  8
1
  6
Continuous
100
AcDbLine
 10
27.6
 20
576.349816
 30
0.0
 11
27.6
 21
573.4498160000002
 31
0.0
  0
ARC
  5
13990
330
13947
100
AcDbEntity
  8
1
  6
Continuous
100
AcDbCircle
 10
34.1
 20
555.349816
 30
0.0
 40
0.5
100
AcDbArc
 50
306.8698979999999
 51
0.0
  0
LINE
  5
13991
330
13947
100
AcDbEntity
  8
1
  6
Continuous
100
AcDbLine
 10
26.6
 20
570.099816
 30
0.0
 11
26.6
 21
561.599816
 31
0.0
  0
LINE
  5
13992
330
13947
100
AcDbEntity
  8
1
  6
Continuous
100
AcDbLine
 10
27.1
 20
561.099816
 30
0.0
 11
27.1
 21
570.599816
 31
0.0
  0
LINE
  5
13993
330
13947
100
AcDbEntity
  8
1
  6
Continuous
100
AcDbLine
 10
27.1
 20
561.099816
 30
0.0
 11
26.6
 21
561.599816
 31
0.0
  0
LINE
  5
13994
330
13947
100
AcDbEntity
  8
1
  6
Continuous
100
AcDbLine
 10
27.1
 20
570.599816
 30
0.0
 11
26.6
 21
570.099816
 31
0.0
  0
LINE
  5
13995
330
13947
100
AcDbEntity
  8
1
  6
Continuous
100
AcDbLine
 10
27.1
 20
561.099816
 30
0.0
 11
27.4
 21
561.099816
 31
0.0
  0
LINE
  5
13996
330
13947
100
AcDbEntity
  8
1
  6
Continuous
100
AcDbLine
 10
27.1
 20
570.599816
 30
0.0
 11
27.4
 21
570.599816
 31
0.0
  0
LINE
  5
13997
330
13947
100
AcDbEntity
  8
1
  6
Continuous
100
AcDbLine
 10
34.1
 20
576.849816
 30
0.0
 11
28.1
 21
576.849816
 31
0.0
  0
ARC
  5
13998
330
13947
100
AcDbEntity
  8
1
  6
Continuous
100
AcDbCircle
 10
34.1
 20
576.349816
 30
0.0
 40
0.5
100
AcDbArc
 50
0.0
 51
90.0
  0
ARC
  5
13999
330
13947
100
AcDbEntity
  8
1
  6
Continuous
100
AcDbCircle
 10
28.1
 20
576.349816
 30
0.0
 40
0.5
100
AcDbArc
 50
90.0
 51
180.0
  0
LINE
  5
1399A
330
13947
100
AcDbEntity
  8
4
  6
CENTER
100
AcDbLine
 10
39.591998
 20
560.849816
 30
0.0
 11
25.943987
 21
560.849816
 31
0.0
  0
LINE
  5
1399B
330
13947
100
AcDbEntity
  8
1
  6
Continuous
100
AcDbLine
 10
34.9
 20
556.099816
 30
0.0
 11
34.9
 21
565.599816
 31
0.0
  0
LINE
  5
1399C
330
13947
100
AcDbEntity
  8
1
  6
Continuous
100
AcDbLine
 10
27.4
 20
571.349816
 30
0.0
 11
27.4
 21
550.349816
 31
0.0
  0
LINE
  5
1399D
330
13947
100
AcDbEntity
  8
1
  6
Continuous
100
AcDbLine
 10
34.39999999999999
 20
571.349816
 30
0.0
 11
34.39999999999999
 21
550.349816
 31
0.0
  0
ARC
  5
1399E
330
13947
100
AcDbEntity
  8
1
  6
Continuous
100
AcDbCircle
 10
33.9
 20
550.349816
 30
0.0
 40
0.5
100
AcDbArc
 50
270.0
 51
0.0
  0
LINE
  5
1399F
330
13947
100
AcDbEntity
  8
1
  6
Continuous
100
AcDbLine
 10
34.9
 20
556.099816
 30
0.0
 11
34.39999999999999
 21
556.099816
 31
0.0
  0
LINE
  5
139A0
330
13947
100
AcDbEntity
  8
1
  6
Continuous
100
AcDbLine
 10
27.9
 20
549.849816
 30
0.0
 11
33.9
 21
549.849816
 31
0.0
  0
ARC
  5
139A1
330
13947
100
AcDbEntity
  8
1
  6
Continuous
100
AcDbCircle
 10
27.9
 20
550.349816
 30
0.0
 40
0.5
100
AcDbArc
 50
180.0
 51
270.0
  0
LINE
  5
139A2
330
13947
100
AcDbEntity
  8
1
  6
Continuous
100
AcDbLine
 10
34.9
 20
556.099816
 30
0.0
 11
35.4
 21
556.599816
 31
0.0
  0
ARC
  5
139A3
330
13947
100
AcDbEntity
  8
1
  6
Continuous
100
AcDbCircle
 10
33.9
 20
571.349816
 30
0.0
 40
0.5
100
AcDbArc
 50
0.0
 51
90.0
  0
LINE
  5
139A4
330
13947
100
AcDbEntity
  8
1
  6
Continuous
100
AcDbLine
 10
34.9
 20
565.599816
 30
0.0
 11
34.39999999999999
 21
565.599816
 31
0.0
  0
LINE
  5
139A5
330
13947
100
AcDbEntity
  8
1
  6
Continuous
100
AcDbLine
 10
26.6
 20
571.849816
 30
0.0
 11
33.9
 21
571.849816
 31
0.0
  0
ARC
  5
139A6
330
13947
100
AcDbEntity
  8
1
  6
Continuous
100
AcDbCircle
 10
27.9
 20
571.349816
 30
0.0
 40
0.5
100
AcDbArc
 50
90.0
 51
180.0
  0
LINE
  5
139A7
330
13947
100
AcDbEntity
  8
1
  6
Continuous
100
AcDbLine
 10
34.9
 20
565.599816
 30
0.0
 11
35.4
 21
565.099816
 31
0.0
  0
LINE
  5
139A8
330
13947
100
AcDbEntity
  8
1
  6
Continuous
100
AcDbLine
 10
37.7
 20
564.499816
 30
0.0
 11
37.7
 21
557.199816
 31
0.0
  0
LINE
  5
139A9
330
13947
100
AcDbEntity
  8
1
  6
Continuous
100
AcDbLine
 10
37.7
 20
564.499816
 30
0.0
 11
37.0
 21
563.7998159999997
 31
0.0
  0
LINE
  5
139AA
330
13947
100
AcDbEntity
  8
1
  6
Continuous
100
AcDbLine
 10
37.7
 20
557.199816
 30
0.0
 11
37.0
 21
557.899816
 31
0.0
  0
LINE
  5
139AB
330
13947
100
AcDbEntity
  8
1
  6
Continuous
100
AcDbLine
 10
25.0
 20
551.849816
 30
0.0
 11
26.6
 21
551.849816
 31
0.0
  0
LINE
  5
139AC
330
13947
100
AcDbEntity
  8
1
  6
Continuous
100
AcDbLine
 10
26.6
 20
573.4498160000002
 30
0.0
 11
33.0
 21
573.4498160000002
 31
0.0
  0
LINE
  5
139AD
330
13947
100
AcDbEntity
  8
1
  6
Continuous
100
AcDbLine
 10
25.0
 20
571.849816
 30
0.0
 11
25.0
 21
551.849816
 31
0.0
  0
LINE
  5
139AE
330
13947
100
AcDbEntity
  8
1
  6
Continuous
100
AcDbLine
 10
26.6
 20
571.849816
 30
0.0
 11
26.6
 21
551.849816
 31
0.0
  0
LINE
  5
139AF
330
13947
100
AcDbEntity
  8
4
  6
CENTER
100
AcDbLine
 10
22.36147799999999
 20
561.849816
 30
0.0
 11
29.28288099999999
 21
561.849816
 31
0.0
  0
LINE
  5
139B0
330
13947
100
AcDbEntity
  8
1
  6
Continuous
100
AcDbLine
 10
33.0
 20
573.4498160000002
 30
0.0
 11
33.0
 21
571.849816
 31
0.0
  0
ARC
  5
139B1
330
13947
100
AcDbEntity
  8
1
  6
Continuous
100
AcDbCircle
 10
26.6
 20
571.849816
 30
0.0
 40
1.6
100
AcDbArc
 50
90.0
 51
180.0
  0
LINE
  5
139B2
330
13947
100
AcDbEntity
  8
4
  6
CENTER
100
AcDbLine
 10
22.36147799999999
 20
565.849816
 30
0.0
 11
36.169351
 21
565.849816
 31
0.0
  0
LINE
  5
139B3
330
13947
100
AcDbEntity
  8
1
  6
Continuous
100
AcDbLine
 10
24.3
 20
569.4998159999999
 30
0.0
 11
24.3
 21
562.199816
 31
0.0
  0
LINE
  5
139B4
330
13947
100
AcDbEntity
  8
1
  6
Continuous
100
AcDbLine
 10
24.3
 20
569.4998159999999
 30
0.0
 11
25.0
 21
568.7998159999997
 31
0.0
  0
LINE
  5
139B5
330
13947
100
AcDbEntity
  8
1
  6
Continuous
100
AcDbLine
 10
24.3
 20
562.199816
 30
0.0
 11
25.0
 21
562.899816
 31
0.0
  0
LINE
  5
139B6
330
13947
100
AcDbEntity
  8
1
  6
Continuous
100
AcDbLine
 10
34.6
 20
556.099816
 30
0.0
 11
34.6
 21
555.349816
 31
0.0
  0
LINE
  5
139B7
330
13947
100
AcDbEntity
  8
1
  6
Continuous
100
AcDbLine
 10
27.6
 20
571.849816
 30
0.0
 11
27.6
 21
571.7498159999998
 31
0.0
  0
LINE
  5
139B8
330
13947
100
AcDbEntity
  8
1
  6
Continuous
100
AcDbLine
 10
749.7641519999997
 20
577.849816
 30
0.0
 11
749.7641519999997
 21
554.849816
 31
0.0
  0
LINE
  5
139B9
330
13947
100
AcDbEntity
  8
1
  6
Continuous
100
AcDbLine
 10
751.364152
 20
577.849816
 30
0.0
 11
751.364152
 21
554.849816
 31
0.0
  0
LINE
  5
139BA
330
13947
100
AcDbEntity
  8
1
  6
Continuous
100
AcDbLine
 10
759.364152
 20
571.349816
 30
0.0
 11
759.364152
 21
570.599816
 31
0.0
  0
LINE
  5
139BB
330
13947
100
AcDbEntity
  8
1
  6
Continuous
100
AcDbLine
 10
752.3641519999999
 20
554.949816
 30
0.0
 11
752.3641519999999
 21
554.849816
 31
0.0
  0
LINE
  5
139BC
330
13947
100
AcDbEntity
  8
1
  6
Continuous
100
AcDbLine
 10
760.1641519999997
 20
571.849816
 30
0.0
 11
760.1641519999997
 21
551.849816
 31
0.0
  0
LINE
  5
139BD
330
13947
100
AcDbEntity
  8
1
  6
Continuous
100
AcDbLine
 10
761.7641519999997
 20
571.849816
 30
0.0
 11
761.7641519999997
 21
551.849816
 31
0.0
  0
LINE
  5
139BE
330
13947
100
AcDbEntity
  8
1
  6
Continuous
100
AcDbLine
 10
762.4641519999999
 20
569.4998159999999
 30
0.0
 11
762.4641519999999
 21
562.199816
 31
0.0
  0
LINE
  5
139BF
330
13947
100
AcDbEntity
  8
1
  6
Continuous
100
AcDbLine
 10
759.6641519999997
 20
561.099816
 30
0.0
 11
759.6641519999997
 21
570.599816
 31
0.0
  0
LINE
  5
139C0
330
13947
100
AcDbEntity
  8
1
  6
Continuous
100
AcDbLine
 10
760.1641519999997
 20
570.099816
 30
0.0
 11
760.1641519999997
 21
561.599816
 31
0.0
  0
LINE
  5
139C1
330
13947
100
AcDbEntity
  8
1
  6
Continuous
100
AcDbLine
 10
752.1641519999997
 20
576.349816
 30
0.0
 11
752.1641519999997
 21
555.349816
 31
0.0
  0
LINE
  5
139C2
330
13947
100
AcDbEntity
  8
4
  6
CENTER
100
AcDbLine
 10
764.4026740000001
 20
561.849816
 30
0.0
 11
757.4812709999998
 21
561.849816
 31
0.0
  0
LINE
  5
139C3
330
13947
100
AcDbEntity
  8
1
  6
Continuous
100
AcDbLine
 10
758.864152
 20
549.849816
 30
0.0
 11
752.8641519999998
 21
549.849816
 31
0.0
  0
LINE
  5
139C4
330
13947
100
AcDbEntity
  8
4
  6
CENTER
100
AcDbLine
 10
764.4026740000001
 20
565.849816
 30
0.0
 11
750.5948009999997
 21
565.849816
 31
0.0
  0
LINE
  5
139C5
330
13947
100
AcDbEntity
  8
4
  6
CENTER
100
AcDbLine
 10
747.1721539999997
 20
560.849816
 30
0.0
 11
760.8201659999997
 21
560.849816
 31
0.0
  0
ARC
  5
139C6
330
13947
100
AcDbEntity
  8
1
  6
Continuous
100
AcDbCircle
 10
758.864152
 20
550.349816
 30
0.0
 40
0.5
100
AcDbArc
 50
270.0
 51
0.0
  0
LINE
  5
139C7
330
13947
100
AcDbEntity
  8
1
  6
Continuous
100
AcDbLine
 10
761.7641519999997
 20
551.849816
 30
0.0
 11
760.1641519999997
 21
551.849816
 31
0.0
  0
LINE
  5
139C8
330
13947
100
AcDbEntity
  8
1
  6
Continuous
100
AcDbLine
 10
762.4641519999999
 20
562.199816
 30
0.0
 11
761.7641519999997
 21
562.899816
 31
0.0
  0
LINE
  5
139C9
330
13947
100
AcDbEntity
  8
1
  6
Continuous
100
AcDbLine
 10
759.6641519999997
 20
561.099816
 30
0.0
 11
760.1641519999997
 21
561.599816
 31
0.0
  0
LINE
  5
139CA
330
13947
100
AcDbEntity
  8
1
  6
Continuous
100
AcDbLine
 10
759.6641519999997
 20
561.099816
 30
0.0
 11
759.1641519999996
 21
561.099816
 31
0.0
  0
ARC
  5
139CB
330
13947
100
AcDbEntity
  8
1
  6
Continuous
100
AcDbCircle
 10
751.364152
 20
554.849816
 30
0.0
 40
1.6
100
AcDbArc
 50
180.0
 51
270.0
  0
LINE
  5
139CC
330
13947
100
AcDbEntity
  8
1
  6
Continuous
100
AcDbLine
 10
751.864152
 20
556.099816
 30
0.0
 11
751.864152
 21
565.599816
 31
0.0
  0
ARC
  5
139CD
330
13947
100
AcDbEntity
  8
1
  6
Continuous
100
AcDbCircle
 10
752.8641519999998
 20
550.349816
 30
0.0
 40
0.5
100
AcDbArc
 50
180.0
 51
270.0
  0
LINE
  5
139CE
330
13947
100
AcDbEntity
  8
1
  6
Continuous
100
AcDbLine
 10
751.864152
 20
556.099816
 30
0.0
 11
752.1641519999997
 21
556.099816
 31
0.0
  0
LINE
  5
139CF
330
13947
100
AcDbEntity
  8
1
  6
Continuous
100
AcDbLine
 10
751.864152
 20
556.099816
 30
0.0
 11
751.364152
 21
556.599816
 31
0.0
  0
LINE
  5
139D0
330
13947
100
AcDbEntity
  8
1
  6
Continuous
100
AcDbLine
 10
751.864152
 20
565.599816
 30
0.0
 11
752.1641519999997
 21
565.599816
 31
0.0
  0
LINE
  5
139D1
330
13947
100
AcDbEntity
  8
1
  6
Continuous
100
AcDbLine
 10
751.864152
 20
565.599816
 30
0.0
 11
751.364152
 21
565.099816
 31
0.0
  0
LINE
  5
139D2
330
13947
100
AcDbEntity
  8
1
  6
Continuous
100
AcDbLine
 10
751.364152
 20
554.849816
 30
0.0
 11
758.6641519999997
 21
554.849816
 31
0.0
  0
LINE
  5
139D3
330
13947
100
AcDbEntity
  8
1
  6
Continuous
100
AcDbLine
 10
751.364152
 20
553.249816
 30
0.0
 11
757.7641519999997
 21
553.249816
 31
0.0
  0
LINE
  5
139D4
330
13947
100
AcDbEntity
  8
1
  6
Continuous
100
AcDbLine
 10
749.0641519999996
 20
564.499816
 30
0.0
 11
749.7641519999997
 21
563.7998159999997
 31
0.0
  0
LINE
  5
139D5
330
13947
100
AcDbEntity
  8
1
  6
Continuous
100
AcDbLine
 10
749.0641519999996
 20
557.199816
 30
0.0
 11
749.7641519999997
 21
557.899816
 31
0.0
  0
LINE
  5
139D6
330
13947
100
AcDbEntity
  8
1
  6
Continuous
100
AcDbLine
 10
749.0641519999996
 20
564.499816
 30
0.0
 11
749.0641519999996
 21
557.199816
 31
0.0
  0
LINE
  5
139D7
330
13947
100
AcDbEntity
  8
1
  6
Continuous
100
AcDbLine
 10
761.7641519999997
 20
571.849816
 30
0.0
 11
759.1641519999996
 21
571.849816
 31
0.0
  0
LINE
  5
139D8
330
13947
100
AcDbEntity
  8
1
  6
Continuous
100
AcDbLine
 10
760.1641519999997
 20
573.4498160000002
 30
0.0
 11
759.1641519999996
 21
573.4498160000002
 31
0.0
  0
LINE
  5
139D9
330
13947
100
AcDbEntity
  8
1
  6
Continuous
100
AcDbLine
 10
752.6641519999997
 20
576.849816
 30
0.0
 11
758.6641519999997
 21
576.849816
 31
0.0
  0
ARC
  5
139DA
330
13947
100
AcDbEntity
  8
1
  6
Continuous
100
AcDbCircle
 10
758.864152
 20
571.349816
 30
0.0
 40
0.5
100
AcDbArc
 50
0.0
 51
53.130102
  0
ARC
  5
139DB
330
13947
100
AcDbEntity
  8
1
  6
Continuous
100
AcDbCircle
 10
760.1641519999997
 20
571.849816
 30
0.0
 40
1.6
100
AcDbArc
 50
0.0
 51
90.0
  0
LINE
  5
139DC
330
13947
100
AcDbEntity
  8
1
  6
Continuous
100
AcDbLine
 10
762.4641519999999
 20
569.4998159999999
 30
0.0
 11
761.7641519999997
 21
568.7998159999997
 31
0.0
  0
LINE
  5
139DD
330
13947
100
AcDbEntity
  8
1
  6
Continuous
100
AcDbLine
 10
759.6641519999997
 20
570.599816
 30
0.0
 11
760.1641519999997
 21
570.099816
 31
0.0
  0
ARC
  5
139DE
330
13947
100
AcDbEntity
  8
1
  6
Continuous
100
AcDbCircle
 10
758.6641519999997
 20
576.349816
 30
0.0
 40
0.5
100
AcDbArc
 50
0.0
 51
90.0
  0
LINE
  5
139DF
330
13947
100
AcDbEntity
  8
1
  6
Continuous
100
AcDbLine
 10
759.1641519999996
 20
576.349816
 30
0.0
 11
759.1641519999996
 21
555.349816
 31
0.0
  0
LINE
  5
139E0
330
13947
100
AcDbEntity
  8
1
  6
Continuous
100
AcDbLine
 10
759.6641519999997
 20
570.599816
 30
0.0
 11
759.1641519999996
 21
570.599816
 31
0.0
  0
ARC
  5
139E1
330
13947
100
AcDbEntity
  8
1
  6
Continuous
100
AcDbCircle
 10
751.364152
 20
577.849816
 30
0.0
 40
1.6
100
AcDbArc
 50
90.0
 51
180.0
  0
ARC
  5
139E2
330
13947
100
AcDbEntity
  8
1
  6
Continuous
100
AcDbCircle
 10
752.6641519999997
 20
576.349816
 30
0.0
 40
0.5
100
AcDbArc
 50
90.0
 51
180.0
  0
LINE
  5
139E3
330
13947
100
AcDbEntity
  8
4
  6
CENTER
100
AcDbLine
 10
754.2512849999996
 20
566.349816
 30
0.0
 11
747.329882
 21
566.349816
 31
0.0
  0
LINE
  5
139E4
330
13947
100
AcDbEntity
  8
1
  6
Continuous
100
AcDbLine
 10
757.7641519999997
 20
579.4498160000001
 30
0.0
 11
757.7641519999997
 21
577.849816
 31
0.0
  0
LINE
  5
139E5
330
13947
100
AcDbEntity
  8
1
  6
Continuous
100
AcDbLine
 10
751.364152
 20
579.4498160000001
 30
0.0
 11
757.7641519999997
 21
579.4498160000001
 31
0.0
  0
LINE
  5
139E6
330
13947
100
AcDbEntity
  8
1
  6
Continuous
100
AcDbLine
 10
751.364152
 20
577.849816
 30
0.0
 11
757.7641519999997
 21
577.849816
 31
0.0
  0
LINE
  5
139E7
330
13947
100
AcDbEntity
  8
1
  6
Continuous
100
AcDbLine
 10
757.7641519999997
 20
553.249816
 30
0.0
 11
757.7641519999997
 21
554.849816
 31
0.0
  0
ARC
  5
139E8
330
13947
100
AcDbEntity
  8
1
  6
Continuous
100
AcDbCircle
 10
752.6641519999997
 20
555.349816
 30
0.0
 40
0.5
100
AcDbArc
 50
180.0
 51
270.0
  0
ARC
  5
139E9
330
13947
100
AcDbEntity
  8
1
  6
Continuous
100
AcDbCircle
 10
758.6641519999997
 20
555.349816
 30
0.0
 40
0.5
100
AcDbArc
 50
270.0
 51
0.0
  0
LINE
  5
139EA
330
13947
100
AcDbEntity
  8
1
  6
Continuous
100
AcDbLine
 10
752.3641519999999
 20
553.249816
 30
0.0
 11
752.3641519999999
 21
550.349816
 31
0.0
  0
LINE
  5
139EB
330
13947
100
AcDbEntity
  8
1
  6
Continuous
100
AcDbLine
 10
759.364152
 20
561.099816
 30
0.0
 11
759.364152
 21
550.349816
 31
0.0
  0
LINE
  5
139EC
330
13947
100
AcDbEntity
  8
1
  6
Continuous
100
AcDbLine
 10
692.8820759999996
 20
667.849816
 30
0.0
 11
398.8820759999999
 21
667.849816
 31
0.0
  0
LINE
  5
139ED
330
13947
100
AcDbEntity
  8
1
  6
Continuous
100
AcDbLine
 10
695.882076
 20
659.849816
 30
0.0
 11
345.882076
 21
659.849816
 31
0.0
  0
LINE
  5
139EE
330
13947
100
AcDbEntity
  8
1
  6
Continuous
100
AcDbLine
 10
345.882076
 20
659.849816
 30
0.0
 11
345.882076
 21
661.4498160000001
 31
0.0
  0
LINE
  5
139EF
330
13947
100
AcDbEntity
  8
1
  6
Continuous
100
AcDbLine
 10
395.882076
 20
659.849816
 30
0.0
 11
395.882076
 21
664.849816
 31
0.0
  0
LINE
  5
139F0
330
13947
100
AcDbEntity
  8
1
  6
Continuous
100
AcDbLine
 10
395.882076
 20
661.4498160000001
 30
0.0
 11
345.882076
 21
661.4498160000001
 31
0.0
  0
ARC
  5
139F1
330
13947
100
AcDbEntity
  8
1
  6
Continuous
100
AcDbCircle
 10
398.8820759999999
 20
664.849816
 30
0.0
 40
3.0
100
AcDbArc
 50
90.0
 51
180.0
  0
LINE
  5
139F2
330
13947
100
AcDbEntity
  8
1
  6
Continuous
100
AcDbLine
 10
695.882076
 20
659.849816
 30
0.0
 11
695.882076
 21
664.849816
 31
0.0
  0
ARC
  5
139F3
330
13947
100
AcDbEntity
  8
1
  6
Continuous
100
AcDbCircle
 10
692.8820759999996
 20
664.849816
 30
0.0
 40
3.0
100
AcDbArc
 50
0.0
 51
90.0
  0
LINE
  5
139F4
330
13947
100
AcDbEntity
  8
1
  6
Continuous
100
AcDbLine
 10
367.8820759999999
 20
661.4498160000001
 30
0.0
 11
367.8820759999999
 21
663.849816
 31
0.0
  0
LINE
  5
139F5
330
13947
100
AcDbEntity
  8
4
  6
CENTER
100
AcDbLine
 10
356.8820759999999
 20
673.2695859999997
 30
0.0
 11
356.8820759999999
 21
655.349816
 31
0.0
  0
ARC
  5
139F6
330
13947
100
AcDbEntity
  8
1
  6
Continuous
100
AcDbCircle
 10
367.3820759999999
 20
662.9498160000001
 30
0.0
 40
0.5
100
AcDbArc
 50
270.0
 51
0.0
  0
LINE
  5
139F7
330
13947
100
AcDbEntity
  8
1
  6
Continuous
100
AcDbLine
 10
367.3820759999999
 20
662.4498160000001
 30
0.0
 11
346.3820759999999
 21
662.4498160000001
 31
0.0
  0
ARC
  5
139F8
330
13947
100
AcDbEntity
  8
1
  6
Continuous
100
AcDbCircle
 10
346.3820759999999
 20
662.9498160000001
 30
0.0
 40
0.5
100
AcDbArc
 50
180.0
 51
270.0
  0
LINE
  5
139F9
330
13947
100
AcDbEntity
  8
1
  6
Continuous
100
AcDbLine
 10
352.132076
 20
661.9498160000001
 30
0.0
 11
352.6320759999999
 21
661.4498160000001
 31
0.0
  0
LINE
  5
139FA
330
13947
100
AcDbEntity
  8
1
  6
Continuous
100
AcDbLine
 10
352.132076
 20
661.9498160000001
 30
0.0
 11
352.132076
 21
662.4498160000001
 31
0.0
  0
LINE
  5
139FB
330
13947
100
AcDbEntity
  8
1
  6
Continuous
100
AcDbLine
 10
361.6320759999999
 20
661.9498160000001
 30
0.0
 11
361.1320759999999
 21
661.4498160000001
 31
0.0
  0
LINE
  5
139FC
330
13947
100
AcDbEntity
  8
1
  6
Continuous
100
AcDbLine
 10
361.6320759999999
 20
661.9498160000001
 30
0.0
 11
361.6320759999999
 21
662.4498160000001
 31
0.0
  0
LINE
  5
139FD
330
13947
100
AcDbEntity
  8
1
  6
Continuous
100
AcDbLine
 10
352.132076
 20
661.9498160000001
 30
0.0
 11
361.6320759999999
 21
661.9498160000001
 31
0.0
  0
LINE
  5
139FE
330
13947
100
AcDbEntity
  8
1
  6
Continuous
100
AcDbLine
 10
360.5320759999998
 20
659.149816
 30
0.0
 11
353.2320759999998
 21
659.149816
 31
0.0
  0
LINE
  5
139FF
330
13947
100
AcDbEntity
  8
1
  6
Continuous
100
AcDbLine
 10
353.2320759999998
 20
659.149816
 30
0.0
 11
353.9320759999998
 21
659.849816
 31
0.0
  0
LINE
  5
13A00
330
13947
100
AcDbEntity
  8
1
  6
Continuous
100
AcDbLine
 10
360.5320759999998
 20
659.149816
 30
0.0
 11
359.832076
 21
659.849816
 31
0.0
  0
LINE
  5
13A01
330
13947
100
AcDbEntity
  8
1
  6
Continuous
100
AcDbLine
 10
345.882076
 20
662.9498160000001
 30
0.0
 11
345.882076
 21
663.849816
 31
0.0
  0
LINE
  5
13A02
330
13947
100
AcDbEntity
  8
4
  6
CENTER
100
AcDbLine
 10
365.8820759999999
 20
664.562335
 30
0.0
 11
365.8820759999999
 21
656.562335
 31
0.0
  0
LINE
  5
13A03
330
13947
100
AcDbEntity
  8
4
  6
CENTER
100
AcDbLine
 10
377.8820759999999
 20
664.562335
 30
0.0
 11
377.8820759999999
 21
656.562335
 31
0.0
  0
LINE
  5
13A04
330
13947
100
AcDbEntity
  8
4
  6
CENTER
100
AcDbLine
 10
477.882076
 20
664.562335
 30
0.0
 11
477.882076
 21
656.562335
 31
0.0
  0
LINE
  5
13A05
330
13947
100
AcDbEntity
  8
4
  6
CENTER
100
AcDbLine
 10
577.882076
 20
664.562335
 30
0.0
 11
577.882076
 21
656.562335
 31
0.0
  0
LINE
  5
13A06
330
13947
100
AcDbEntity
  8
4
  6
CENTER
100
AcDbLine
 10
677.882076
 20
664.562335
 30
0.0
 11
677.882076
 21
656.562335
 31
0.0
  0
LINE
  5
13A07
330
13947
100
AcDbEntity
  8
4
  6
CENTER
100
AcDbLine
 10
662.8820759999999
 20
664.562335
 30
0.0
 11
662.8820759999999
 21
656.562335
 31
0.0
  0
LINE
  5
13A08
330
13947
100
AcDbEntity
  8
1
  6
Continuous
100
AcDbLine
 10
395.882076
 20
752.249816
 30
0.0
 11
695.882076
 21
752.249816
 31
0.0
  0
LINE
  5
13A09
330
13947
100
AcDbEntity
  8
3
  6
DASHED
100
AcDbLine
 10
367.8820759999999
 20
778.449816
 30
0.0
 11
440.4197919999998
 21
778.449816
 31
0.0
  0
LINE
  5
13A0A
330
13947
100
AcDbEntity
  8
4
  6
CENTER
100
AcDbLine
 10
85.882076
 20
769.849816
 30
0.0
 11
445.882076
 21
769.849816
 31
0.0
  0
LINE
  5
13A0B
330
13947
100
AcDbEntity
  8
4
  6
CENTER
100
AcDbLine
 10
340.8820759999999
 20
765.349816
 30
0.0
 11
700.8820759999996
 21
765.349816
 31
0.0
  0
LINE
  5
13A0C
330
13947
100
AcDbEntity
  8
3
  6
DASHED
100
AcDbLine
 10
345.882076
 20
776.849816
 30
0.0
 11
345.882076
 21
758.249816
 31
0.0
  0
LINE
  5
13A0D
330
13947
100
AcDbEntity
  8
4
  6
CENTER
100
AcDbLine
 10
577.882076
 20
771.349816
 30
0.0
 11
577.882076
 21
759.349816
 31
0.0
  0
LINE
  5
13A0E
330
13947
100
AcDbEntity
  8
4
  6
CENTER
100
AcDbLine
 10
477.882076
 20
771.349816
 30
0.0
 11
477.882076
 21
759.349816
 31
0.0
  0
LINE
  5
13A0F
330
13947
100
AcDbEntity
  8
4
  6
CENTER
100
AcDbLine
 10
377.8820759999999
 20
771.349816
 30
0.0
 11
377.8820759999999
 21
759.349816
 31
0.0
  0
LINE
  5
13A10
330
13947
100
AcDbEntity
  8
4
  6
CENTER
100
AcDbLine
 10
365.8820759999999
 20
761.349816
 30
0.0
 11
365.8820759999999
 21
769.349816
 31
0.0
  0
LINE
  5
13A11
330
13947
100
AcDbEntity
  8
4
  6
CENTER
100
AcDbLine
 10
356.8820759999999
 20
756.849816
 30
0.0
 11
356.8820759999999
 21
784.849816
 31
0.0
  0
ARC
  5
13A12
330
13947
100
AcDbEntity
  8
1
  6
Continuous
100
AcDbCircle
 10
356.8820759999999
 20
770.849816
 30
0.0
 40
11.0
100
AcDbArc
 50
54.903199
 51
125.096801
  0
LINE
  5
13A13
330
13947
100
AcDbEntity
  8
4
  6
CENTER
100
AcDbLine
 10
370.882076
 20
770.849816
 30
0.0
 11
342.8820759999999
 21
770.849816
 31
0.0
  0
ARC
  5
13A14
330
13947
100
AcDbEntity
  8
1
  6
Continuous
100
AcDbCircle
 10
348.8820759999999
 20
756.849816
 30
0.0
 40
3.0
100
AcDbArc
 50
180.0
 51
270.0
  0
LINE
  5
13A15
330
13947
100
AcDbEntity
  8
1
  6
Continuous
100
AcDbLine
 10
395.882076
 20
753.849816
 30
0.0
 11
395.882076
 21
752.249816
 31
0.0
  0
LINE
  5
13A16
330
13947
100
AcDbEntity
  8
1
  6
Continuous
100
AcDbLine
 10
695.882076
 20
778.449816
 30
0.0
 11
695.882076
 21
752.249816
 31
0.0
  0
LINE
  5
13A17
330
13947
100
AcDbEntity
  8
4
  6
CENTER
100
AcDbLine
 10
662.8820759999999
 20
769.849816
 30
0.0
 11
662.8820759999999
 21
760.849816
 31
0.0
  0
LINE
  5
13A18
330
13947
100
AcDbEntity
  8
4
  6
CENTER
100
AcDbLine
 10
677.882076
 20
771.349816
 30
0.0
 11
677.882076
 21
759.349816
 31
0.0
  0
LINE
  5
13A19
330
13947
100
AcDbEntity
  8
1
  6
Continuous
100
AcDbLine
 10
348.8820759999999
 20
753.849816
 30
0.0
 11
695.882076
 21
753.849816
 31
0.0
  0
LINE
  5
13A1A
330
13947
100
AcDbEntity
  8
1
  6
Continuous
100
AcDbLine
 10
93.88207599999999
 20
779.849816
 30
0.0
 11
437.8820759999999
 21
779.849816
 31
0.0
  0
ARC
  5
13A1B
330
13947
100
AcDbEntity
  8
1
  6
Continuous
100
AcDbCircle
 10
93.88207599999999
 20
776.849816
 30
0.0
 40
3.0
100
AcDbArc
 50
90.0
 51
180.0
  0
LINE
  5
13A1C
330
13947
100
AcDbEntity
  8
1
  6
Continuous
100
AcDbLine
 10
90.882076
 20
776.849816
 30
0.0
 11
90.882076
 21
758.249816
 31
0.0
  0
LINE
  5
13A1D
330
13947
100
AcDbEntity
  8
1
  6
Continuous
100
AcDbLine
 10
90.882076
 20
758.249816
 30
0.0
 11
359.8820759999999
 21
758.249816
 31
0.0
  0
LINE
  5
13A1E
330
13947
100
AcDbEntity
  8
1
  6
Continuous
100
AcDbLine
 10
359.8820759999999
 20
760.249816
 30
0.0
 11
373.8820759999999
 21
760.249816
 31
0.0
  0
LINE
  5
13A1F
330
13947
100
AcDbEntity
  8
1
  6
Continuous
100
AcDbLine
 10
359.8820759999999
 20
758.249816
 30
0.0
 11
359.8820759999999
 21
760.249816
 31
0.0
  0
LINE
  5
13A20
330
13947
100
AcDbEntity
  8
1
  6
Continuous
100
AcDbLine
 10
360.705606
 20
760.249816
 30
0.0
 11
359.8820759999999
 21
759.849816
 31
0.0
  0
LINE
  5
13A21
330
13947
100
AcDbEntity
  8
1
  6
Continuous
100
AcDbLine
 10
363.999723
 20
760.249816
 30
0.0
 11
359.8820759999999
 21
758.249816
 31
0.0
  0
LINE
  5
13A22
330
13947
100
AcDbEntity
  8
1
  6
Continuous
100
AcDbLine
 10
373.8820759999999
 20
758.249816
 30
0.0
 11
373.8820759999999
 21
760.249816
 31
0.0
  0
LINE
  5
13A23
330
13947
100
AcDbEntity
  8
1
  6
Continuous
100
AcDbLine
 10
373.0585469999998
 20
760.249816
 30
0.0
 11
373.8820759999999
 21
759.849816
 31
0.0
  0
LINE
  5
13A24
330
13947
100
AcDbEntity
  8
1
  6
Continuous
100
AcDbLine
 10
369.7644289999999
 20
760.249816
 30
0.0
 11
373.8820759999999
 21
758.249816
 31
0.0
  0
LINE
  5
13A25
330
13947
100
AcDbEntity
  8
1
  6
Continuous
100
AcDbLine
 10
373.8820759999999
 20
758.249816
 30
0.0
 11
418.8820759999998
 21
758.249816
 31
0.0
  0
LINE
  5
13A26
330
13947
100
AcDbEntity
  8
1
  6
Continuous
100
AcDbLine
 10
418.8820759999998
 20
759.849816
 30
0.0
 11
437.8820759999999
 21
759.849816
 31
0.0
  0
LINE
  5
13A27
330
13947
100
AcDbEntity
  8
1
  6
Continuous
100
AcDbLine
 10
418.8820759999998
 20
759.849816
 30
0.0
 11
418.8820759999998
 21
758.249816
 31
0.0
  0
ARC
  5
13A28
330
13947
100
AcDbEntity
  8
1
  6
Continuous
100
AcDbCircle
 10
437.8820759999999
 20
762.849816
 30
0.0
 40
3.0
100
AcDbArc
 50
270.0
 51
0.0
  0
ARC
  5
13A29
330
13947
100
AcDbEntity
  8
1
  6
Continuous
100
AcDbCircle
 10
437.8820759999999
 20
776.849816
 30
0.0
 40
3.0
100
AcDbArc
 50
0.0
 51
90.0
  0
ARC
  5
13A2A
330
13947
100
AcDbEntity
  8
1
  6
Continuous
100
AcDbCircle
 10
429.8820759999999
 20
765.849816
 30
0.0
 40
11.0
100
AcDbArc
 50
213.0557309999999
 51
329.2484979999999
  0
CIRCLE
  5
13A2B
330
13947
100
AcDbEntity
  8
1
  6
Continuous
100
AcDbCircle
 10
429.8820759999999
 20
765.849816
 30
0.0
 40
3.649999999999999
  0
LINE
  5
13A2C
330
13947
100
AcDbEntity
  8
4
  6
CENTER
100
AcDbLine
 10
416.1179279999998
 20
765.849816
 30
0.0
 11
443.8024429999998
 21
765.849816
 31
0.0
  0
LINE
  5
13A2D
330
13947
100
AcDbEntity
  8
4
  6
CENTER
100
AcDbLine
 10
429.8820759999999
 20
775.5502759999997
 30
0.0
 11
429.8820759999999
 21
756.149356
 31
0.0
  0
CIRCLE
  5
13A2E
330
13947
100
AcDbEntity
  8
1
  6
Continuous
100
AcDbCircle
 10
420.882076
 20
769.849816
 30
0.0
 40
2.0
  0
LINE
  5
13A2F
330
13947
100
AcDbEntity
  8
4
  6
CENTER
100
AcDbLine
 10
420.882076
 20
774.349816
 30
0.0
 11
420.882076
 21
765.349816
 31
0.0
  0
LINE
  5
13A30
330
13947
100
AcDbEntity
  8
4
  6
CENTER
100
AcDbLine
 10
408.8820759999999
 20
775.849816
 30
0.0
 11
408.8820759999999
 21
763.849816
 31
0.0
  0
CIRCLE
  5
13A31
330
13947
100
AcDbEntity
  8
1
  6
Continuous
100
AcDbCircle
 10
408.8820759999999
 20
769.849816
 30
0.0
 40
3.0
  0
LINE
  5
13A32
330
13947
100
AcDbEntity
  8
4
  6
CENTER
100
AcDbLine
 10
308.8820759999999
 20
775.849816
 30
0.0
 11
308.8820759999999
 21
763.849816
 31
0.0
  0
CIRCLE
  5
13A33
330
13947
100
AcDbEntity
  8
1
  6
Continuous
100
AcDbCircle
 10
308.8820759999999
 20
769.849816
 30
0.0
 40
3.0
  0
LINE
  5
13A34
330
13947
100
AcDbEntity
  8
4
  6
CENTER
100
AcDbLine
 10
208.8820759999999
 20
775.849816
 30
0.0
 11
208.8820759999999
 21
763.849816
 31
0.0
  0
CIRCLE
  5
13A35
330
13947
100
AcDbEntity
  8
1
  6
Continuous
100
AcDbCircle
 10
208.8820759999999
 20
769.849816
 30
0.0
 40
3.0
  0
CIRCLE
  5
13A36
330
13947
100
AcDbEntity
  8
1
  6
Continuous
100
AcDbCircle
 10
108.8820759999999
 20
769.849816
 30
0.0
 40
3.0
  0
LINE
  5
13A37
330
13947
100
AcDbEntity
  8
4
  6
CENTER
100
AcDbLine
 10
108.8820759999999
 20
775.849816
 30
0.0
 11
108.8820759999999
 21
763.849816
 31
0.0
  0
CIRCLE
  5
13A38
330
13947
100
AcDbEntity
  8
1
  6
Continuous
100
AcDbCircle
 10
123.882076
 20
769.849816
 30
0.0
 40
2.0
  0
LINE
  5
13A39
330
13947
100
AcDbEntity
  8
4
  6
CENTER
100
AcDbLine
 10
123.882076
 20
765.849816
 30
0.0
 11
123.882076
 21
773.849816
 31
0.0
  0
LINE
  5
13A3A
330
13947
100
AcDbEntity
  8
1
  6
Continuous
100
AcDbLine
 10
440.882076
 20
776.849816
 30
0.0
 11
440.882076
 21
762.849816
 31
0.0
  0
LINE
  5
13A3B
330
13947
100
AcDbEntity
  8
1
  6
Continuous
100
AcDbLine
 10
90.882076
 20
573.4498160000002
 30
0.0
 11
345.882076
 21
573.4498160000002
 31
0.0
  0
LINE
  5
13A3C
330
13947
100
AcDbEntity
  8
1
  6
Continuous
100
AcDbLine
 10
93.88207599999999
 20
551.849816
 30
0.0
 11
350.5575209999999
 21
551.849816
 31
0.0
  0
CIRCLE
  5
13A3D
330
13947
100
AcDbEntity
  8
1
  6
Continuous
100
AcDbCircle
 10
123.882076
 20
561.849816
 30
0.0
 40
2.0
  0
LINE
  5
13A3E
330
13947
100
AcDbEntity
  8
1
  6
Continuous
100
AcDbLine
 10
90.882076
 20
554.849816
 30
0.0
 11
90.882076
 21
573.4498160000002
 31
0.0
  0
LINE
  5
13A3F
330
13947
100
AcDbEntity
  8
4
  6
CENTER
100
AcDbLine
 10
123.882076
 20
565.849816
 30
0.0
 11
123.882076
 21
557.849816
 31
0.0
  0
ARC
  5
13A40
330
13947
100
AcDbEntity
  8
1
  6
Continuous
100
AcDbCircle
 10
93.88207599999999
 20
554.849816
 30
0.0
 40
3.0
100
AcDbArc
 50
180.0
 51
270.0
  0
CIRCLE
  5
13A41
330
13947
100
AcDbEntity
  8
1
  6
Continuous
100
AcDbCircle
 10
108.8820759999999
 20
561.849816
 30
0.0
 40
3.0
  0
LINE
  5
13A42
330
13947
100
AcDbEntity
  8
4
  6
CENTER
100
AcDbLine
 10
108.8820759999999
 20
555.849816
 30
0.0
 11
108.8820759999999
 21
567.849816
 31
0.0
  0
CIRCLE
  5
13A43
330
13947
100
AcDbEntity
  8
1
  6
Continuous
100
AcDbCircle
 10
208.8820759999999
 20
561.849816
 30
0.0
 40
3.0
  0
LINE
  5
13A44
330
13947
100
AcDbEntity
  8
4
  6
CENTER
100
AcDbLine
 10
208.8820759999999
 20
555.849816
 30
0.0
 11
208.8820759999999
 21
567.849816
 31
0.0
  0
CIRCLE
  5
13A45
330
13947
100
AcDbEntity
  8
1
  6
Continuous
100
AcDbCircle
 10
308.8820759999999
 20
561.849816
 30
0.0
 40
3.0
  0
LINE
  5
13A46
330
13947
100
AcDbEntity
  8
4
  6
CENTER
100
AcDbLine
 10
308.8820759999999
 20
555.849816
 30
0.0
 11
308.8820759999999
 21
567.849816
 31
0.0
  0
CIRCLE
  5
13A47
330
13947
100
AcDbEntity
  8
1
  6
Continuous
100
AcDbCircle
 10
108.8820759999999
 20
561.849816
 30
0.0
 40
4.299999999999998
  0
CIRCLE
  5
13A48
330
13947
100
AcDbEntity
  8
1
  6
Continuous
100
AcDbCircle
 10
208.8820759999999
 20
561.849816
 30
0.0
 40
4.299999999999998
  0
CIRCLE
  5
13A49
330
13947
100
AcDbEntity
  8
1
  6
Continuous
100
AcDbCircle
 10
308.8820759999999
 20
561.849816
 30
0.0
 40
4.299999999999998
  0
LINE
  5
13A4A
330
13947
100
AcDbEntity
  8
1
  6
Continuous
100
AcDbLine
 10
90.882076
 20
571.849816
 30
0.0
 11
345.882076
 21
571.849816
 31
0.0
  0
LINE
  5
13A4B
330
13947
100
AcDbEntity
  8
1
  6
Continuous
100
AcDbLine
 10
345.882076
 20
758.249816
 30
0.0
 11
345.882076
 21
756.849816
 31
0.0
  0
LINE
  5
13A4C
330
13947
100
AcDbEntity
  8
3
  6
DASHED
100
AcDbLine
 10
367.8820759999999
 20
778.449816
 30
0.0
 11
367.8820759999999
 21
776.849816
 31
0.0
  0
LINE
  5
13A4D
330
13947
100
AcDbEntity
  8
3
  6
DASHED
100
AcDbLine
 10
345.882076
 20
776.849816
 30
0.0
 11
440.882076
 21
776.849816
 31
0.0
  0
LINE
  5
13A4E
330
13947
100
AcDbEntity
  8
1
  6
Continuous
100
AcDbLine
 10
440.4197919999998
 20
778.449816
 30
0.0
 11
695.882076
 21
778.449816
 31
0.0
  0
LINE
  5
13A4F
330
13947
100
AcDbEntity
  8
1
  6
Continuous
100
AcDbLine
 10
440.882076
 20
776.849816
 30
0.0
 11
695.882076
 21
776.849816
 31
0.0
  0
CIRCLE
  5
13A50
330
13947
100
AcDbEntity
  8
1
  6
Continuous
100
AcDbCircle
 10
662.8820759999999
 20
765.349816
 30
0.0
 40
2.0
  0
CIRCLE
  5
13A51
330
13947
100
AcDbEntity
  8
1
  6
Continuous
100
AcDbCircle
 10
677.882076
 20
765.349816
 30
0.0
 40
3.0
  0
CIRCLE
  5
13A52
330
13947
100
AcDbEntity
  8
1
  6
Continuous
100
AcDbCircle
 10
677.882076
 20
765.349816
 30
0.0
 40
4.299999999999998
  0
CIRCLE
  5
13A53
330
13947
100
AcDbEntity
  8
1
  6
Continuous
100
AcDbCircle
 10
577.882076
 20
765.349816
 30
0.0
 40
4.299999999999998
  0
CIRCLE
  5
13A54
330
13947
100
AcDbEntity
  8
1
  6
Continuous
100
AcDbCircle
 10
577.882076
 20
765.349816
 30
0.0
 40
3.0
  0
CIRCLE
  5
13A55
330
13947
100
AcDbEntity
  8
1
  6
Continuous
100
AcDbCircle
 10
477.882076
 20
765.349816
 30
0.0
 40
3.0
  0
CIRCLE
  5
13A56
330
13947
100
AcDbEntity
  8
1
  6
Continuous
100
AcDbCircle
 10
477.882076
 20
765.349816
 30
0.0
 40
4.299999999999998
  0
LINE
  5
13A57
330
13947
100
AcDbEntity
  8
1
  6
Continuous
100
AcDbLine
 10
440.882076
 20
671.849816
 30
0.0
 11
90.882076
 21
671.849816
 31
0.0
  0
LINE
  5
13A58
330
13947
100
AcDbEntity
  8
1
  6
Continuous
100
AcDbLine
 10
440.882076
 20
670.249816
 30
0.0
 11
418.8820759999998
 21
670.249816
 31
0.0
  0
LINE
  5
13A59
330
13947
100
AcDbEntity
  8
1
  6
Continuous
100
AcDbLine
 10
440.882076
 20
670.249816
 30
0.0
 11
440.882076
 21
671.849816
 31
0.0
  0
LINE
  5
13A5A
330
13947
100
AcDbEntity
  8
1
  6
Continuous
100
AcDbLine
 10
440.382076
 20
669.249816
 30
0.0
 11
419.3820759999998
 21
669.249816
 31
0.0
  0
ARC
  5
13A5B
330
13947
100
AcDbEntity
  8
1
  6
Continuous
100
AcDbCircle
 10
440.382076
 20
668.749816
 30
0.0
 40
0.5
100
AcDbArc
 50
0.0
 51
90.0
  0
LINE
  5
13A5C
330
13947
100
AcDbEntity
  8
1
  6
Continuous
100
AcDbLine
 10
440.882076
 20
667.849816
 30
0.0
 11
440.882076
 21
668.749816
 31
0.0
  0
LINE
  5
13A5D
330
13947
100
AcDbEntity
  8
3
  6
DASHED
100
AcDbLine
 10
418.8820759999998
 20
666.849816
 30
0.0
 11
418.8820759999998
 21
667.849816
 31
0.0
  0
ARC
  5
13A5E
330
13947
100
AcDbEntity
  8
1
  6
Continuous
100
AcDbCircle
 10
419.3820759999998
 20
668.749816
 30
0.0
 40
0.5
100
AcDbArc
 50
90.0
 51
180.0
  0
LINE
  5
13A5F
330
13947
100
AcDbEntity
  8
4
  6
CENTER
100
AcDbLine
 10
420.882076
 20
675.046399
 30
0.0
 11
420.882076
 21
667.046399
 31
0.0
  0
LINE
  5
13A60
330
13947
100
AcDbEntity
  8
4
  6
CENTER
100
AcDbLine
 10
408.8820759999999
 20
675.046399
 30
0.0
 11
408.8820759999999
 21
667.046399
 31
0.0
  0
LINE
  5
13A61
330
13947
100
AcDbEntity
  8
4
  6
CENTER
100
AcDbLine
 10
429.8820759999999
 20
658.395608
 30
0.0
 11
429.8820759999999
 21
676.349816
 31
0.0
  0
LINE
  5
13A62
330
13947
100
AcDbEntity
  8
1
  6
Continuous
100
AcDbLine
 10
425.1320759999998
 20
669.749816
 30
0.0
 11
425.1320759999998
 21
669.249816
 31
0.0
  0
LINE
  5
13A63
330
13947
100
AcDbEntity
  8
1
  6
Continuous
100
AcDbLine
 10
434.632076
 20
669.749816
 30
0.0
 11
434.632076
 21
669.249816
 31
0.0
  0
LINE
  5
13A64
330
13947
100
AcDbEntity
  8
1
  6
Continuous
100
AcDbLine
 10
433.532076
 20
672.5498159999999
 30
0.0
 11
432.8320759999998
 21
671.849816
 31
0.0
  0
LINE
  5
13A65
330
13947
100
AcDbEntity
  8
1
  6
Continuous
100
AcDbLine
 10
426.2320759999998
 20
672.5498159999999
 30
0.0
 11
426.932076
 21
671.849816
 31
0.0
  0
LINE
  5
13A66
330
13947
100
AcDbEntity
  8
1
  6
Continuous
100
AcDbLine
 10
433.532076
 20
672.5498159999999
 30
0.0
 11
426.2320759999998
 21
672.5498159999999
 31
0.0
  0
LINE
  5
13A67
330
13947
100
AcDbEntity
  8
1
  6
Continuous
100
AcDbLine
 10
425.1320759999998
 20
669.749816
 30
0.0
 11
434.632076
 21
669.749816
 31
0.0
  0
LINE
  5
13A68
330
13947
100
AcDbEntity
  8
1
  6
Continuous
100
AcDbLine
 10
425.1320759999998
 20
669.749816
 30
0.0
 11
425.6320759999998
 21
670.249816
 31
0.0
  0
LINE
  5
13A69
330
13947
100
AcDbEntity
  8
1
  6
Continuous
100
AcDbLine
 10
434.632076
 20
669.749816
 30
0.0
 11
434.132076
 21
670.249816
 31
0.0
  0
LINE
  5
13A6A
330
13947
100
AcDbEntity
  8
1
  6
Continuous
100
AcDbLine
 10
366.882076
 20
669.849816
 30
0.0
 11
366.882076
 21
663.849816
 31
0.0
  0
LINE
  5
13A6B
330
13947
100
AcDbEntity
  8
1
  6
Continuous
100
AcDbLine
 10
359.8820759999999
 20
663.849816
 30
0.0
 11
359.8820759999999
 21
671.849816
 31
0.0
  0
LINE
  5
13A6C
330
13947
100
AcDbEntity
  8
1
  6
Continuous
100
AcDbLine
 10
373.8820759999999
 20
663.849816
 30
0.0
 11
373.8820759999999
 21
671.849816
 31
0.0
  0
LINE
  5
13A6D
330
13947
100
AcDbEntity
  8
4
  6
CENTER
100
AcDbLine
 10
366.882076
 20
663.296925
 30
0.0
 11
366.882076
 21
674.8831199999997
 31
0.0
  0
LINE
  5
13A6E
330
13947
100
AcDbEntity
  8
1
  6
Continuous
100
AcDbLine
 10
373.8820759999999
 20
669.849816
 30
0.0
 11
359.8820759999999
 21
669.849816
 31
0.0
  0
LINE
  5
13A6F
330
13947
100
AcDbEntity
  8
1
  6
Continuous
100
AcDbLine
 10
373.8820759999999
 20
670.249816
 30
0.0
 11
359.8820759999999
 21
670.249816
 31
0.0
  0
LINE
  5
13A70
330
13947
100
AcDbEntity
  8
4
  6
CENTER
100
AcDbLine
 10
308.8820759999999
 20
675.046399
 30
0.0
 11
308.8820759999999
 21
667.046399
 31
0.0
  0
LINE
  5
13A71
330
13947
100
AcDbEntity
  8
4
  6
CENTER
100
AcDbLine
 10
208.8820759999999
 20
675.046399
 30
0.0
 11
208.8820759999999
 21
667.046399
 31
0.0
  0
LINE
  5
13A72
330
13947
100
AcDbEntity
  8
4
  6
CENTER
100
AcDbLine
 10
108.8820759999999
 20
675.046399
 30
0.0
 11
108.8820759999999
 21
667.046399
 31
0.0
  0
LINE
  5
13A73
330
13947
100
AcDbEntity
  8
4
  6
CENTER
100
AcDbLine
 10
123.882076
 20
675.046399
 30
0.0
 11
123.882076
 21
667.046399
 31
0.0
  0
LINE
  5
13A74
330
13947
100
AcDbEntity
  8
3
  6
DASHED
100
AcDbLine
 10
415.882076
 20
663.849816
 30
0.0
 11
395.882076
 21
663.849816
 31
0.0
  0
ARC
  5
13A75
330
13947
100
AcDbEntity
  8
1
  6
Continuous
100
AcDbCircle
 10
93.88207599999999
 20
666.849816
 30
0.0
 40
3.0
100
AcDbArc
 50
180.0
 51
270.0
  0
LINE
  5
13A76
330
13947
100
AcDbEntity
  8
1
  6
Continuous
100
AcDbLine
 10
90.882076
 20
666.849816
 30
0.0
 11
90.882076
 21
671.849816
 31
0.0
  0
ARC
  5
13A77
330
13947
100
AcDbEntity
  8
3
  6
DASHED
100
AcDbCircle
 10
415.882076
 20
666.849816
 30
0.0
 40
3.0
100
AcDbArc
 50
270.0
 51
0.0
  0
LINE
  5
13A78
330
13947
100
AcDbEntity
  8
1
  6
Continuous
100
AcDbLine
 10
418.8820759999998
 20
667.849816
 30
0.0
 11
418.8820759999998
 21
671.849816
 31
0.0
  0
LINE
  5
13A79
330
13947
100
AcDbEntity
  8
1
  6
Continuous
100
AcDbLine
 10
395.882076
 20
663.849816
 30
0.0
 11
93.88207599999999
 21
663.849816
 31
0.0
  0
LINE
  5
13A7A
330
13947
100
AcDbEntity
  8
4
  6
CENTER
100
AcDbLine
 10
366.882076
 20
755.430289
 30
0.0
 11
366.882076
 21
764.095005
 31
0.0
  0
LINE
  5
13A7B
330
13947
100
AcDbEntity
  8
1
  6
Continuous
100
AcDbLine
 10
345.882076
 20
557.849816
 30
0.0
 11
345.882076
 21
574.849816
 31
0.0
  0
LINE
  5
13A7C
330
13947
100
AcDbEntity
  8
3
  6
DASHED
100
AcDbLine
 10
373.8820759999999
 20
573.4498160000002
 30
0.0
 11
418.8820759999998
 21
573.4498160000002
 31
0.0
  0
LINE
  5
13A7D
330
13947
100
AcDbEntity
  8
3
  6
DASHED
100
AcDbLine
 10
359.8820759999999
 20
571.4498160000001
 30
0.0
 11
360.705606
 21
571.4498160000001
 31
0.0
  0
LINE
  5
13A7E
330
13947
100
AcDbEntity
  8
3
  6
DASHED
100
AcDbLine
 10
359.8820759999999
 20
571.849816
 30
0.0
 11
359.8820759999999
 21
571.4498160000001
 31
0.0
  0
LINE
  5
13A7F
330
13947
100
AcDbEntity
  8
3
  6
DASHED
100
AcDbLine
 10
366.882076
 20
568.4498160000003
 30
0.0
 11
359.8820759999999
 21
571.849816
 31
0.0
  0
LINE
  5
13A80
330
13947
100
AcDbEntity
  8
3
  6
DASHED
100
AcDbLine
 10
366.882076
 20
570.0498159999997
 30
0.0
 11
359.8820759999999
 21
573.4498160000002
 31
0.0
  0
LINE
  5
13A81
330
13947
100
AcDbEntity
  8
3
  6
DASHED
100
AcDbLine
 10
373.8820759999999
 20
571.849816
 30
0.0
 11
373.8820759999999
 21
571.4498160000001
 31
0.0
  0
LINE
  5
13A82
330
13947
100
AcDbEntity
  8
3
  6
DASHED
100
AcDbLine
 10
366.882076
 20
568.4498160000003
 30
0.0
 11
373.8820759999999
 21
571.849816
 31
0.0
  0
LINE
  5
13A83
330
13947
100
AcDbEntity
  8
3
  6
DASHED
100
AcDbLine
 10
366.882076
 20
570.0498159999997
 30
0.0
 11
373.8820759999999
 21
573.4498160000002
 31
0.0
  0
LINE
  5
13A84
330
13947
100
AcDbEntity
  8
3
  6
DASHED
100
AcDbLine
 10
418.8820759999998
 20
571.849816
 30
0.0
 11
418.8820759999998
 21
573.4498160000002
 31
0.0
  0
ARC
  5
13A85
330
13947
100
AcDbEntity
  8
3
  6
DASHED
100
AcDbCircle
 10
437.8820759999999
 20
568.849816
 30
0.0
 40
3.0
100
AcDbArc
 50
0.0
 51
61.024143
  0
LINE
  5
13A86
330
13947
100
AcDbEntity
  8
3
  6
DASHED
100
AcDbLine
 10
440.882076
 20
554.849816
 30
0.0
 11
440.882076
 21
568.849816
 31
0.0
  0
LINE
  5
13A87
330
13947
100
AcDbEntity
  8
1
  6
Continuous
100
AcDbLine
 10
363.206631
 20
551.849816
 30
0.0
 11
437.8820759999999
 21
551.849816
 31
0.0
  0
ARC
  5
13A88
330
13947
100
AcDbEntity
  8
1
  6
Continuous
100
AcDbCircle
 10
437.8820759999999
 20
554.849816
 30
0.0
 40
3.0
100
AcDbArc
 50
270.0
 51
327.769047
  0
ARC
  5
13A89
330
13947
100
AcDbEntity
  8
3
  6
DASHED
100
AcDbCircle
 10
437.8820759999999
 20
554.849816
 30
0.0
 40
3.0
100
AcDbArc
 50
327.769047
 51
0.0
  0
CIRCLE
  5
13A8A
330
13947
100
AcDbEntity
  8
3
  6
DASHED
100
AcDbCircle
 10
429.8820759999999
 20
565.849816
 30
0.0
 40
11.0
  0
LINE
  5
13A8B
330
13947
100
AcDbEntity
  8
3
  6
DASHED
100
AcDbLine
 10
345.882076
 20
573.4498160000002
 30
0.0
 11
359.8820759999999
 21
573.4498160000002
 31
0.0
  0
LINE
  5
13A8C
330
13947
100
AcDbEntity
  8
3
  6
DASHED
100
AcDbLine
 10
373.0585469999998
 20
571.4498160000001
 30
0.0
 11
373.8820759999999
 21
571.4498160000001
 31
0.0
  0
LINE
  5
13A8D
330
13947
100
AcDbEntity
  8
3
  6
DASHED
100
AcDbLine
 10
363.999723
 20
571.4498160000001
 30
0.0
 11
369.7644289999999
 21
571.4498160000001
 31
0.0
  0
LINE
  5
13A8E
330
13947
100
AcDbEntity
  8
3
  6
DASHED
100
AcDbLine
 10
345.882076
 20
571.849816
 30
0.0
 11
359.8820759999999
 21
571.849816
 31
0.0
  0
LINE
  5
13A8F
330
13947
100
AcDbEntity
  8
3
  6
DASHED
100
AcDbLine
 10
373.8820759999999
 20
571.849816
 30
0.0
 11
420.662532
 21
571.849816
 31
0.0
  0
LINE
  5
13A90
330
13947
100
AcDbEntity
  8
4
  6
CENTER
100
AcDbLine
 10
429.8820759999999
 20
551.849816
 30
0.0
 11
429.8820759999999
 21
579.849816
 31
0.0
  0
LINE
  5
13A91
330
13947
100
AcDbEntity
  8
1
  6
Continuous
100
AcDbLine
 10
695.882076
 20
471.4498159999997
 30
0.0
 11
345.882076
 21
471.4498159999997
 31
0.0
  0
LINE
  5
13A92
330
13947
100
AcDbEntity
  8
1
  6
Continuous
100
AcDbLine
 10
692.8820759999996
 20
463.4498159999998
 30
0.0
 11
370.882076
 21
463.4498159999998
 31
0.0
  0
LINE
  5
13A93
330
13947
100
AcDbEntity
  8
1
  6
Continuous
100
AcDbLine
 10
345.882076
 20
467.4498159999997
 30
0.0
 11
93.88207599999999
 21
467.4498159999997
 31
0.0
  0
LINE
  5
13A94
330
13947
100
AcDbEntity
  8
1
  6
Continuous
100
AcDbLine
 10
440.882076
 20
459.4498159999998
 30
0.0
 11
90.882076
 21
459.4498159999998
 31
0.0
  0
LINE
  5
13A95
330
13947
100
AcDbEntity
  8
1
  6
Continuous
100
AcDbLine
 10
90.882076
 20
464.449816
 30
0.0
 11
90.882076
 21
459.4498159999998
 31
0.0
  0
ARC
  5
13A96
330
13947
100
AcDbEntity
  8
1
  6
Continuous
100
AcDbCircle
 10
93.88207599999999
 20
464.449816
 30
0.0
 40
3.0
100
AcDbArc
 50
90.0
 51
180.0
  0
LINE
  5
13A97
330
13947
100
AcDbEntity
  8
4
  6
CENTER
100
AcDbLine
 10
123.882076
 20
456.253233
 30
0.0
 11
123.882076
 21
464.253233
 31
0.0
  0
LINE
  5
13A98
330
13947
100
AcDbEntity
  8
4
  6
CENTER
100
AcDbLine
 10
108.8820759999999
 20
456.253233
 30
0.0
 11
108.8820759999999
 21
464.253233
 31
0.0
  0
LINE
  5
13A99
330
13947
100
AcDbEntity
  8
4
  6
CENTER
100
AcDbLine
 10
208.8820759999999
 20
456.253233
 30
0.0
 11
208.8820759999999
 21
464.253233
 31
0.0
  0
LINE
  5
13A9A
330
13947
100
AcDbEntity
  8
3
  6
DASHED
100
AcDbLine
 10
415.882076
 20
467.4498159999997
 30
0.0
 11
345.882076
 21
467.4498159999997
 31
0.0
  0
LINE
  5
13A9B
330
13947
100
AcDbEntity
  8
1
  6
Continuous
100
AcDbLine
 10
367.3820759999999
 20
468.8498159999999
 30
0.0
 11
346.3820759999999
 21
468.8498159999999
 31
0.0
  0
LINE
  5
13A9C
330
13947
100
AcDbEntity
  8
1
  6
Continuous
100
AcDbLine
 10
367.8820759999999
 20
469.8498159999998
 30
0.0
 11
345.882076
 21
469.8498159999998
 31
0.0
  0
LINE
  5
13A9D
330
13947
100
AcDbEntity
  8
4
  6
CENTER
100
AcDbLine
 10
308.8820759999999
 20
456.253233
 30
0.0
 11
308.8820759999999
 21
464.253233
 31
0.0
  0
LINE
  5
13A9E
330
13947
100
AcDbEntity
  8
1
  6
Continuous
100
AcDbLine
 10
345.882076
 20
468.349816
 30
0.0
 11
345.882076
 21
462.3498159999998
 31
0.0
  0
ARC
  5
13A9F
330
13947
100
AcDbEntity
  8
1
  6
Continuous
100
AcDbCircle
 10
346.3820759999999
 20
468.349816
 30
0.0
 40
0.5
100
AcDbArc
 50
90.0
 51
180.0
  0
LINE
  5
13AA0
330
13947
100
AcDbEntity
  8
1
  6
Continuous
100
AcDbLine
 10
345.882076
 20
471.4498159999997
 30
0.0
 11
345.882076
 21
469.8498159999998
 31
0.0
  0
LINE
  5
13AA1
330
13947
100
AcDbEntity
  8
1
  6
Continuous
100
AcDbLine
 10
366.882076
 20
461.449816
 30
0.0
 11
366.882076
 21
461.8498159999998
 31
0.0
  0
LINE
  5
13AA2
330
13947
100
AcDbEntity
  8
1
  6
Continuous
100
AcDbLine
 10
359.8820759999999
 20
461.8498159999998
 30
0.0
 11
359.8820759999999
 21
461.049816
 31
0.0
  0
LINE
  5
13AA3
330
13947
100
AcDbEntity
  8
3
  6
DASHED
100
AcDbLine
 10
373.8820759999999
 20
467.4498159999997
 30
0.0
 11
373.8820759999999
 21
463.4498159999998
 31
0.0
  0
LINE
  5
13AA4
330
13947
100
AcDbEntity
  8
4
  6
CENTER
100
AcDbLine
 10
366.882076
 20
468.002707
 30
0.0
 11
366.882076
 21
456.416512
 31
0.0
  0
LINE
  5
13AA5
330
13947
100
AcDbEntity
  8
4
  6
CENTER
100
AcDbLine
 10
376.882076
 20
456.253233
 30
0.0
 11
376.882076
 21
464.253233
 31
0.0
  0
LINE
  5
13AA6
330
13947
100
AcDbEntity
  8
4
  6
CENTER
100
AcDbLine
 10
361.8820759999999
 20
456.253233
 30
0.0
 11
361.8820759999999
 21
464.253233
 31
0.0
  0
LINE
  5
13AA7
330
13947
100
AcDbEntity
  8
4
  6
CENTER
100
AcDbLine
 10
356.8820759999999
 20
458.030046
 30
0.0
 11
356.8820759999999
 21
475.9498159999998
 31
0.0
  0
LINE
  5
13AA8
330
13947
100
AcDbEntity
  8
4
  6
CENTER
100
AcDbLine
 10
365.8820759999999
 20
466.737296
 30
0.0
 11
365.8820759999999
 21
474.7372959999998
 31
0.0
  0
LINE
  5
13AA9
330
13947
100
AcDbEntity
  8
1
  6
Continuous
100
AcDbLine
 10
360.5320759999998
 20
472.149816
 30
0.0
 11
359.832076
 21
471.4498159999997
 31
0.0
  0
LINE
  5
13AAA
330
13947
100
AcDbEntity
  8
1
  6
Continuous
100
AcDbLine
 10
353.2320759999998
 20
472.149816
 30
0.0
 11
353.9320759999998
 21
471.4498159999997
 31
0.0
  0
LINE
  5
13AAB
330
13947
100
AcDbEntity
  8
1
  6
Continuous
100
AcDbLine
 10
360.5320759999998
 20
472.149816
 30
0.0
 11
353.2320759999998
 21
472.149816
 31
0.0
  0
LINE
  5
13AAC
330
13947
100
AcDbEntity
  8
1
  6
Continuous
100
AcDbLine
 10
352.132076
 20
469.3498159999998
 30
0.0
 11
361.6320759999999
 21
469.3498159999998
 31
0.0
  0
LINE
  5
13AAD
330
13947
100
AcDbEntity
  8
1
  6
Continuous
100
AcDbLine
 10
361.6320759999999
 20
469.3498159999998
 30
0.0
 11
361.6320759999999
 21
468.8498159999999
 31
0.0
  0
LINE
  5
13AAE
330
13947
100
AcDbEntity
  8
1
  6
Continuous
100
AcDbLine
 10
361.6320759999999
 20
469.3498159999998
 30
0.0
 11
361.1320759999999
 21
469.8498159999998
 31
0.0
  0
LINE
  5
13AAF
330
13947
100
AcDbEntity
  8
1
  6
Continuous
100
AcDbLine
 10
352.132076
 20
469.3498159999998
 30
0.0
 11
352.132076
 21
468.8498159999999
 31
0.0
  0
LINE
  5
13AB0
330
13947
100
AcDbEntity
  8
1
  6
Continuous
100
AcDbLine
 10
352.132076
 20
469.3498159999998
 30
0.0
 11
352.6320759999999
 21
469.8498159999998
 31
0.0
  0
ARC
  5
13AB1
330
13947
100
AcDbEntity
  8
1
  6
Continuous
100
AcDbCircle
 10
367.3820759999999
 20
468.349816
 30
0.0
 40
0.5
100
AcDbArc
 50
0.0
 51
90.0
  0
LINE
  5
13AB2
330
13947
100
AcDbEntity
  8
1
  6
Continuous
100
AcDbLine
 10
367.8820759999999
 20
471.4498159999997
 30
0.0
 11
367.8820759999999
 21
462.3498159999998
 31
0.0
  0
LINE
  5
13AB3
330
13947
100
AcDbEntity
  8
4
  6
CENTER
100
AcDbLine
 10
377.8820759999999
 20
466.737296
 30
0.0
 11
377.8820759999999
 21
474.7372959999998
 31
0.0
  0
LINE
  5
13AB4
330
13947
100
AcDbEntity
  8
1
  6
Continuous
100
AcDbLine
 10
373.8820759999999
 20
461.049816
 30
0.0
 11
359.8820759999999
 21
461.049816
 31
0.0
  0
LINE
  5
13AB5
330
13947
100
AcDbEntity
  8
1
  6
Continuous
100
AcDbLine
 10
373.8820759999999
 20
461.449816
 30
0.0
 11
359.8820759999999
 21
461.449816
 31
0.0
  0
LINE
  5
13AB6
330
13947
100
AcDbEntity
  8
1
  6
Continuous
100
AcDbLine
 10
440.882076
 20
461.049816
 30
0.0
 11
90.882076
 21
461.049816
 31
0.0
  0
LINE
  5
13AB7
330
13947
100
AcDbEntity
  8
1
  6
Continuous
100
AcDbLine
 10
440.382076
 20
462.049816
 30
0.0
 11
419.3820759999998
 21
462.049816
 31
0.0
  0
LINE
  5
13AB8
330
13947
100
AcDbEntity
  8
1
  6
Continuous
100
AcDbLine
 10
418.8820759999998
 20
463.4498159999998
 30
0.0
 11
418.8820759999998
 21
461.049816
 31
0.0
  0
LINE
  5
13AB9
330
13947
100
AcDbEntity
  8
4
  6
CENTER
100
AcDbLine
 10
408.8820759999999
 20
456.253233
 30
0.0
 11
408.8820759999999
 21
464.253233
 31
0.0
  0
LINE
  5
13ABA
330
13947
100
AcDbEntity
  8
4
  6
CENTER
100
AcDbLine
 10
420.882076
 20
456.253233
 30
0.0
 11
420.882076
 21
464.253233
 31
0.0
  0
LINE
  5
13ABB
330
13947
100
AcDbEntity
  8
3
  6
DASHED
100
AcDbLine
 10
418.8820759999998
 20
464.449816
 30
0.0
 11
418.8820759999998
 21
463.4498159999998
 31
0.0
  0
ARC
  5
13ABC
330
13947
100
AcDbEntity
  8
3
  6
DASHED
100
AcDbCircle
 10
415.882076
 20
464.449816
 30
0.0
 40
3.0
100
AcDbArc
 50
0.0
 51
90.0
  0
ARC
  5
13ABD
330
13947
100
AcDbEntity
  8
1
  6
Continuous
100
AcDbCircle
 10
419.3820759999998
 20
462.549816
 30
0.0
 40
0.5
100
AcDbArc
 50
180.0
 51
270.0
  0
LINE
  5
13ABE
330
13947
100
AcDbEntity
  8
1
  6
Continuous
100
AcDbLine
 10
434.632076
 20
461.549816
 30
0.0
 11
434.632076
 21
462.049816
 31
0.0
  0
LINE
  5
13ABF
330
13947
100
AcDbEntity
  8
1
  6
Continuous
100
AcDbLine
 10
425.1320759999998
 20
461.549816
 30
0.0
 11
425.1320759999998
 21
462.049816
 31
0.0
  0
LINE
  5
13AC0
330
13947
100
AcDbEntity
  8
4
  6
CENTER
100
AcDbLine
 10
429.8820759999999
 20
472.904023
 30
0.0
 11
429.8820759999999
 21
454.9498159999997
 31
0.0
  0
LINE
  5
13AC1
330
13947
100
AcDbEntity
  8
1
  6
Continuous
100
AcDbLine
 10
440.882076
 20
463.4498159999998
 30
0.0
 11
440.882076
 21
462.549816
 31
0.0
  0
ARC
  5
13AC2
330
13947
100
AcDbEntity
  8
1
  6
Continuous
100
AcDbCircle
 10
440.382076
 20
462.549816
 30
0.0
 40
0.5
100
AcDbArc
 50
270.0
 51
0.0
  0
LINE
  5
13AC3
330
13947
100
AcDbEntity
  8
1
  6
Continuous
100
AcDbLine
 10
434.632076
 20
461.549816
 30
0.0
 11
434.132076
 21
461.049816
 31
0.0
  0
LINE
  5
13AC4
330
13947
100
AcDbEntity
  8
1
  6
Continuous
100
AcDbLine
 10
425.1320759999998
 20
461.549816
 30
0.0
 11
425.6320759999998
 21
461.049816
 31
0.0
  0
LINE
  5
13AC5
330
13947
100
AcDbEntity
  8
1
  6
Continuous
100
AcDbLine
 10
425.1320759999998
 20
461.549816
 30
0.0
 11
434.632076
 21
461.549816
 31
0.0
  0
LINE
  5
13AC6
330
13947
100
AcDbEntity
  8
1
  6
Continuous
100
AcDbLine
 10
433.532076
 20
458.7498159999998
 30
0.0
 11
426.2320759999998
 21
458.7498159999998
 31
0.0
  0
LINE
  5
13AC7
330
13947
100
AcDbEntity
  8
1
  6
Continuous
100
AcDbLine
 10
426.2320759999998
 20
458.7498159999998
 30
0.0
 11
426.932076
 21
459.4498159999998
 31
0.0
  0
LINE
  5
13AC8
330
13947
100
AcDbEntity
  8
1
  6
Continuous
100
AcDbLine
 10
433.532076
 20
458.7498159999998
 30
0.0
 11
432.8320759999998
 21
459.4498159999998
 31
0.0
  0
LINE
  5
13AC9
330
13947
100
AcDbEntity
  8
1
  6
Continuous
100
AcDbLine
 10
440.882076
 20
461.049816
 30
0.0
 11
440.882076
 21
459.4498159999998
 31
0.0
  0
LINE
  5
13ACA
330
13947
100
AcDbEntity
  8
4
  6
CENTER
100
AcDbLine
 10
477.882076
 20
466.737296
 30
0.0
 11
477.882076
 21
474.7372959999998
 31
0.0
  0
LINE
  5
13ACB
330
13947
100
AcDbEntity
  8
4
  6
CENTER
100
AcDbLine
 10
577.882076
 20
466.737296
 30
0.0
 11
577.882076
 21
474.7372959999998
 31
0.0
  0
LINE
  5
13ACC
330
13947
100
AcDbEntity
  8
4
  6
CENTER
100
AcDbLine
 10
677.882076
 20
466.737296
 30
0.0
 11
677.882076
 21
474.7372959999998
 31
0.0
  0
LINE
  5
13ACD
330
13947
100
AcDbEntity
  8
4
  6
CENTER
100
AcDbLine
 10
662.8820759999999
 20
466.737296
 30
0.0
 11
662.8820759999999
 21
474.7372959999998
 31
0.0
  0
LINE
  5
13ACE
330
13947
100
AcDbEntity
  8
1
  6
Continuous
100
AcDbLine
 10
695.882076
 20
471.4498159999997
 30
0.0
 11
695.882076
 21
466.4498159999998
 31
0.0
  0
ARC
  5
13ACF
330
13947
100
AcDbEntity
  8
1
  6
Continuous
100
AcDbCircle
 10
692.8820759999996
 20
466.4498159999998
 30
0.0
 40
3.0
100
AcDbArc
 50
270.0
 51
0.0
  0
ARC
  5
13AD0
330
13947
100
AcDbEntity
  8
1
  6
Continuous
100
AcDbCircle
 10
370.882076
 20
466.4498159999998
 30
0.0
 40
3.0
100
AcDbArc
 50
180.0
 51
270.0
  0
LINE
  5
13AD1
330
13947
100
AcDbEntity
  8
1
  6
Continuous
100
AcDbLine
 10
373.8820759999999
 20
463.4498159999998
 30
0.0
 11
373.8820759999999
 21
461.049816
 31
0.0
  0
LINE
  5
13AD2
330
13947
100
AcDbEntity
  8
1
  6
Continuous
100
AcDbLine
 10
367.3820759999999
 20
461.8498159999998
 30
0.0
 11
346.3820759999999
 21
461.8498159999998
 31
0.0
  0
ARC
  5
13AD3
330
13947
100
AcDbEntity
  8
1
  6
Continuous
100
AcDbCircle
 10
367.3820759999999
 20
462.3498159999998
 30
0.0
 40
0.5
100
AcDbArc
 50
270.0
 51
0.0
  0
ARC
  5
13AD4
330
13947
100
AcDbEntity
  8
1
  6
Continuous
100
AcDbCircle
 10
346.3820759999999
 20
462.3498159999998
 30
0.0
 40
0.5
100
AcDbArc
 50
180.0
 51
270.0
  0
ARC
  5
13AD5
330
13947
100
AcDbEntity
  8
3
  6
DASHED
100
AcDbCircle
 10
356.8820759999999
 20
770.849816
 30
0.0
 40
11.0
100
AcDbArc
 50
125.096801
 51
54.903199
  0
ARC
  5
13AD6
330
13947
100
AcDbEntity
  8
3
  6
DASHED
100
AcDbCircle
 10
429.8820759999999
 20
765.849816
 30
0.0
 40
11.0
100
AcDbArc
 50
329.2484979999999
 51
213.0557309999999
  0
ARC
  5
13AD7
330
13947
100
AcDbEntity
  8
3
  6
DASHED
100
AcDbCircle
 10
356.8820759999999
 20
560.849816
 30
0.0
 40
11.0
100
AcDbArc
 50
326.944269
 51
21.052718
  0
ARC
  5
13AD8
330
13947
100
AcDbEntity
  8
3
  6
DASHED
100
AcDbCircle
 10
356.8820759999999
 20
560.849816
 30
0.0
 40
11.0
100
AcDbArc
 50
41.806413
 51
210.751502
  0
LINE
  5
13AD9
330
13947
100
AcDbEntity
  8
4
  6
CENTER
100
AcDbLine
 10
420.882076
 20
566.349816
 30
0.0
 11
420.882076
 21
557.349816
 31
0.0
  0
LINE
  5
13ADA
330
13947
100
AcDbEntity
  8
4
  6
CENTER
100
AcDbLine
 10
408.8820759999999
 20
567.849816
 30
0.0
 11
408.8820759999999
 21
555.849816
 31
0.0
  0
LINE
  5
13ADB
330
13947
100
AcDbEntity
  8
4
  6
CENTER
100
AcDbLine
 10
443.78497
 20
565.849816
 30
0.0
 11
415.7849699999998
 21
565.849816
 31
0.0
  0
LINE
  5
13ADC
330
13947
100
AcDbEntity
  8
4
  6
CENTER
100
AcDbLine
 10
84.17394899999996
 20
561.849816
 30
0.0
 11
703.354646
 21
561.849816
 31
0.0
  0
LINE
  5
13ADD
330
13947
100
AcDbEntity
  8
1
  6
Continuous
100
AcDbLine
 10
395.882076
 20
334.2999999999999
 30
0.0
 11
695.882076
 21
334.2999999999999
 31
0.0
  0
LINE
  5
13ADE
330
13947
100
AcDbEntity
  8
1
  6
Continuous
100
AcDbLine
 10
367.8820759999999
 20
360.4999999999998
 30
0.0
 11
695.882076
 21
360.4999999999998
 31
0.0
  0
LINE
  5
13ADF
330
13947
100
AcDbEntity
  8
4
  6
CENTER
100
AcDbLine
 10
340.8820759999999
 20
347.3999999999999
 30
0.0
 11
700.8820759999996
 21
347.3999999999999
 31
0.0
  0
LINE
  5
13AE0
330
13947
100
AcDbEntity
  8
4
  6
CENTER
100
AcDbLine
 10
84.17394899999996
 20
351.8999999999999
 30
0.0
 11
446.477576
 21
351.8999999999999
 31
0.0
  0
LINE
  5
13AE1
330
13947
100
AcDbEntity
  8
1
  6
Continuous
100
AcDbLine
 10
440.882076
 20
136.8999999999997
 30
0.0
 11
695.882076
 21
136.8999999999997
 31
0.0
  0
LINE
  5
13AE2
330
13947
100
AcDbEntity
  8
1
  6
Continuous
100
AcDbLine
 10
440.4197919999998
 20
135.3
 30
0.0
 11
695.882076
 21
135.3
 31
0.0
  0
LINE
  5
13AE3
330
13947
100
AcDbEntity
  8
1
  6
Continuous
100
AcDbLine
 10
348.8820759999999
 20
159.9
 30
0.0
 11
695.882076
 21
159.9
 31
0.0
  0
LINE
  5
13AE4
330
13947
100
AcDbEntity
  8
4
  6
CENTER
100
AcDbLine
 10
340.8820759999999
 20
148.3999999999998
 30
0.0
 11
700.8820759999996
 21
148.3999999999998
 31
0.0
  0
LINE
  5
13AE5
330
13947
100
AcDbEntity
  8
1
  6
Continuous
100
AcDbLine
 10
395.882076
 20
161.5
 30
0.0
 11
695.882076
 21
161.5
 31
0.0
  0
LINE
  5
13AE6
330
13947
100
AcDbEntity
  8
1
  6
Continuous
100
AcDbLine
 10
695.882076
 20
253.9
 30
0.0
 11
345.882076
 21
253.9
 31
0.0
  0
LINE
  5
13AE7
330
13947
100
AcDbEntity
  8
1
  6
Continuous
100
AcDbLine
 10
692.8820759999996
 20
245.9
 30
0.0
 11
398.8820759999999
 21
245.9
 31
0.0
  0
LINE
  5
13AE8
330
13947
100
AcDbEntity
  8
1
  6
Continuous
100
AcDbLine
 10
692.8820759999996
 20
49.5
 30
0.0
 11
370.882076
 21
49.5
 31
0.0
  0
LINE
  5
13AE9
330
13947
100
AcDbEntity
  8
1
  6
Continuous
100
AcDbLine
 10
695.882076
 20
41.5
 30
0.0
 11
345.882076
 21
41.5
 31
0.0
  0
LINE
  5
13AEA
330
13947
100
AcDbEntity
  8
1
  6
Continuous
100
AcDbLine
 10
90.882076
 20
340.3
 30
0.0
 11
345.882076
 21
340.3
 31
0.0
  0
LINE
  5
13AEB
330
13947
100
AcDbEntity
  8
1
  6
Continuous
100
AcDbLine
 10
90.882076
 20
341.9
 30
0.0
 11
345.882076
 21
341.9
 31
0.0
  0
LINE
  5
13AEC
330
13947
100
AcDbEntity
  8
1
  6
Continuous
100
AcDbLine
 10
93.88207599999999
 20
361.8999999999999
 30
0.0
 11
350.5575209999999
 21
361.8999999999999
 31
0.0
  0
LINE
  5
13AED
330
13947
100
AcDbEntity
  8
1
  6
Continuous
100
AcDbLine
 10
440.882076
 20
51.9
 30
0.0
 11
90.882076
 21
51.9
 31
0.0
  0
LINE
  5
13AEE
330
13947
100
AcDbEntity
  8
1
  6
Continuous
100
AcDbLine
 10
440.882076
 20
53.5
 30
0.0
 11
90.882076
 21
53.5
 31
0.0
  0
LINE
  5
13AEF
330
13947
100
AcDbEntity
  8
1
  6
Continuous
100
AcDbLine
 10
345.882076
 20
45.49999999999999
 30
0.0
 11
93.88207599999999
 21
45.49999999999999
 31
0.0
  0
ARC
  5
13AF0
330
13947
100
AcDbEntity
  8
1
  6
Continuous
100
AcDbCircle
 10
93.88207599999999
 20
48.5
 30
0.0
 40
3.0
100
AcDbArc
 50
180.0
 51
270.0
  0
LINE
  5
13AF1
330
13947
100
AcDbEntity
  8
1
  6
Continuous
100
AcDbLine
 10
90.882076
 20
48.5
 30
0.0
 11
90.882076
 21
53.5
 31
0.0
  0
LINE
  5
13AF2
330
13947
100
AcDbEntity
  8
4
  6
CENTER
100
AcDbLine
 10
108.8820759999999
 20
56.696583
 30
0.0
 11
108.8820759999999
 21
48.69658300000001
 31
0.0
  0
LINE
  5
13AF3
330
13947
100
AcDbEntity
  8
4
  6
CENTER
100
AcDbLine
 10
123.882076
 20
56.696583
 30
0.0
 11
123.882076
 21
48.69658300000001
 31
0.0
  0
LINE
  5
13AF4
330
13947
100
AcDbEntity
  8
1
  6
Continuous
100
AcDbLine
 10
25.0
 20
159.9
 30
0.0
 11
25.0
 21
136.8999999999997
 31
0.0
  0
LINE
  5
13AF5
330
13947
100
AcDbEntity
  8
1
  6
Continuous
100
AcDbLine
 10
26.6
 20
159.9
 30
0.0
 11
26.6
 21
136.8999999999997
 31
0.0
  0
ARC
  5
13AF6
330
13947
100
AcDbEntity
  8
1
  6
Continuous
100
AcDbCircle
 10
27.9
 20
158.4
 30
0.0
 40
0.5
100
AcDbArc
 50
90.0
 51
180.0
  0
ARC
  5
13AF7
330
13947
100
AcDbEntity
  8
1
  6
Continuous
100
AcDbCircle
 10
33.9
 20
158.4
 30
0.0
 40
0.5
100
AcDbArc
 50
0.0
 51
90.0
  0
LINE
  5
13AF8
330
13947
100
AcDbEntity
  8
1
  6
Continuous
100
AcDbLine
 10
25.0
 20
136.8999999999997
 30
0.0
 11
27.6
 21
136.8999999999997
 31
0.0
  0
LINE
  5
13AF9
330
13947
100
AcDbEntity
  8
1
  6
Continuous
100
AcDbLine
 10
26.6
 20
135.3
 30
0.0
 11
27.6
 21
135.3
 31
0.0
  0
ARC
  5
13AFA
330
13947
100
AcDbEntity
  8
1
  6
Continuous
100
AcDbCircle
 10
26.6
 20
136.8999999999997
 30
0.0
 40
1.6
100
AcDbArc
 50
180.0
 51
270.0
  0
LINE
  5
13AFB
330
13947
100
AcDbEntity
  8
4
  6
CENTER
100
AcDbLine
 10
29.487133
 20
148.3999999999998
 30
0.0
 11
22.56572999999999
 21
148.3999999999998
 31
0.0
  0
LINE
  5
13AFC
330
13947
100
AcDbEntity
  8
1
  6
Continuous
100
AcDbLine
 10
27.4
 20
158.4
 30
0.0
 11
27.4
 21
147.65
 31
0.0
  0
LINE
  5
13AFD
330
13947
100
AcDbEntity
  8
1
  6
Continuous
100
AcDbLine
 10
34.39999999999999
 20
158.4
 30
0.0
 11
34.39999999999999
 21
155.4999999999998
 31
0.0
  0
ARC
  5
13AFE
330
13947
100
AcDbEntity
  8
1
  6
Continuous
100
AcDbCircle
 10
27.9
 20
137.4
 30
0.0
 40
0.5
100
AcDbArc
 50
180.0
 51
233.130102
  0
LINE
  5
13AFF
330
13947
100
AcDbEntity
  8
1
  6
Continuous
100
AcDbLine
 10
35.4
 20
152.15
 30
0.0
 11
35.4
 21
143.65
 31
0.0
  0
LINE
  5
13B00
330
13947
100
AcDbEntity
  8
1
  6
Continuous
100
AcDbLine
 10
34.9
 20
143.1499999999998
 30
0.0
 11
34.9
 21
152.65
 31
0.0
  0
LINE
  5
13B01
330
13947
100
AcDbEntity
  8
1
  6
Continuous
100
AcDbLine
 10
34.9
 20
143.1499999999998
 30
0.0
 11
35.4
 21
143.65
 31
0.0
  0
LINE
  5
13B02
330
13947
100
AcDbEntity
  8
1
  6
Continuous
100
AcDbLine
 10
34.9
 20
152.65
 30
0.0
 11
35.4
 21
152.15
 31
0.0
  0
LINE
  5
13B03
330
13947
100
AcDbEntity
  8
1
  6
Continuous
100
AcDbLine
 10
34.9
 20
143.1499999999998
 30
0.0
 11
34.6
 21
143.1499999999998
 31
0.0
  0
LINE
  5
13B04
330
13947
100
AcDbEntity
  8
1
  6
Continuous
100
AcDbLine
 10
34.9
 20
152.65
 30
0.0
 11
34.6
 21
152.65
 31
0.0
  0
LINE
  5
13B05
330
13947
100
AcDbEntity
  8
1
  6
Continuous
100
AcDbLine
 10
27.9
 20
158.9
 30
0.0
 11
33.9
 21
158.9
 31
0.0
  0
LINE
  5
13B06
330
13947
100
AcDbEntity
  8
4
  6
CENTER
100
AcDbLine
 10
22.408002
 20
142.9
 30
0.0
 11
36.056013
 21
142.9
 31
0.0
  0
LINE
  5
13B07
330
13947
100
AcDbEntity
  8
1
  6
Continuous
100
AcDbLine
 10
27.1
 20
138.15
 30
0.0
 11
27.1
 21
147.65
 31
0.0
  0
LINE
  5
13B08
330
13947
100
AcDbEntity
  8
1
  6
Continuous
100
AcDbLine
 10
27.1
 20
138.15
 30
0.0
 11
27.6
 21
138.15
 31
0.0
  0
LINE
  5
13B09
330
13947
100
AcDbEntity
  8
1
  6
Continuous
100
AcDbLine
 10
27.1
 20
138.15
 30
0.0
 11
26.6
 21
138.65
 31
0.0
  0
ARC
  5
13B0A
330
13947
100
AcDbEntity
  8
1
  6
Continuous
100
AcDbCircle
 10
28.1
 20
153.3999999999998
 30
0.0
 40
0.5
100
AcDbArc
 50
90.0
 51
180.0
  0
LINE
  5
13B0B
330
13947
100
AcDbEntity
  8
1
  6
Continuous
100
AcDbLine
 10
27.1
 20
147.65
 30
0.0
 11
27.6
 21
147.65
 31
0.0
  0
LINE
  5
13B0C
330
13947
100
AcDbEntity
  8
1
  6
Continuous
100
AcDbLine
 10
35.4
 20
153.9
 30
0.0
 11
28.1
 21
153.9
 31
0.0
  0
ARC
  5
13B0D
330
13947
100
AcDbEntity
  8
1
  6
Continuous
100
AcDbCircle
 10
34.1
 20
153.3999999999998
 30
0.0
 40
0.5
100
AcDbArc
 50
0.0
 51
90.0
  0
LINE
  5
13B0E
330
13947
100
AcDbEntity
  8
1
  6
Continuous
100
AcDbLine
 10
27.1
 20
147.65
 30
0.0
 11
26.6
 21
147.1499999999998
 31
0.0
  0
LINE
  5
13B0F
330
13947
100
AcDbEntity
  8
1
  6
Continuous
100
AcDbLine
 10
24.3
 20
146.55
 30
0.0
 11
24.3
 21
139.25
 31
0.0
  0
LINE
  5
13B10
330
13947
100
AcDbEntity
  8
1
  6
Continuous
100
AcDbLine
 10
24.3
 20
146.55
 30
0.0
 11
25.0
 21
145.8499999999999
 31
0.0
  0
LINE
  5
13B11
330
13947
100
AcDbEntity
  8
1
  6
Continuous
100
AcDbLine
 10
24.3
 20
139.25
 30
0.0
 11
25.0
 21
139.9499999999999
 31
0.0
  0
LINE
  5
13B12
330
13947
100
AcDbEntity
  8
1
  6
Continuous
100
AcDbLine
 10
37.0
 20
133.9
 30
0.0
 11
35.4
 21
133.9
 31
0.0
  0
LINE
  5
13B13
330
13947
100
AcDbEntity
  8
1
  6
Continuous
100
AcDbLine
 10
35.4
 20
155.4999999999998
 30
0.0
 11
29.0
 21
155.4999999999998
 31
0.0
  0
LINE
  5
13B14
330
13947
100
AcDbEntity
  8
1
  6
Continuous
100
AcDbLine
 10
37.0
 20
153.9
 30
0.0
 11
37.0
 21
133.9
 31
0.0
  0
LINE
  5
13B15
330
13947
100
AcDbEntity
  8
1
  6
Continuous
100
AcDbLine
 10
35.4
 20
153.9
 30
0.0
 11
35.4
 21
133.9
 31
0.0
  0
LINE
  5
13B16
330
13947
100
AcDbEntity
  8
4
  6
CENTER
100
AcDbLine
 10
39.63852199999998
 20
143.9
 30
0.0
 11
32.71711899999999
 21
143.9
 31
0.0
  0
LINE
  5
13B17
330
13947
100
AcDbEntity
  8
1
  6
Continuous
100
AcDbLine
 10
29.0
 20
155.4999999999998
 30
0.0
 11
29.0
 21
153.9
 31
0.0
  0
ARC
  5
13B18
330
13947
100
AcDbEntity
  8
1
  6
Continuous
100
AcDbCircle
 10
35.4
 20
153.9
 30
0.0
 40
1.6
100
AcDbArc
 50
0.0
 51
90.0
  0
LINE
  5
13B19
330
13947
100
AcDbEntity
  8
4
  6
CENTER
100
AcDbLine
 10
39.63852199999998
 20
147.9
 30
0.0
 11
25.830649
 21
147.9
 31
0.0
  0
LINE
  5
13B1A
330
13947
100
AcDbEntity
  8
1
  6
Continuous
100
AcDbLine
 10
37.7
 20
151.55
 30
0.0
 11
37.7
 21
144.25
 31
0.0
  0
LINE
  5
13B1B
330
13947
100
AcDbEntity
  8
1
  6
Continuous
100
AcDbLine
 10
37.7
 20
151.55
 30
0.0
 11
37.0
 21
150.8499999999999
 31
0.0
  0
LINE
  5
13B1C
330
13947
100
AcDbEntity
  8
1
  6
Continuous
100
AcDbLine
 10
37.7
 20
144.25
 30
0.0
 11
37.0
 21
144.95
 31
0.0
  0
LINE
  5
13B1D
330
13947
100
AcDbEntity
  8
1
  6
Continuous
100
AcDbLine
 10
27.4
 20
138.15
 30
0.0
 11
27.4
 21
137.4
 31
0.0
  0
LINE
  5
13B1E
330
13947
100
AcDbEntity
  8
1
  6
Continuous
100
AcDbLine
 10
34.39999999999999
 20
153.9
 30
0.0
 11
34.39999999999999
 21
153.8
 31
0.0
  0
ARC
  5
13B1F
330
13947
100
AcDbEntity
  8
1
  6
Continuous
100
AcDbCircle
 10
28.1
 20
132.4
 30
0.0
 40
0.5
100
AcDbArc
 50
180.0
 51
270.0
  0
LINE
  5
13B20
330
13947
100
AcDbEntity
  8
1
  6
Continuous
100
AcDbLine
 10
34.1
 20
131.9
 30
0.0
 11
28.1
 21
131.9
 31
0.0
  0
ARC
  5
13B21
330
13947
100
AcDbEntity
  8
1
  6
Continuous
100
AcDbCircle
 10
34.1
 20
132.4
 30
0.0
 40
0.5
100
AcDbArc
 50
270.0
 51
0.0
  0
LINE
  5
13B22
330
13947
100
AcDbEntity
  8
1
  6
Continuous
100
AcDbLine
 10
34.6
 20
153.3999999999998
 30
0.0
 11
34.6
 21
132.4
 31
0.0
  0
LINE
  5
13B23
330
13947
100
AcDbEntity
  8
1
  6
Continuous
100
AcDbLine
 10
27.6
 20
153.3999999999998
 30
0.0
 11
27.6
 21
132.4
 31
0.0
  0
LINE
  5
13B24
330
13947
100
AcDbEntity
  8
1
  6
Continuous
100
AcDbLine
 10
26.6
 20
161.5
 30
0.0
 11
33.0
 21
161.5
 31
0.0
  0
LINE
  5
13B25
330
13947
100
AcDbEntity
  8
1
  6
Continuous
100
AcDbLine
 10
25.0
 20
159.9
 30
0.0
 11
33.0
 21
159.9
 31
0.0
  0
LINE
  5
13B26
330
13947
100
AcDbEntity
  8
1
  6
Continuous
100
AcDbLine
 10
33.0
 20
161.5
 30
0.0
 11
33.0
 21
159.9
 31
0.0
  0
ARC
  5
13B27
330
13947
100
AcDbEntity
  8
1
  6
Continuous
100
AcDbCircle
 10
26.6
 20
159.9
 30
0.0
 40
1.6
100
AcDbArc
 50
90.0
 51
180.0
  0
LINE
  5
13B28
330
13947
100
AcDbEntity
  8
1
  6
Continuous
100
AcDbLine
 10
90.882076
 20
358.8999999999999
 30
0.0
 11
90.882076
 21
340.3
 31
0.0
  0
ARC
  5
13B29
330
13947
100
AcDbEntity
  8
1
  6
Continuous
100
AcDbCircle
 10
93.88207599999999
 20
358.8999999999999
 30
0.0
 40
3.0
100
AcDbArc
 50
90.0
 51
180.0
  0
CIRCLE
  5
13B2A
330
13947
100
AcDbEntity
  8
1
  6
Continuous
100
AcDbCircle
 10
123.882076
 20
351.8999999999999
 30
0.0
 40
2.0
  0
CIRCLE
  5
13B2B
330
13947
100
AcDbEntity
  8
1
  6
Continuous
100
AcDbCircle
 10
108.8820759999999
 20
351.8999999999999
 30
0.0
 40
3.0
  0
LINE
  5
13B2C
330
13947
100
AcDbEntity
  8
4
  6
CENTER
100
AcDbLine
 10
108.8820759999999
 20
357.8999999999999
 30
0.0
 11
108.8820759999999
 21
345.8999999999999
 31
0.0
  0
CIRCLE
  5
13B2D
330
13947
100
AcDbEntity
  8
1
  6
Continuous
100
AcDbCircle
 10
108.8820759999999
 20
351.8999999999999
 30
0.0
 40
4.299999999999998
  0
LINE
  5
13B2E
330
13947
100
AcDbEntity
  8
4
  6
CENTER
100
AcDbLine
 10
123.882076
 20
347.8999999999999
 30
0.0
 11
123.882076
 21
355.8999999999999
 31
0.0
  0
LINE
  5
13B2F
330
13947
100
AcDbEntity
  8
4
  6
CENTER
100
AcDbLine
 10
208.8820759999999
 20
56.696583
 30
0.0
 11
208.8820759999999
 21
48.69658300000001
 31
0.0
  0
CIRCLE
  5
13B30
330
13947
100
AcDbEntity
  8
1
  6
Continuous
100
AcDbCircle
 10
208.8820759999999
 20
351.8999999999999
 30
0.0
 40
3.0
  0
CIRCLE
  5
13B31
330
13947
100
AcDbEntity
  8
1
  6
Continuous
100
AcDbCircle
 10
208.8820759999999
 20
351.8999999999999
 30
0.0
 40
4.299999999999998
  0
LINE
  5
13B32
330
13947
100
AcDbEntity
  8
4
  6
CENTER
100
AcDbLine
 10
208.8820759999999
 20
357.8999999999999
 30
0.0
 11
208.8820759999999
 21
345.8999999999999
 31
0.0
  0
LINE
  5
13B33
330
13947
100
AcDbEntity
  8
3
  6
DASHED
100
AcDbLine
 10
373.8820759999999
 20
340.3
 30
0.0
 11
421.9297179999998
 21
340.3
 31
0.0
  0
LINE
  5
13B34
330
13947
100
AcDbEntity
  8
1
  6
Continuous
100
AcDbLine
 10
363.206631
 20
361.8999999999999
 30
0.0
 11
437.8820759999999
 21
361.8999999999999
 31
0.0
  0
LINE
  5
13B35
330
13947
100
AcDbEntity
  8
3
  6
DASHED
100
AcDbLine
 10
373.8820759999999
 20
341.9
 30
0.0
 11
418.8820759999998
 21
341.9
 31
0.0
  0
LINE
  5
13B36
330
13947
100
AcDbEntity
  8
3
  6
DASHED
100
AcDbLine
 10
415.882076
 20
45.49999999999999
 30
0.0
 11
345.882076
 21
45.49999999999999
 31
0.0
  0
LINE
  5
13B37
330
13947
100
AcDbEntity
  8
4
  6
CENTER
100
AcDbLine
 10
377.8820759999999
 20
46.21251899999999
 30
0.0
 11
377.8820759999999
 21
38.212519
 31
0.0
  0
LINE
  5
13B38
330
13947
100
AcDbEntity
  8
1
  6
Continuous
100
AcDbLine
 10
367.8820759999999
 20
41.5
 30
0.0
 11
367.8820759999999
 21
50.6
 31
0.0
  0
LINE
  5
13B39
330
13947
100
AcDbEntity
  8
4
  6
CENTER
100
AcDbLine
 10
365.8820759999999
 20
46.21251899999999
 30
0.0
 11
365.8820759999999
 21
38.212519
 31
0.0
  0
LINE
  5
13B3A
330
13947
100
AcDbEntity
  8
4
  6
CENTER
100
AcDbLine
 10
356.8820759999999
 20
54.91976999999999
 30
0.0
 11
356.8820759999999
 21
37.0
 31
0.0
  0
LINE
  5
13B3B
330
13947
100
AcDbEntity
  8
1
  6
Continuous
100
AcDbLine
 10
345.882076
 20
44.59999999999999
 30
0.0
 11
345.882076
 21
50.6
 31
0.0
  0
LINE
  5
13B3C
330
13947
100
AcDbEntity
  8
1
  6
Continuous
100
AcDbLine
 10
367.3820759999999
 20
51.1
 30
0.0
 11
346.3820759999999
 21
51.1
 31
0.0
  0
LINE
  5
13B3D
330
13947
100
AcDbEntity
  8
4
  6
CENTER
100
AcDbLine
 10
308.8820759999999
 20
56.696583
 30
0.0
 11
308.8820759999999
 21
48.69658300000001
 31
0.0
  0
ARC
  5
13B3E
330
13947
100
AcDbEntity
  8
1
  6
Continuous
100
AcDbCircle
 10
346.3820759999999
 20
50.6
 30
0.0
 40
0.5
100
AcDbArc
 50
90.0
 51
180.0
  0
ARC
  5
13B3F
330
13947
100
AcDbEntity
  8
1
  6
Continuous
100
AcDbCircle
 10
367.3820759999999
 20
50.6
 30
0.0
 40
0.5
100
AcDbArc
 50
0.0
 51
90.0
  0
LINE
  5
13B40
330
13947
100
AcDbEntity
  8
1
  6
Continuous
100
AcDbLine
 10
373.8820759999999
 20
49.5
 30
0.0
 11
373.8820759999999
 21
51.9
 31
0.0
  0
ARC
  5
13B41
330
13947
100
AcDbEntity
  8
1
  6
Continuous
100
AcDbCircle
 10
370.882076
 20
46.5
 30
0.0
 40
3.0
100
AcDbArc
 50
90.0
 51
180.0
  0
LINE
  5
13B42
330
13947
100
AcDbEntity
  8
1
  6
Continuous
100
AcDbLine
 10
373.8820759999999
 20
51.5
 30
0.0
 11
359.8820759999999
 21
51.5
 31
0.0
  0
LINE
  5
13B43
330
13947
100
AcDbEntity
  8
1
  6
Continuous
100
AcDbLine
 10
373.8820759999999
 20
51.9
 30
0.0
 11
359.8820759999999
 21
51.9
 31
0.0
  0
LINE
  5
13B44
330
13947
100
AcDbEntity
  8
4
  6
CENTER
100
AcDbLine
 10
361.8820759999999
 20
56.696583
 30
0.0
 11
361.8820759999999
 21
48.69658300000001
 31
0.0
  0
LINE
  5
13B45
330
13947
100
AcDbEntity
  8
4
  6
CENTER
100
AcDbLine
 10
366.882076
 20
44.947109
 30
0.0
 11
366.882076
 21
56.533304
 31
0.0
  0
LINE
  5
13B46
330
13947
100
AcDbEntity
  8
3
  6
DASHED
100
AcDbLine
 10
373.8820759999999
 20
45.49999999999999
 30
0.0
 11
373.8820759999999
 21
49.5
 31
0.0
  0
LINE
  5
13B47
330
13947
100
AcDbEntity
  8
1
  6
Continuous
100
AcDbLine
 10
359.8820759999999
 20
51.1
 30
0.0
 11
359.8820759999999
 21
51.9
 31
0.0
  0
LINE
  5
13B48
330
13947
100
AcDbEntity
  8
1
  6
Continuous
100
AcDbLine
 10
366.882076
 20
51.5
 30
0.0
 11
366.882076
 21
51.1
 31
0.0
  0
LINE
  5
13B49
330
13947
100
AcDbEntity
  8
4
  6
CENTER
100
AcDbLine
 10
376.882076
 20
56.696583
 30
0.0
 11
376.882076
 21
48.69658300000001
 31
0.0
  0
LINE
  5
13B4A
330
13947
100
AcDbEntity
  8
1
  6
Continuous
100
AcDbLine
 10
367.8820759999999
 20
43.1
 30
0.0
 11
345.882076
 21
43.1
 31
0.0
  0
LINE
  5
13B4B
330
13947
100
AcDbEntity
  8
1
  6
Continuous
100
AcDbLine
 10
367.3820759999999
 20
44.1
 30
0.0
 11
346.3820759999999
 21
44.1
 31
0.0
  0
LINE
  5
13B4C
330
13947
100
AcDbEntity
  8
1
  6
Continuous
100
AcDbLine
 10
345.882076
 20
41.5
 30
0.0
 11
345.882076
 21
43.1
 31
0.0
  0
ARC
  5
13B4D
330
13947
100
AcDbEntity
  8
1
  6
Continuous
100
AcDbCircle
 10
346.3820759999999
 20
44.59999999999999
 30
0.0
 40
0.5
100
AcDbArc
 50
180.0
 51
270.0
  0
ARC
  5
13B4E
330
13947
100
AcDbEntity
  8
1
  6
Continuous
100
AcDbCircle
 10
367.3820759999999
 20
44.59999999999999
 30
0.0
 40
0.5
100
AcDbArc
 50
270.0
 51
0.0
  0
LINE
  5
13B4F
330
13947
100
AcDbEntity
  8
1
  6
Continuous
100
AcDbLine
 10
352.132076
 20
43.6
 30
0.0
 11
352.6320759999999
 21
43.1
 31
0.0
  0
LINE
  5
13B50
330
13947
100
AcDbEntity
  8
1
  6
Continuous
100
AcDbLine
 10
352.132076
 20
43.6
 30
0.0
 11
352.132076
 21
44.1
 31
0.0
  0
LINE
  5
13B51
330
13947
100
AcDbEntity
  8
1
  6
Continuous
100
AcDbLine
 10
361.6320759999999
 20
43.6
 30
0.0
 11
361.1320759999999
 21
43.1
 31
0.0
  0
LINE
  5
13B52
330
13947
100
AcDbEntity
  8
1
  6
Continuous
100
AcDbLine
 10
361.6320759999999
 20
43.6
 30
0.0
 11
361.6320759999999
 21
44.1
 31
0.0
  0
LINE
  5
13B53
330
13947
100
AcDbEntity
  8
1
  6
Continuous
100
AcDbLine
 10
352.132076
 20
43.6
 30
0.0
 11
361.6320759999999
 21
43.6
 31
0.0
  0
LINE
  5
13B54
330
13947
100
AcDbEntity
  8
1
  6
Continuous
100
AcDbLine
 10
360.5320759999998
 20
40.8
 30
0.0
 11
353.2320759999998
 21
40.8
 31
0.0
  0
LINE
  5
13B55
330
13947
100
AcDbEntity
  8
1
  6
Continuous
100
AcDbLine
 10
353.2320759999998
 20
40.8
 30
0.0
 11
353.9320759999998
 21
41.5
 31
0.0
  0
LINE
  5
13B56
330
13947
100
AcDbEntity
  8
1
  6
Continuous
100
AcDbLine
 10
360.5320759999998
 20
40.8
 30
0.0
 11
359.832076
 21
41.5
 31
0.0
  0
ARC
  5
13B57
330
13947
100
AcDbEntity
  8
1
  6
Continuous
100
AcDbCircle
 10
348.8820759999999
 20
338.8999999999999
 30
0.0
 40
3.0
100
AcDbArc
 50
180.0
 51
270.0
  0
ARC
  5
13B58
330
13947
100
AcDbEntity
  8
1
  6
Continuous
100
AcDbCircle
 10
348.8820759999999
 20
355.8999999999999
 30
0.0
 40
3.0
100
AcDbArc
 50
90.0
 51
180.0
  0
LINE
  5
13B59
330
13947
100
AcDbEntity
  8
4
  6
CENTER
100
AcDbLine
 10
370.882076
 20
352.8999999999999
 30
0.0
 11
342.8820759999999
 21
352.8999999999999
 31
0.0
  0
LINE
  5
13B5A
330
13947
100
AcDbEntity
  8
3
  6
DASHED
100
AcDbLine
 10
345.882076
 20
340.3
 30
0.0
 11
359.8820759999999
 21
340.3
 31
0.0
  0
LINE
  5
13B5B
330
13947
100
AcDbEntity
  8
3
  6
DASHED
100
AcDbLine
 10
345.882076
 20
341.9
 30
0.0
 11
359.8820759999999
 21
341.9
 31
0.0
  0
ARC
  5
13B5C
330
13947
100
AcDbEntity
  8
3
  6
DASHED
100
AcDbCircle
 10
356.8820759999999
 20
352.8999999999999
 30
0.0
 40
11.0
100
AcDbArc
 50
149.248498
 51
318.1935870000001
  0
ARC
  5
13B5D
330
13947
100
AcDbEntity
  8
1
  6
Continuous
100
AcDbCircle
 10
356.8820759999999
 20
352.8999999999999
 30
0.0
 40
11.0
100
AcDbArc
 50
33.055731
 51
149.248498
  0
CIRCLE
  5
13B5E
330
13947
100
AcDbEntity
  8
1
  6
Continuous
100
AcDbCircle
 10
308.8820759999999
 20
351.8999999999999
 30
0.0
 40
3.0
  0
LINE
  5
13B5F
330
13947
100
AcDbEntity
  8
4
  6
CENTER
100
AcDbLine
 10
308.8820759999999
 20
357.8999999999999
 30
0.0
 11
308.8820759999999
 21
345.8999999999999
 31
0.0
  0
CIRCLE
  5
13B60
330
13947
100
AcDbEntity
  8
1
  6
Continuous
100
AcDbCircle
 10
308.8820759999999
 20
351.8999999999999
 30
0.0
 40
4.299999999999998
  0
LINE
  5
13B61
330
13947
100
AcDbEntity
  8
1
  6
Continuous
100
AcDbLine
 10
345.882076
 20
355.8999999999999
 30
0.0
 11
345.882076
 21
338.8999999999999
 31
0.0
  0
CIRCLE
  5
13B62
330
13947
100
AcDbEntity
  8
1
  6
Continuous
100
AcDbCircle
 10
377.8820759999999
 20
347.3999999999999
 30
0.0
 40
3.0
  0
LINE
  5
13B63
330
13947
100
AcDbEntity
  8
1
  6
Continuous
100
AcDbLine
 10
348.8820759999999
 20
358.8999999999999
 30
0.0
 11
367.8820759999999
 21
358.8999999999999
 31
0.0
  0
LINE
  5
13B64
330
13947
100
AcDbEntity
  8
1
  6
Continuous
100
AcDbLine
 10
367.8820759999999
 20
360.4999999999998
 30
0.0
 11
367.8820759999999
 21
358.8999999999999
 31
0.0
  0
CIRCLE
  5
13B65
330
13947
100
AcDbEntity
  8
1
  6
Continuous
100
AcDbCircle
 10
365.8820759999999
 20
347.3999999999999
 30
0.0
 40
2.0
  0
ARC
  5
13B66
330
13947
100
AcDbEntity
  8
1
  6
Continuous
100
AcDbCircle
 10
356.8820759999999
 20
352.8999999999999
 30
0.0
 40
11.0
100
AcDbArc
 50
318.1935870000001
 51
338.9472819999999
  0
LINE
  5
13B67
330
13947
100
AcDbEntity
  8
4
  6
CENTER
100
AcDbLine
 10
365.8820759999999
 20
343.3999999999999
 30
0.0
 11
365.8820759999999
 21
351.3999999999999
 31
0.0
  0
CIRCLE
  5
13B68
330
13947
100
AcDbEntity
  8
1
  6
Continuous
100
AcDbCircle
 10
356.8820759999999
 20
352.8999999999999
 30
0.0
 40
3.649999999999999
  0
LINE
  5
13B69
330
13947
100
AcDbEntity
  8
3
  6
DASHED
100
AcDbLine
 10
359.8820759999999
 20
342.3
 30
0.0
 11
360.705606
 21
342.3
 31
0.0
  0
LINE
  5
13B6A
330
13947
100
AcDbEntity
  8
3
  6
DASHED
100
AcDbLine
 10
359.8820759999999
 20
341.9
 30
0.0
 11
359.8820759999999
 21
342.3
 31
0.0
  0
LINE
  5
13B6B
330
13947
100
AcDbEntity
  8
3
  6
DASHED
100
AcDbLine
 10
366.882076
 20
345.3
 30
0.0
 11
359.8820759999999
 21
341.9
 31
0.0
  0
LINE
  5
13B6C
330
13947
100
AcDbEntity
  8
3
  6
DASHED
100
AcDbLine
 10
366.882076
 20
343.6999999999999
 30
0.0
 11
359.8820759999999
 21
340.3
 31
0.0
  0
LINE
  5
13B6D
330
13947
100
AcDbEntity
  8
3
  6
DASHED
100
AcDbLine
 10
373.8820759999999
 20
341.9
 30
0.0
 11
373.8820759999999
 21
342.3
 31
0.0
  0
LINE
  5
13B6E
330
13947
100
AcDbEntity
  8
3
  6
DASHED
100
AcDbLine
 10
366.882076
 20
345.3
 30
0.0
 11
373.8820759999999
 21
341.9
 31
0.0
  0
LINE
  5
13B6F
330
13947
100
AcDbEntity
  8
3
  6
DASHED
100
AcDbLine
 10
366.882076
 20
343.6999999999999
 30
0.0
 11
373.8820759999999
 21
340.3
 31
0.0
  0
LINE
  5
13B70
330
13947
100
AcDbEntity
  8
3
  6
DASHED
100
AcDbLine
 10
373.0585469999998
 20
342.3
 30
0.0
 11
373.8820759999999
 21
342.3
 31
0.0
  0
LINE
  5
13B71
330
13947
100
AcDbEntity
  8
3
  6
DASHED
100
AcDbLine
 10
363.999723
 20
342.3
 30
0.0
 11
369.7644289999999
 21
342.3
 31
0.0
  0
ARC
  5
13B72
330
13947
100
AcDbEntity
  8
3
  6
DASHED
100
AcDbCircle
 10
356.8820759999999
 20
352.8999999999999
 30
0.0
 40
11.0
100
AcDbArc
 50
338.9472819999999
 51
33.055731
  0
LINE
  5
13B73
330
13947
100
AcDbEntity
  8
4
  6
CENTER
100
AcDbLine
 10
356.8820759999999
 20
338.8999999999999
 30
0.0
 11
356.8820759999999
 21
366.9
 31
0.0
  0
LINE
  5
13B74
330
13947
100
AcDbEntity
  8
4
  6
CENTER
100
AcDbLine
 10
377.8820759999999
 20
353.3999999999999
 30
0.0
 11
377.8820759999999
 21
341.3999999999999
 31
0.0
  0
LINE
  5
13B75
330
13947
100
AcDbEntity
  8
1
  6
Continuous
100
AcDbLine
 10
348.8820759999999
 20
335.8999999999999
 30
0.0
 11
395.882076
 21
335.8999999999999
 31
0.0
  0
LINE
  5
13B76
330
13947
100
AcDbEntity
  8
1
  6
Continuous
100
AcDbLine
 10
395.882076
 20
335.8999999999999
 30
0.0
 11
395.882076
 21
334.2999999999999
 31
0.0
  0
LINE
  5
13B77
330
13947
100
AcDbEntity
  8
4
  6
CENTER
100
AcDbLine
 10
477.882076
 20
46.21251899999999
 30
0.0
 11
477.882076
 21
38.212519
 31
0.0
  0
LINE
  5
13B78
330
13947
100
AcDbEntity
  8
4
  6
CENTER
100
AcDbLine
 10
429.8820759999999
 20
40.04579299999997
 30
0.0
 11
429.8820759999999
 21
58.0
 31
0.0
  0
ARC
  5
13B79
330
13947
100
AcDbEntity
  8
3
  6
DASHED
100
AcDbCircle
 10
415.882076
 20
48.5
 30
0.0
 40
3.0
100
AcDbArc
 50
270.0
 51
0.0
  0
LINE
  5
13B7A
330
13947
100
AcDbEntity
  8
1
  6
Continuous
100
AcDbLine
 10
440.382076
 20
50.89999999999999
 30
0.0
 11
419.3820759999998
 21
50.89999999999999
 31
0.0
  0
LINE
  5
13B7B
330
13947
100
AcDbEntity
  8
1
  6
Continuous
100
AcDbLine
 10
418.8820759999998
 20
49.5
 30
0.0
 11
418.8820759999998
 21
51.9
 31
0.0
  0
ARC
  5
13B7C
330
13947
100
AcDbEntity
  8
1
  6
Continuous
100
AcDbCircle
 10
419.3820759999998
 20
50.4
 30
0.0
 40
0.5
100
AcDbArc
 50
90.0
 51
180.0
  0
LINE
  5
13B7D
330
13947
100
AcDbEntity
  8
3
  6
DASHED
100
AcDbLine
 10
418.8820759999998
 20
48.5
 30
0.0
 11
418.8820759999998
 21
49.5
 31
0.0
  0
LINE
  5
13B7E
330
13947
100
AcDbEntity
  8
4
  6
CENTER
100
AcDbLine
 10
420.882076
 20
56.696583
 30
0.0
 11
420.882076
 21
48.69658300000001
 31
0.0
  0
LINE
  5
13B7F
330
13947
100
AcDbEntity
  8
4
  6
CENTER
100
AcDbLine
 10
408.8820759999999
 20
56.696583
 30
0.0
 11
408.8820759999999
 21
48.69658300000001
 31
0.0
  0
LINE
  5
13B80
330
13947
100
AcDbEntity
  8
1
  6
Continuous
100
AcDbLine
 10
440.882076
 20
51.9
 30
0.0
 11
440.882076
 21
53.5
 31
0.0
  0
LINE
  5
13B81
330
13947
100
AcDbEntity
  8
1
  6
Continuous
100
AcDbLine
 10
433.532076
 20
54.2
 30
0.0
 11
432.8320759999998
 21
53.5
 31
0.0
  0
LINE
  5
13B82
330
13947
100
AcDbEntity
  8
1
  6
Continuous
100
AcDbLine
 10
426.2320759999998
 20
54.2
 30
0.0
 11
426.932076
 21
53.5
 31
0.0
  0
LINE
  5
13B83
330
13947
100
AcDbEntity
  8
1
  6
Continuous
100
AcDbLine
 10
433.532076
 20
54.2
 30
0.0
 11
426.2320759999998
 21
54.2
 31
0.0
  0
LINE
  5
13B84
330
13947
100
AcDbEntity
  8
1
  6
Continuous
100
AcDbLine
 10
425.1320759999998
 20
51.4
 30
0.0
 11
434.632076
 21
51.4
 31
0.0
  0
LINE
  5
13B85
330
13947
100
AcDbEntity
  8
1
  6
Continuous
100
AcDbLine
 10
425.1320759999998
 20
51.4
 30
0.0
 11
425.6320759999998
 21
51.9
 31
0.0
  0
LINE
  5
13B86
330
13947
100
AcDbEntity
  8
1
  6
Continuous
100
AcDbLine
 10
434.632076
 20
51.4
 30
0.0
 11
434.132076
 21
51.9
 31
0.0
  0
ARC
  5
13B87
330
13947
100
AcDbEntity
  8
1
  6
Continuous
100
AcDbCircle
 10
440.382076
 20
50.4
 30
0.0
 40
0.5
100
AcDbArc
 50
0.0
 51
90.0
  0
LINE
  5
13B88
330
13947
100
AcDbEntity
  8
1
  6
Continuous
100
AcDbLine
 10
440.882076
 20
49.5
 30
0.0
 11
440.882076
 21
50.4
 31
0.0
  0
LINE
  5
13B89
330
13947
100
AcDbEntity
  8
1
  6
Continuous
100
AcDbLine
 10
425.1320759999998
 20
51.4
 30
0.0
 11
425.1320759999998
 21
50.89999999999999
 31
0.0
  0
LINE
  5
13B8A
330
13947
100
AcDbEntity
  8
1
  6
Continuous
100
AcDbLine
 10
434.632076
 20
51.4
 30
0.0
 11
434.632076
 21
50.89999999999999
 31
0.0
  0
CIRCLE
  5
13B8B
330
13947
100
AcDbEntity
  8
3
  6
DASHED
100
AcDbCircle
 10
429.8820759999999
 20
347.8999999999999
 30
0.0
 40
11.0
  0
LINE
  5
13B8C
330
13947
100
AcDbEntity
  8
4
  6
CENTER
100
AcDbLine
 10
443.78497
 20
347.8999999999999
 30
0.0
 11
415.7849699999998
 21
347.8999999999999
 31
0.0
  0
LINE
  5
13B8D
330
13947
100
AcDbEntity
  8
3
  6
DASHED
100
AcDbLine
 10
418.8820759999998
 20
341.9
 30
0.0
 11
418.8820759999998
 21
340.3
 31
0.0
  0
LINE
  5
13B8E
330
13947
100
AcDbEntity
  8
4
  6
CENTER
100
AcDbLine
 10
420.882076
 20
347.3999999999999
 30
0.0
 11
420.882076
 21
356.4
 31
0.0
  0
LINE
  5
13B8F
330
13947
100
AcDbEntity
  8
4
  6
CENTER
100
AcDbLine
 10
408.8820759999999
 20
345.8999999999999
 30
0.0
 11
408.8820759999999
 21
357.8999999999999
 31
0.0
  0
LINE
  5
13B90
330
13947
100
AcDbEntity
  8
4
  6
CENTER
100
AcDbLine
 10
429.8820759999999
 20
361.8999999999999
 30
0.0
 11
429.8820759999999
 21
333.8999999999999
 31
0.0
  0
ARC
  5
13B91
330
13947
100
AcDbEntity
  8
3
  6
DASHED
100
AcDbCircle
 10
437.8820759999999
 20
344.8999999999998
 30
0.0
 40
3.0
100
AcDbArc
 50
298.9758569999999
 51
0.0
  0
LINE
  5
13B92
330
13947
100
AcDbEntity
  8
3
  6
DASHED
100
AcDbLine
 10
440.882076
 20
358.8999999999999
 30
0.0
 11
440.882076
 21
344.8999999999998
 31
0.0
  0
ARC
  5
13B93
330
13947
100
AcDbEntity
  8
1
  6
Continuous
100
AcDbCircle
 10
437.8820759999999
 20
358.8999999999999
 30
0.0
 40
3.0
100
AcDbArc
 50
32.230953
 51
90.0
  0
ARC
  5
13B94
330
13947
100
AcDbEntity
  8
3
  6
DASHED
100
AcDbCircle
 10
437.8820759999999
 20
358.8999999999999
 30
0.0
 40
3.0
100
AcDbArc
 50
0.0
 51
32.230953
  0
LINE
  5
13B95
330
13947
100
AcDbEntity
  8
4
  6
CENTER
100
AcDbLine
 10
477.882076
 20
353.3999999999999
 30
0.0
 11
477.882076
 21
341.3999999999999
 31
0.0
  0
CIRCLE
  5
13B96
330
13947
100
AcDbEntity
  8
1
  6
Continuous
100
AcDbCircle
 10
477.882076
 20
347.3999999999999
 30
0.0
 40
3.0
  0
LINE
  5
13B97
330
13947
100
AcDbEntity
  8
4
  6
CENTER
100
AcDbLine
 10
85.882076
 20
143.9
 30
0.0
 11
700.959098
 21
143.9
 31
0.0
  0
LINE
  5
13B98
330
13947
100
AcDbEntity
  8
1
  6
Continuous
100
AcDbLine
 10
90.882076
 20
155.4999999999998
 30
0.0
 11
359.8820759999999
 21
155.4999999999998
 31
0.0
  0
LINE
  5
13B99
330
13947
100
AcDbEntity
  8
1
  6
Continuous
100
AcDbLine
 10
93.88207599999999
 20
133.9
 30
0.0
 11
437.8820759999999
 21
133.9
 31
0.0
  0
LINE
  5
13B9A
330
13947
100
AcDbEntity
  8
1
  6
Continuous
100
AcDbLine
 10
395.882076
 20
249.9
 30
0.0
 11
93.88207599999999
 21
249.9
 31
0.0
  0
LINE
  5
13B9B
330
13947
100
AcDbEntity
  8
1
  6
Continuous
100
AcDbLine
 10
440.882076
 20
241.9
 30
0.0
 11
90.882076
 21
241.9
 31
0.0
  0
LINE
  5
13B9C
330
13947
100
AcDbEntity
  8
1
  6
Continuous
100
AcDbLine
 10
90.882076
 20
136.8999999999997
 30
0.0
 11
90.882076
 21
155.4999999999998
 31
0.0
  0
LINE
  5
13B9D
330
13947
100
AcDbEntity
  8
1
  6
Continuous
100
AcDbLine
 10
90.882076
 20
246.9
 30
0.0
 11
90.882076
 21
241.9
 31
0.0
  0
ARC
  5
13B9E
330
13947
100
AcDbEntity
  8
1
  6
Continuous
100
AcDbCircle
 10
93.88207599999999
 20
246.9
 30
0.0
 40
3.0
100
AcDbArc
 50
90.0
 51
180.0
  0
LINE
  5
13B9F
330
13947
100
AcDbEntity
  8
4
  6
CENTER
100
AcDbLine
 10
108.8820759999999
 20
238.703417
 30
0.0
 11
108.8820759999999
 21
246.703417
 31
0.0
  0
LINE
  5
13BA0
330
13947
100
AcDbEntity
  8
4
  6
CENTER
100
AcDbLine
 10
123.882076
 20
238.703417
 30
0.0
 11
123.882076
 21
246.703417
 31
0.0
  0
ARC
  5
13BA1
330
13947
100
AcDbEntity
  8
1
  6
Continuous
100
AcDbCircle
 10
93.88207599999999
 20
136.8999999999997
 30
0.0
 40
3.0
100
AcDbArc
 50
180.0
 51
270.0
  0
CIRCLE
  5
13BA2
330
13947
100
AcDbEntity
  8
1
  6
Continuous
100
AcDbCircle
 10
123.882076
 20
143.9
 30
0.0
 40
2.0
  0
LINE
  5
13BA3
330
13947
100
AcDbEntity
  8
4
  6
CENTER
100
AcDbLine
 10
108.8820759999999
 20
137.9
 30
0.0
 11
108.8820759999999
 21
149.9
 31
0.0
  0
CIRCLE
  5
13BA4
330
13947
100
AcDbEntity
  8
1
  6
Continuous
100
AcDbCircle
 10
108.8820759999999
 20
143.9
 30
0.0
 40
3.0
  0
LINE
  5
13BA5
330
13947
100
AcDbEntity
  8
4
  6
CENTER
100
AcDbLine
 10
123.882076
 20
147.9
 30
0.0
 11
123.882076
 21
139.9
 31
0.0
  0
LINE
  5
13BA6
330
13947
100
AcDbEntity
  8
4
  6
CENTER
100
AcDbLine
 10
208.8820759999999
 20
238.703417
 30
0.0
 11
208.8820759999999
 21
246.703417
 31
0.0
  0
CIRCLE
  5
13BA7
330
13947
100
AcDbEntity
  8
1
  6
Continuous
100
AcDbCircle
 10
208.8820759999999
 20
143.9
 30
0.0
 40
3.0
  0
LINE
  5
13BA8
330
13947
100
AcDbEntity
  8
4
  6
CENTER
100
AcDbLine
 10
208.8820759999999
 20
137.9
 30
0.0
 11
208.8820759999999
 21
149.9
 31
0.0
  0
LINE
  5
13BA9
330
13947
100
AcDbEntity
  8
3
  6
DASHED
100
AcDbLine
 10
345.882076
 20
136.8999999999997
 30
0.0
 11
440.882076
 21
136.8999999999997
 31
0.0
  0
LINE
  5
13BAA
330
13947
100
AcDbEntity
  8
1
  6
Continuous
100
AcDbLine
 10
373.8820759999999
 20
155.4999999999998
 30
0.0
 11
418.8820759999998
 21
155.4999999999998
 31
0.0
  0
LINE
  5
13BAB
330
13947
100
AcDbEntity
  8
3
  6
DASHED
100
AcDbLine
 10
367.8820759999999
 20
135.3
 30
0.0
 11
440.4197919999998
 21
135.3
 31
0.0
  0
LINE
  5
13BAC
330
13947
100
AcDbEntity
  8
3
  6
DASHED
100
AcDbLine
 10
415.882076
 20
249.9
 30
0.0
 11
395.882076
 21
249.9
 31
0.0
  0
LINE
  5
13BAD
330
13947
100
AcDbEntity
  8
4
  6
CENTER
100
AcDbLine
 10
366.882076
 20
158.319526
 30
0.0
 11
366.882076
 21
149.65481
 31
0.0
  0
LINE
  5
13BAE
330
13947
100
AcDbEntity
  8
1
  6
Continuous
100
AcDbLine
 10
369.7644289999999
 20
153.5
 30
0.0
 11
373.8820759999999
 21
155.4999999999998
 31
0.0
  0
LINE
  5
13BAF
330
13947
100
AcDbEntity
  8
1
  6
Continuous
100
AcDbLine
 10
373.8820759999999
 20
155.4999999999998
 30
0.0
 11
373.8820759999999
 21
153.5
 31
0.0
  0
LINE
  5
13BB0
330
13947
100
AcDbEntity
  8
1
  6
Continuous
100
AcDbLine
 10
363.999723
 20
153.5
 30
0.0
 11
359.8820759999999
 21
155.4999999999998
 31
0.0
  0
LINE
  5
13BB1
330
13947
100
AcDbEntity
  8
1
  6
Continuous
100
AcDbLine
 10
359.8820759999999
 20
155.4999999999998
 30
0.0
 11
359.8820759999999
 21
153.5
 31
0.0
  0
LINE
  5
13BB2
330
13947
100
AcDbEntity
  8
4
  6
CENTER
100
AcDbLine
 10
356.8820759999999
 20
156.9
 30
0.0
 11
356.8820759999999
 21
128.9
 31
0.0
  0
LINE
  5
13BB3
330
13947
100
AcDbEntity
  8
3
  6
DASHED
100
AcDbLine
 10
345.882076
 20
136.8999999999997
 30
0.0
 11
345.882076
 21
155.4999999999998
 31
0.0
  0
LINE
  5
13BB4
330
13947
100
AcDbEntity
  8
1
  6
Continuous
100
AcDbLine
 10
367.3820759999999
 20
251.3
 30
0.0
 11
346.3820759999999
 21
251.3
 31
0.0
  0
LINE
  5
13BB5
330
13947
100
AcDbEntity
  8
1
  6
Continuous
100
AcDbLine
 10
395.882076
 20
252.3
 30
0.0
 11
345.882076
 21
252.3
 31
0.0
  0
LINE
  5
13BB6
330
13947
100
AcDbEntity
  8
4
  6
CENTER
100
AcDbLine
 10
308.8820759999999
 20
238.703417
 30
0.0
 11
308.8820759999999
 21
246.703417
 31
0.0
  0
LINE
  5
13BB7
330
13947
100
AcDbEntity
  8
1
  6
Continuous
100
AcDbLine
 10
345.882076
 20
250.8
 30
0.0
 11
345.882076
 21
249.9
 31
0.0
  0
ARC
  5
13BB8
330
13947
100
AcDbEntity
  8
1
  6
Continuous
100
AcDbCircle
 10
346.3820759999999
 20
250.8
 30
0.0
 40
0.5
100
AcDbArc
 50
90.0
 51
180.0
  0
LINE
  5
13BB9
330
13947
100
AcDbEntity
  8
1
  6
Continuous
100
AcDbLine
 10
345.882076
 20
253.9
 30
0.0
 11
345.882076
 21
252.3
 31
0.0
  0
LINE
  5
13BBA
330
13947
100
AcDbEntity
  8
4
  6
CENTER
100
AcDbLine
 10
366.882076
 20
250.4528909999999
 30
0.0
 11
366.882076
 21
238.866696
 31
0.0
  0
LINE
  5
13BBB
330
13947
100
AcDbEntity
  8
1
  6
Continuous
100
AcDbLine
 10
373.8820759999999
 20
249.9
 30
0.0
 11
373.8820759999999
 21
241.9
 31
0.0
  0
LINE
  5
13BBC
330
13947
100
AcDbEntity
  8
1
  6
Continuous
100
AcDbLine
 10
359.8820759999999
 20
249.9
 30
0.0
 11
359.8820759999999
 21
241.9
 31
0.0
  0
LINE
  5
13BBD
330
13947
100
AcDbEntity
  8
1
  6
Continuous
100
AcDbLine
 10
366.882076
 20
243.9
 30
0.0
 11
366.882076
 21
249.9
 31
0.0
  0
LINE
  5
13BBE
330
13947
100
AcDbEntity
  8
1
  6
Continuous
100
AcDbLine
 10
352.132076
 20
251.8
 30
0.0
 11
361.6320759999999
 21
251.8
 31
0.0
  0
LINE
  5
13BBF
330
13947
100
AcDbEntity
  8
1
  6
Continuous
100
AcDbLine
 10
361.6320759999999
 20
251.8
 30
0.0
 11
361.6320759999999
 21
251.3
 31
0.0
  0
LINE
  5
13BC0
330
13947
100
AcDbEntity
  8
1
  6
Continuous
100
AcDbLine
 10
361.6320759999999
 20
251.8
 30
0.0
 11
361.1320759999999
 21
252.3
 31
0.0
  0
LINE
  5
13BC1
330
13947
100
AcDbEntity
  8
1
  6
Continuous
100
AcDbLine
 10
352.132076
 20
251.8
 30
0.0
 11
352.132076
 21
251.3
 31
0.0
  0
LINE
  5
13BC2
330
13947
100
AcDbEntity
  8
1
  6
Continuous
100
AcDbLine
 10
352.132076
 20
251.8
 30
0.0
 11
352.6320759999999
 21
252.3
 31
0.0
  0
ARC
  5
13BC3
330
13947
100
AcDbEntity
  8
1
  6
Continuous
100
AcDbCircle
 10
367.3820759999999
 20
250.8
 30
0.0
 40
0.5
100
AcDbArc
 50
0.0
 51
90.0
  0
LINE
  5
13BC4
330
13947
100
AcDbEntity
  8
1
  6
Continuous
100
AcDbLine
 10
367.8820759999999
 20
252.3
 30
0.0
 11
367.8820759999999
 21
249.9
 31
0.0
  0
LINE
  5
13BC5
330
13947
100
AcDbEntity
  8
1
  6
Continuous
100
AcDbLine
 10
373.8820759999999
 20
243.5
 30
0.0
 11
359.8820759999999
 21
243.5
 31
0.0
  0
LINE
  5
13BC6
330
13947
100
AcDbEntity
  8
1
  6
Continuous
100
AcDbLine
 10
373.8820759999999
 20
243.9
 30
0.0
 11
359.8820759999999
 21
243.9
 31
0.0
  0
LINE
  5
13BC7
330
13947
100
AcDbEntity
  8
1
  6
Continuous
100
AcDbLine
 10
360.5320759999998
 20
254.5999999999999
 30
0.0
 11
353.2320759999998
 21
254.5999999999999
 31
0.0
  0
LINE
  5
13BC8
330
13947
100
AcDbEntity
  8
4
  6
CENTER
100
AcDbLine
 10
356.8820759999999
 20
240.4802299999999
 30
0.0
 11
356.8820759999999
 21
258.3999999999999
 31
0.0
  0
LINE
  5
13BC9
330
13947
100
AcDbEntity
  8
4
  6
CENTER
100
AcDbLine
 10
365.8820759999999
 20
249.187481
 30
0.0
 11
365.8820759999999
 21
257.187481
 31
0.0
  0
LINE
  5
13BCA
330
13947
100
AcDbEntity
  8
1
  6
Continuous
100
AcDbLine
 10
360.5320759999998
 20
254.5999999999999
 30
0.0
 11
359.832076
 21
253.9
 31
0.0
  0
LINE
  5
13BCB
330
13947
100
AcDbEntity
  8
1
  6
Continuous
100
AcDbLine
 10
353.2320759999998
 20
254.5999999999999
 30
0.0
 11
353.9320759999998
 21
253.9
 31
0.0
  0
ARC
  5
13BCC
330
13947
100
AcDbEntity
  8
1
  6
Continuous
100
AcDbCircle
 10
398.8820759999999
 20
248.9
 30
0.0
 40
3.0
100
AcDbArc
 50
180.0
 51
270.0
  0
LINE
  5
13BCD
330
13947
100
AcDbEntity
  8
1
  6
Continuous
100
AcDbLine
 10
395.882076
 20
253.9
 30
0.0
 11
395.882076
 21
248.9
 31
0.0
  0
LINE
  5
13BCE
330
13947
100
AcDbEntity
  8
4
  6
CENTER
100
AcDbLine
 10
377.8820759999999
 20
249.187481
 30
0.0
 11
377.8820759999999
 21
257.187481
 31
0.0
  0
ARC
  5
13BCF
330
13947
100
AcDbEntity
  8
1
  6
Continuous
100
AcDbCircle
 10
348.8820759999999
 20
156.9
 30
0.0
 40
3.0
100
AcDbArc
 50
90.0
 51
180.0
  0
LINE
  5
13BD0
330
13947
100
AcDbEntity
  8
1
  6
Continuous
100
AcDbLine
 10
345.882076
 20
155.4999999999998
 30
0.0
 11
345.882076
 21
156.9
 31
0.0
  0
LINE
  5
13BD1
330
13947
100
AcDbEntity
  8
1
  6
Continuous
100
AcDbLine
 10
395.882076
 20
159.9
 30
0.0
 11
395.882076
 21
161.5
 31
0.0
  0
LINE
  5
13BD2
330
13947
100
AcDbEntity
  8
4
  6
CENTER
100
AcDbLine
 10
370.882076
 20
142.9
 30
0.0
 11
342.8820759999999
 21
142.9
 31
0.0
  0
ARC
  5
13BD3
330
13947
100
AcDbEntity
  8
3
  6
DASHED
100
AcDbCircle
 10
356.8820759999999
 20
142.9
 30
0.0
 40
11.0
100
AcDbArc
 50
305.096801
 51
234.9031990000001
  0
CIRCLE
  5
13BD4
330
13947
100
AcDbEntity
  8
1
  6
Continuous
100
AcDbCircle
 10
308.8820759999999
 20
143.9
 30
0.0
 40
3.0
  0
LINE
  5
13BD5
330
13947
100
AcDbEntity
  8
4
  6
CENTER
100
AcDbLine
 10
308.8820759999999
 20
137.9
 30
0.0
 11
308.8820759999999
 21
149.9
 31
0.0
  0
LINE
  5
13BD6
330
13947
100
AcDbEntity
  8
3
  6
DASHED
100
AcDbLine
 10
367.8820759999999
 20
135.3
 30
0.0
 11
367.8820759999999
 21
136.8999999999997
 31
0.0
  0
ARC
  5
13BD7
330
13947
100
AcDbEntity
  8
1
  6
Continuous
100
AcDbCircle
 10
356.8820759999999
 20
142.9
 30
0.0
 40
11.0
100
AcDbArc
 50
234.9031990000001
 51
305.096801
  0
LINE
  5
13BD8
330
13947
100
AcDbEntity
  8
1
  6
Continuous
100
AcDbLine
 10
373.0585469999998
 20
153.5
 30
0.0
 11
373.8820759999999
 21
153.9
 31
0.0
  0
LINE
  5
13BD9
330
13947
100
AcDbEntity
  8
1
  6
Continuous
100
AcDbLine
 10
360.705606
 20
153.5
 30
0.0
 11
359.8820759999999
 21
153.9
 31
0.0
  0
LINE
  5
13BDA
330
13947
100
AcDbEntity
  8
1
  6
Continuous
100
AcDbLine
 10
359.8820759999999
 20
153.5
 30
0.0
 11
373.8820759999999
 21
153.5
 31
0.0
  0
LINE
  5
13BDB
330
13947
100
AcDbEntity
  8
4
  6
CENTER
100
AcDbLine
 10
365.8820759999999
 20
152.4
 30
0.0
 11
365.8820759999999
 21
144.4
 31
0.0
  0
LINE
  5
13BDC
330
13947
100
AcDbEntity
  8
4
  6
CENTER
100
AcDbLine
 10
377.8820759999999
 20
142.4
 30
0.0
 11
377.8820759999999
 21
154.4
 31
0.0
  0
LINE
  5
13BDD
330
13947
100
AcDbEntity
  8
1
  6
Continuous
100
AcDbLine
 10
418.8820759999998
 20
153.9
 30
0.0
 11
418.8820759999998
 21
155.4999999999998
 31
0.0
  0
ARC
  5
13BDE
330
13947
100
AcDbEntity
  8
1
  6
Continuous
100
AcDbCircle
 10
429.8820759999999
 20
147.9
 30
0.0
 40
11.0
100
AcDbArc
 50
30.75150199999999
 51
146.9442689999999
  0
ARC
  5
13BDF
330
13947
100
AcDbEntity
  8
3
  6
DASHED
100
AcDbCircle
 10
429.8820759999999
 20
147.9
 30
0.0
 40
11.0
100
AcDbArc
 50
146.9442689999999
 51
30.75150199999999
  0
LINE
  5
13BE0
330
13947
100
AcDbEntity
  8
4
  6
CENTER
100
AcDbLine
 10
429.8820759999999
 20
138.1995399999998
 30
0.0
 11
429.8820759999999
 21
157.60046
 31
0.0
  0
LINE
  5
13BE1
330
13947
100
AcDbEntity
  8
1
  6
Continuous
100
AcDbLine
 10
440.382076
 20
244.4999999999998
 30
0.0
 11
419.3820759999998
 21
244.4999999999998
 31
0.0
  0
LINE
  5
13BE2
330
13947
100
AcDbEntity
  8
1
  6
Continuous
100
AcDbLine
 10
440.882076
 20
243.5
 30
0.0
 11
418.8820759999998
 21
243.5
 31
0.0
  0
LINE
  5
13BE3
330
13947
100
AcDbEntity
  8
1
  6
Continuous
100
AcDbLine
 10
418.8820759999998
 20
245.9
 30
0.0
 11
418.8820759999998
 21
241.9
 31
0.0
  0
LINE
  5
13BE4
330
13947
100
AcDbEntity
  8
4
  6
CENTER
100
AcDbLine
 10
408.8820759999999
 20
238.703417
 30
0.0
 11
408.8820759999999
 21
246.703417
 31
0.0
  0
LINE
  5
13BE5
330
13947
100
AcDbEntity
  8
4
  6
CENTER
100
AcDbLine
 10
420.882076
 20
238.703417
 30
0.0
 11
420.882076
 21
246.703417
 31
0.0
  0
ARC
  5
13BE6
330
13947
100
AcDbEntity
  8
3
  6
DASHED
100
AcDbCircle
 10
415.882076
 20
246.9
 30
0.0
 40
3.0
100
AcDbArc
 50
0.0
 51
90.0
  0
ARC
  5
13BE7
330
13947
100
AcDbEntity
  8
1
  6
Continuous
100
AcDbCircle
 10
419.3820759999998
 20
245.0
 30
0.0
 40
0.5
100
AcDbArc
 50
180.0
 51
270.0
  0
LINE
  5
13BE8
330
13947
100
AcDbEntity
  8
3
  6
DASHED
100
AcDbLine
 10
418.8820759999998
 20
246.9
 30
0.0
 11
418.8820759999998
 21
245.9
 31
0.0
  0
LINE
  5
13BE9
330
13947
100
AcDbEntity
  8
1
  6
Continuous
100
AcDbLine
 10
434.632076
 20
244.0
 30
0.0
 11
434.632076
 21
244.4999999999998
 31
0.0
  0
LINE
  5
13BEA
330
13947
100
AcDbEntity
  8
1
  6
Continuous
100
AcDbLine
 10
425.1320759999998
 20
244.0
 30
0.0
 11
425.1320759999998
 21
244.4999999999998
 31
0.0
  0
LINE
  5
13BEB
330
13947
100
AcDbEntity
  8
1
  6
Continuous
100
AcDbLine
 10
440.882076
 20
245.9
 30
0.0
 11
440.882076
 21
245.0
 31
0.0
  0
ARC
  5
13BEC
330
13947
100
AcDbEntity
  8
1
  6
Continuous
100
AcDbCircle
 10
440.382076
 20
245.0
 30
0.0
 40
0.5
100
AcDbArc
 50
270.0
 51
0.0
  0
LINE
  5
13BED
330
13947
100
AcDbEntity
  8
1
  6
Continuous
100
AcDbLine
 10
434.632076
 20
244.0
 30
0.0
 11
434.132076
 21
243.5
 31
0.0
  0
LINE
  5
13BEE
330
13947
100
AcDbEntity
  8
1
  6
Continuous
100
AcDbLine
 10
425.1320759999998
 20
244.0
 30
0.0
 11
425.6320759999998
 21
243.5
 31
0.0
  0
LINE
  5
13BEF
330
13947
100
AcDbEntity
  8
1
  6
Continuous
100
AcDbLine
 10
425.1320759999998
 20
244.0
 30
0.0
 11
434.632076
 21
244.0
 31
0.0
  0
LINE
  5
13BF0
330
13947
100
AcDbEntity
  8
1
  6
Continuous
100
AcDbLine
 10
433.532076
 20
241.1999999999999
 30
0.0
 11
426.2320759999998
 21
241.1999999999999
 31
0.0
  0
LINE
  5
13BF1
330
13947
100
AcDbEntity
  8
1
  6
Continuous
100
AcDbLine
 10
426.2320759999998
 20
241.1999999999999
 30
0.0
 11
426.932076
 21
241.9
 31
0.0
  0
LINE
  5
13BF2
330
13947
100
AcDbEntity
  8
1
  6
Continuous
100
AcDbLine
 10
433.532076
 20
241.1999999999999
 30
0.0
 11
432.8320759999998
 21
241.9
 31
0.0
  0
LINE
  5
13BF3
330
13947
100
AcDbEntity
  8
1
  6
Continuous
100
AcDbLine
 10
440.882076
 20
243.5
 30
0.0
 11
440.882076
 21
241.9
 31
0.0
  0
LINE
  5
13BF4
330
13947
100
AcDbEntity
  8
4
  6
CENTER
100
AcDbLine
 10
429.8820759999999
 20
255.3542069999998
 30
0.0
 11
429.8820759999999
 21
237.4
 31
0.0
  0
LINE
  5
13BF5
330
13947
100
AcDbEntity
  8
4
  6
CENTER
100
AcDbLine
 10
477.882076
 20
249.187481
 30
0.0
 11
477.882076
 21
257.187481
 31
0.0
  0
LINE
  5
13BF6
330
13947
100
AcDbEntity
  8
4
  6
CENTER
100
AcDbLine
 10
416.1179279999998
 20
147.9
 30
0.0
 11
443.8024429999998
 21
147.9
 31
0.0
  0
LINE
  5
13BF7
330
13947
100
AcDbEntity
  8
1
  6
Continuous
100
AcDbLine
 10
418.8820759999998
 20
153.9
 30
0.0
 11
437.8820759999999
 21
153.9
 31
0.0
  0
CIRCLE
  5
13BF8
330
13947
100
AcDbEntity
  8
1
  6
Continuous
100
AcDbCircle
 10
408.8820759999999
 20
143.9
 30
0.0
 40
3.0
  0
LINE
  5
13BF9
330
13947
100
AcDbEntity
  8
4
  6
CENTER
100
AcDbLine
 10
408.8820759999999
 20
137.9
 30
0.0
 11
408.8820759999999
 21
149.9
 31
0.0
  0
LINE
  5
13BFA
330
13947
100
AcDbEntity
  8
4
  6
CENTER
100
AcDbLine
 10
420.882076
 20
139.4
 30
0.0
 11
420.882076
 21
148.3999999999998
 31
0.0
  0
CIRCLE
  5
13BFB
330
13947
100
AcDbEntity
  8
1
  6
Continuous
100
AcDbCircle
 10
420.882076
 20
143.9
 30
0.0
 40
2.0
  0
ARC
  5
13BFC
330
13947
100
AcDbEntity
  8
1
  6
Continuous
100
AcDbCircle
 10
437.8820759999999
 20
136.8999999999997
 30
0.0
 40
3.0
100
AcDbArc
 50
270.0
 51
0.0
  0
ARC
  5
13BFD
330
13947
100
AcDbEntity
  8
1
  6
Continuous
100
AcDbCircle
 10
437.8820759999999
 20
150.9
 30
0.0
 40
3.0
100
AcDbArc
 50
0.0
 51
90.0
  0
LINE
  5
13BFE
330
13947
100
AcDbEntity
  8
1
  6
Continuous
100
AcDbLine
 10
440.882076
 20
136.8999999999997
 30
0.0
 11
440.882076
 21
150.9
 31
0.0
  0
CIRCLE
  5
13BFF
330
13947
100
AcDbEntity
  8
1
  6
Continuous
100
AcDbCircle
 10
429.8820759999999
 20
147.9
 30
0.0
 40
3.649999999999999
  0
CIRCLE
  5
13C00
330
13947
100
AcDbEntity
  8
1
  6
Continuous
100
AcDbCircle
 10
477.882076
 20
148.3999999999998
 30
0.0
 40
3.0
  0
CIRCLE
  5
13C01
330
13947
100
AcDbEntity
  8
1
  6
Continuous
100
AcDbCircle
 10
477.882076
 20
148.3999999999998
 30
0.0
 40
4.299999999999998
  0
LINE
  5
13C02
330
13947
100
AcDbEntity
  8
4
  6
CENTER
100
AcDbLine
 10
477.882076
 20
142.4
 30
0.0
 11
477.882076
 21
154.4
 31
0.0
  0
LINE
  5
13C03
330
13947
100
AcDbEntity
  8
4
  6
CENTER
100
AcDbLine
 10
577.882076
 20
46.21251899999999
 30
0.0
 11
577.882076
 21
38.212519
 31
0.0
  0
CIRCLE
  5
13C04
330
13947
100
AcDbEntity
  8
1
  6
Continuous
100
AcDbCircle
 10
577.882076
 20
347.3999999999999
 30
0.0
 40
3.0
  0
LINE
  5
13C05
330
13947
100
AcDbEntity
  8
4
  6
CENTER
100
AcDbLine
 10
577.882076
 20
353.3999999999999
 30
0.0
 11
577.882076
 21
341.3999999999999
 31
0.0
  0
LINE
  5
13C06
330
13947
100
AcDbEntity
  8
4
  6
CENTER
100
AcDbLine
 10
677.882076
 20
46.21251899999999
 30
0.0
 11
677.882076
 21
38.212519
 31
0.0
  0
LINE
  5
13C07
330
13947
100
AcDbEntity
  8
1
  6
Continuous
100
AcDbLine
 10
695.882076
 20
41.5
 30
0.0
 11
695.882076
 21
46.5
 31
0.0
  0
LINE
  5
13C08
330
13947
100
AcDbEntity
  8
4
  6
CENTER
100
AcDbLine
 10
662.8820759999999
 20
46.21251899999999
 30
0.0
 11
662.8820759999999
 21
38.212519
 31
0.0
  0
ARC
  5
13C09
330
13947
100
AcDbEntity
  8
1
  6
Continuous
100
AcDbCircle
 10
692.8820759999996
 20
46.5
 30
0.0
 40
3.0
100
AcDbArc
 50
0.0
 51
90.0
  0
CIRCLE
  5
13C0A
330
13947
100
AcDbEntity
  8
1
  6
Continuous
100
AcDbCircle
 10
677.882076
 20
347.3999999999999
 30
0.0
 40
3.0
  0
LINE
  5
13C0B
330
13947
100
AcDbEntity
  8
4
  6
CENTER
100
AcDbLine
 10
662.8820759999999
 20
351.8999999999999
 30
0.0
 11
662.8820759999999
 21
342.8999999999998
 31
0.0
  0
CIRCLE
  5
13C0C
330
13947
100
AcDbEntity
  8
1
  6
Continuous
100
AcDbCircle
 10
662.8820759999999
 20
347.3999999999999
 30
0.0
 40
2.0
  0
LINE
  5
13C0D
330
13947
100
AcDbEntity
  8
1
  6
Continuous
100
AcDbLine
 10
695.882076
 20
360.4999999999998
 30
0.0
 11
695.882076
 21
334.2999999999999
 31
0.0
  0
LINE
  5
13C0E
330
13947
100
AcDbEntity
  8
4
  6
CENTER
100
AcDbLine
 10
677.882076
 20
353.3999999999999
 30
0.0
 11
677.882076
 21
341.3999999999999
 31
0.0
  0
ARC
  5
13C0F
330
13947
100
AcDbEntity
  8
1
  6
Continuous
100
AcDbCircle
 10
752.8641519999998
 20
158.4
 30
0.0
 40
0.5
100
AcDbArc
 50
90.0
 51
180.0
  0
LINE
  5
13C10
330
13947
100
AcDbEntity
  8
1
  6
Continuous
100
AcDbLine
 10
761.7641519999997
 20
159.9
 30
0.0
 11
761.7641519999997
 21
136.8999999999997
 31
0.0
  0
LINE
  5
13C11
330
13947
100
AcDbEntity
  8
1
  6
Continuous
100
AcDbLine
 10
760.1641519999997
 20
159.9
 30
0.0
 11
760.1641519999997
 21
136.8999999999997
 31
0.0
  0
ARC
  5
13C12
330
13947
100
AcDbEntity
  8
1
  6
Continuous
100
AcDbCircle
 10
758.864152
 20
158.4
 30
0.0
 40
0.5
100
AcDbArc
 50
0.0
 51
90.0
  0
LINE
  5
13C13
330
13947
100
AcDbEntity
  8
4
  6
CENTER
100
AcDbLine
 10
747.12563
 20
147.9
 30
0.0
 11
760.9335029999997
 21
147.9
 31
0.0
  0
LINE
  5
13C14
330
13947
100
AcDbEntity
  8
4
  6
CENTER
100
AcDbLine
 10
764.3561499999997
 20
142.9
 30
0.0
 11
750.7081389999997
 21
142.9
 31
0.0
  0
LINE
  5
13C15
330
13947
100
AcDbEntity
  8
1
  6
Continuous
100
AcDbLine
 10
760.1641519999997
 20
136.8999999999997
 30
0.0
 11
752.8641519999998
 21
136.8999999999997
 31
0.0
  0
LINE
  5
13C16
330
13947
100
AcDbEntity
  8
1
  6
Continuous
100
AcDbLine
 10
760.1641519999997
 20
135.3
 30
0.0
 11
753.7641519999997
 21
135.3
 31
0.0
  0
LINE
  5
13C17
330
13947
100
AcDbEntity
  8
1
  6
Continuous
100
AcDbLine
 10
758.864152
 20
158.9
 30
0.0
 11
752.8641519999998
 21
158.9
 31
0.0
  0
LINE
  5
13C18
330
13947
100
AcDbEntity
  8
1
  6
Continuous
100
AcDbLine
 10
752.6641519999997
 20
131.9
 30
0.0
 11
758.6641519999997
 21
131.9
 31
0.0
  0
LINE
  5
13C19
330
13947
100
AcDbEntity
  8
1
  6
Continuous
100
AcDbLine
 10
759.1641519999996
 20
137.0
 30
0.0
 11
759.1641519999996
 21
136.8999999999997
 31
0.0
  0
LINE
  5
13C1A
330
13947
100
AcDbEntity
  8
1
  6
Continuous
100
AcDbLine
 10
759.364152
 20
158.4
 30
0.0
 11
759.364152
 21
137.4
 31
0.0
  0
ARC
  5
13C1B
330
13947
100
AcDbEntity
  8
1
  6
Continuous
100
AcDbCircle
 10
760.1641519999997
 20
136.8999999999997
 30
0.0
 40
1.6
100
AcDbArc
 50
270.0
 51
0.0
  0
LINE
  5
13C1C
330
13947
100
AcDbEntity
  8
1
  6
Continuous
100
AcDbLine
 10
759.6641519999997
 20
138.15
 30
0.0
 11
759.6641519999997
 21
147.65
 31
0.0
  0
LINE
  5
13C1D
330
13947
100
AcDbEntity
  8
1
  6
Continuous
100
AcDbLine
 10
759.6641519999997
 20
138.15
 30
0.0
 11
759.364152
 21
138.15
 31
0.0
  0
LINE
  5
13C1E
330
13947
100
AcDbEntity
  8
1
  6
Continuous
100
AcDbLine
 10
759.6641519999997
 20
138.15
 30
0.0
 11
760.1641519999997
 21
138.65
 31
0.0
  0
LINE
  5
13C1F
330
13947
100
AcDbEntity
  8
1
  6
Continuous
100
AcDbLine
 10
759.6641519999997
 20
147.65
 30
0.0
 11
759.364152
 21
147.65
 31
0.0
  0
LINE
  5
13C20
330
13947
100
AcDbEntity
  8
1
  6
Continuous
100
AcDbLine
 10
759.6641519999997
 20
147.65
 30
0.0
 11
760.1641519999997
 21
147.1499999999998
 31
0.0
  0
LINE
  5
13C21
330
13947
100
AcDbEntity
  8
1
  6
Continuous
100
AcDbLine
 10
762.4641519999999
 20
146.55
 30
0.0
 11
761.7641519999997
 21
145.8499999999999
 31
0.0
  0
LINE
  5
13C22
330
13947
100
AcDbEntity
  8
1
  6
Continuous
100
AcDbLine
 10
762.4641519999999
 20
139.25
 30
0.0
 11
761.7641519999997
 21
139.9499999999999
 31
0.0
  0
LINE
  5
13C23
330
13947
100
AcDbEntity
  8
1
  6
Continuous
100
AcDbLine
 10
762.4641519999999
 20
146.55
 30
0.0
 11
762.4641519999999
 21
139.25
 31
0.0
  0
LINE
  5
13C24
330
13947
100
AcDbEntity
  8
4
  6
CENTER
100
AcDbLine
 10
757.2770189999999
 20
148.3999999999998
 30
0.0
 11
764.1984219999997
 21
148.3999999999998
 31
0.0
  0
ARC
  5
13C25
330
13947
100
AcDbEntity
  8
1
  6
Continuous
100
AcDbCircle
 10
758.864152
 20
137.4
 30
0.0
 40
0.5
100
AcDbArc
 50
270.0
 51
0.0
  0
ARC
  5
13C26
330
13947
100
AcDbEntity
  8
1
  6
Continuous
100
AcDbCircle
 10
758.6641519999997
 20
132.4
 30
0.0
 40
0.5
100
AcDbArc
 50
270.0
 51
0.0
  0
LINE
  5
13C27
330
13947
100
AcDbEntity
  8
1
  6
Continuous
100
AcDbLine
 10
759.1641519999996
 20
135.3
 30
0.0
 11
759.1641519999996
 21
132.4
 31
0.0
  0
LINE
  5
13C28
330
13947
100
AcDbEntity
  8
1
  6
Continuous
100
AcDbLine
 10
752.1641519999997
 20
153.3999999999998
 30
0.0
 11
752.1641519999997
 21
152.65
 31
0.0
  0
LINE
  5
13C29
330
13947
100
AcDbEntity
  8
1
  6
Continuous
100
AcDbLine
 10
751.364152
 20
153.9
 30
0.0
 11
751.364152
 21
133.9
 31
0.0
  0
LINE
  5
13C2A
330
13947
100
AcDbEntity
  8
1
  6
Continuous
100
AcDbLine
 10
749.7641519999997
 20
153.9
 30
0.0
 11
749.7641519999997
 21
133.9
 31
0.0
  0
LINE
  5
13C2B
330
13947
100
AcDbEntity
  8
1
  6
Continuous
100
AcDbLine
 10
749.0641519999996
 20
151.55
 30
0.0
 11
749.0641519999996
 21
144.25
 31
0.0
  0
LINE
  5
13C2C
330
13947
100
AcDbEntity
  8
1
  6
Continuous
100
AcDbLine
 10
751.864152
 20
143.1499999999998
 30
0.0
 11
751.864152
 21
152.65
 31
0.0
  0
LINE
  5
13C2D
330
13947
100
AcDbEntity
  8
1
  6
Continuous
100
AcDbLine
 10
751.364152
 20
152.15
 30
0.0
 11
751.364152
 21
143.65
 31
0.0
  0
LINE
  5
13C2E
330
13947
100
AcDbEntity
  8
4
  6
CENTER
100
AcDbLine
 10
747.12563
 20
143.9
 30
0.0
 11
754.047033
 21
143.9
 31
0.0
  0
LINE
  5
13C2F
330
13947
100
AcDbEntity
  8
1
  6
Continuous
100
AcDbLine
 10
749.7641519999997
 20
133.9
 30
0.0
 11
751.364152
 21
133.9
 31
0.0
  0
LINE
  5
13C30
330
13947
100
AcDbEntity
  8
1
  6
Continuous
100
AcDbLine
 10
749.0641519999996
 20
144.25
 30
0.0
 11
749.7641519999997
 21
144.95
 31
0.0
  0
LINE
  5
13C31
330
13947
100
AcDbEntity
  8
1
  6
Continuous
100
AcDbLine
 10
751.864152
 20
143.1499999999998
 30
0.0
 11
751.364152
 21
143.65
 31
0.0
  0
LINE
  5
13C32
330
13947
100
AcDbEntity
  8
1
  6
Continuous
100
AcDbLine
 10
751.864152
 20
143.1499999999998
 30
0.0
 11
752.3641519999999
 21
143.1499999999998
 31
0.0
  0
LINE
  5
13C33
330
13947
100
AcDbEntity
  8
1
  6
Continuous
100
AcDbLine
 10
749.7641519999997
 20
153.9
 30
0.0
 11
752.3641519999999
 21
153.9
 31
0.0
  0
LINE
  5
13C34
330
13947
100
AcDbEntity
  8
1
  6
Continuous
100
AcDbLine
 10
751.364152
 20
155.4999999999998
 30
0.0
 11
752.3641519999999
 21
155.4999999999998
 31
0.0
  0
ARC
  5
13C35
330
13947
100
AcDbEntity
  8
1
  6
Continuous
100
AcDbCircle
 10
752.6641519999997
 20
153.3999999999998
 30
0.0
 40
0.5
100
AcDbArc
 50
126.869898
 51
180.0
  0
ARC
  5
13C36
330
13947
100
AcDbEntity
  8
1
  6
Continuous
100
AcDbCircle
 10
751.364152
 20
153.9
 30
0.0
 40
1.6
100
AcDbArc
 50
90.0
 51
180.0
  0
LINE
  5
13C37
330
13947
100
AcDbEntity
  8
1
  6
Continuous
100
AcDbLine
 10
749.0641519999996
 20
151.55
 30
0.0
 11
749.7641519999997
 21
150.8499999999999
 31
0.0
  0
LINE
  5
13C38
330
13947
100
AcDbEntity
  8
1
  6
Continuous
100
AcDbLine
 10
751.864152
 20
152.65
 30
0.0
 11
751.364152
 21
152.15
 31
0.0
  0
LINE
  5
13C39
330
13947
100
AcDbEntity
  8
1
  6
Continuous
100
AcDbLine
 10
752.3641519999999
 20
158.4
 30
0.0
 11
752.3641519999999
 21
137.4
 31
0.0
  0
LINE
  5
13C3A
330
13947
100
AcDbEntity
  8
1
  6
Continuous
100
AcDbLine
 10
751.864152
 20
152.65
 30
0.0
 11
752.3641519999999
 21
152.65
 31
0.0
  0
LINE
  5
13C3B
330
13947
100
AcDbEntity
  8
1
  6
Continuous
100
AcDbLine
 10
753.7641519999997
 20
135.3
 30
0.0
 11
753.7641519999997
 21
136.8999999999997
 31
0.0
  0
ARC
  5
13C3C
330
13947
100
AcDbEntity
  8
1
  6
Continuous
100
AcDbCircle
 10
752.8641519999998
 20
137.4
 30
0.0
 40
0.5
100
AcDbArc
 50
180.0
 51
270.0
  0
ARC
  5
13C3D
330
13947
100
AcDbEntity
  8
1
  6
Continuous
100
AcDbCircle
 10
752.6641519999997
 20
132.4
 30
0.0
 40
0.5
100
AcDbArc
 50
180.0
 51
270.0
  0
LINE
  5
13C3E
330
13947
100
AcDbEntity
  8
1
  6
Continuous
100
AcDbLine
 10
752.1641519999997
 20
143.1499999999998
 30
0.0
 11
752.1641519999997
 21
132.4
 31
0.0
  0
LINE
  5
13C3F
330
13947
100
AcDbEntity
  8
1
  6
Continuous
100
AcDbLine
 10
760.1641519999997
 20
161.5
 30
0.0
 11
753.7641519999997
 21
161.5
 31
0.0
  0
LINE
  5
13C40
330
13947
100
AcDbEntity
  8
1
  6
Continuous
100
AcDbLine
 10
760.1641519999997
 20
159.9
 30
0.0
 11
753.7641519999997
 21
159.9
 31
0.0
  0
ARC
  5
13C41
330
13947
100
AcDbEntity
  8
1
  6
Continuous
100
AcDbCircle
 10
760.1641519999997
 20
159.9
 30
0.0
 40
1.6
100
AcDbArc
 50
0.0
 51
90.0
  0
LINE
  5
13C42
330
13947
100
AcDbEntity
  8
1
  6
Continuous
100
AcDbLine
 10
753.7641519999997
 20
161.5
 30
0.0
 11
753.7641519999997
 21
159.9
 31
0.0
  0
LINE
  5
13C43
330
13947
100
AcDbEntity
  8
4
  6
CENTER
100
AcDbLine
 10
577.882076
 20
249.187481
 30
0.0
 11
577.882076
 21
257.187481
 31
0.0
  0
CIRCLE
  5
13C44
330
13947
100
AcDbEntity
  8
1
  6
Continuous
100
AcDbCircle
 10
577.882076
 20
148.3999999999998
 30
0.0
 40
3.0
  0
CIRCLE
  5
13C45
330
13947
100
AcDbEntity
  8
1
  6
Continuous
100
AcDbCircle
 10
577.882076
 20
148.3999999999998
 30
0.0
 40
4.299999999999998
  0
LINE
  5
13C46
330
13947
100
AcDbEntity
  8
4
  6
CENTER
100
AcDbLine
 10
577.882076
 20
142.4
 30
0.0
 11
577.882076
 21
154.4
 31
0.0
  0
LINE
  5
13C47
330
13947
100
AcDbEntity
  8
1
  6
Continuous
100
AcDbLine
 10
695.882076
 20
135.3
 30
0.0
 11
695.882076
 21
161.5
 31
0.0
  0
LINE
  5
13C48
330
13947
100
AcDbEntity
  8
4
  6
CENTER
100
AcDbLine
 10
662.8820759999999
 20
249.187481
 30
0.0
 11
662.8820759999999
 21
257.187481
 31
0.0
  0
ARC
  5
13C49
330
13947
100
AcDbEntity
  8
1
  6
Continuous
100
AcDbCircle
 10
692.8820759999996
 20
248.9
 30
0.0
 40
3.0
100
AcDbArc
 50
270.0
 51
0.0
  0
LINE
  5
13C4A
330
13947
100
AcDbEntity
  8
1
  6
Continuous
100
AcDbLine
 10
695.882076
 20
253.9
 30
0.0
 11
695.882076
 21
248.9
 31
0.0
  0
LINE
  5
13C4B
330
13947
100
AcDbEntity
  8
4
  6
CENTER
100
AcDbLine
 10
677.882076
 20
249.187481
 30
0.0
 11
677.882076
 21
257.187481
 31
0.0
  0
CIRCLE
  5
13C4C
330
13947
100
AcDbEntity
  8
1
  6
Continuous
100
AcDbCircle
 10
677.882076
 20
148.3999999999998
 30
0.0
 40
3.0
  0
CIRCLE
  5
13C4D
330
13947
100
AcDbEntity
  8
1
  6
Continuous
100
AcDbCircle
 10
677.882076
 20
148.3999999999998
 30
0.0
 40
4.299999999999998
  0
CIRCLE
  5
13C4E
330
13947
100
AcDbEntity
  8
1
  6
Continuous
100
AcDbCircle
 10
662.8820759999999
 20
148.3999999999998
 30
0.0
 40
2.0
  0
LINE
  5
13C4F
330
13947
100
AcDbEntity
  8
4
  6
CENTER
100
AcDbLine
 10
662.8820759999999
 20
143.9
 30
0.0
 11
662.8820759999999
 21
152.9
 31
0.0
  0
LINE
  5
13C50
330
13947
100
AcDbEntity
  8
4
  6
CENTER
100
AcDbLine
 10
677.882076
 20
142.4
 30
0.0
 11
677.882076
 21
154.4
 31
0.0
  0
LINE
  5
13C51
330
13947
100
AcDbEntity
  8
4
  6
CENTER
100
AcDbLine
 10
366.882076
 20
565.203026
 30
0.0
 11
366.882076
 21
573.867742
 31
0.0
  0
LINE
  5
13C52
330
13947
100
AcDbEntity
  8
5
  6
PHANTOM
100
AcDbLine
 10
628.882076
 20
573.4498160000002
 30
0.0
 11
673.882076
 21
573.4498160000002
 31
0.0
  0
LINE
  5
13C53
330
13947
100
AcDbEntity
  8
5
  6
PHANTOM
100
AcDbLine
 10
628.882076
 20
571.849816
 30
0.0
 11
675.6625320000003
 21
571.849816
 31
0.0
  0
LINE
  5
13C54
330
13947
100
AcDbEntity
  8
5
  6
PHANTOM
100
AcDbLine
 10
359.8820759999999
 20
573.4498160000002
 30
0.0
 11
373.8820759999999
 21
573.4498160000002
 31
0.0
  0
LINE
  5
13C55
330
13947
100
AcDbEntity
  8
5
  6
PHANTOM
100
AcDbLine
 10
350.5575209999999
 20
551.849816
 30
0.0
 11
363.206631
 21
551.849816
 31
0.0
  0
LINE
  5
13C56
330
13947
100
AcDbEntity
  8
5
  6
PHANTOM
100
AcDbLine
 10
363.176194
 20
571.849816
 30
0.0
 11
370.587958
 21
571.849816
 31
0.0
  0
LINE
  5
13C57
330
13947
100
AcDbEntity
  8
5
  6
PHANTOM
100
AcDbLine
 10
345.882076
 20
554.849816
 30
0.0
 11
345.882076
 21
557.849816
 31
0.0
  0
ARC
  5
13C58
330
13947
100
AcDbEntity
  8
5
  6
PHANTOM
100
AcDbCircle
 10
348.8820759999999
 20
554.849816
 30
0.0
 40
3.0
100
AcDbArc
 50
180.0
 51
270.0
  0
CIRCLE
  5
13C59
330
13947
100
AcDbEntity
  8
5
  6
PHANTOM
100
AcDbCircle
 10
378.882076
 20
561.849816
 30
0.0
 40
2.0
  0
LINE
  5
13C5A
330
13947
100
AcDbEntity
  8
4
  6
CENTER
100
AcDbLine
 10
363.8820759999999
 20
555.849816
 30
0.0
 11
363.8820759999999
 21
567.849816
 31
0.0
  0
CIRCLE
  5
13C5B
330
13947
100
AcDbEntity
  8
5
  6
PHANTOM
100
AcDbCircle
 10
363.8820759999999
 20
561.849816
 30
0.0
 40
4.299999999999998
  0
CIRCLE
  5
13C5C
330
13947
100
AcDbEntity
  8
5
  6
PHANTOM
100
AcDbCircle
 10
363.8820759999999
 20
561.849816
 30
0.0
 40
3.0
  0
LINE
  5
13C5D
330
13947
100
AcDbEntity
  8
4
  6
CENTER
100
AcDbLine
 10
378.882076
 20
565.849816
 30
0.0
 11
378.882076
 21
557.849816
 31
0.0
  0
LINE
  5
13C5E
330
13947
100
AcDbEntity
  8
4
  6
CENTER
100
AcDbLine
 10
463.8820759999998
 20
555.849816
 30
0.0
 11
463.8820759999998
 21
567.849816
 31
0.0
  0
CIRCLE
  5
13C5F
330
13947
100
AcDbEntity
  8
5
  6
PHANTOM
100
AcDbCircle
 10
463.8820759999998
 20
561.849816
 30
0.0
 40
3.0
  0
CIRCLE
  5
13C60
330
13947
100
AcDbEntity
  8
5
  6
PHANTOM
100
AcDbCircle
 10
463.8820759999998
 20
561.849816
 30
0.0
 40
4.299999999999998
  0
CIRCLE
  5
13C61
330
13947
100
AcDbEntity
  8
5
  6
PHANTOM
100
AcDbCircle
 10
563.8820759999997
 20
561.849816
 30
0.0
 40
4.299999999999998
  0
LINE
  5
13C62
330
13947
100
AcDbEntity
  8
4
  6
CENTER
100
AcDbLine
 10
563.8820759999997
 20
555.849816
 30
0.0
 11
563.8820759999997
 21
567.849816
 31
0.0
  0
CIRCLE
  5
13C63
330
13947
100
AcDbEntity
  8
5
  6
PHANTOM
100
AcDbCircle
 10
563.8820759999997
 20
561.849816
 30
0.0
 40
3.0
  0
LINE
  5
13C64
330
13947
100
AcDbEntity
  8
5
  6
PHANTOM
100
AcDbLine
 10
621.8820759999998
 20
568.4498160000003
 30
0.0
 11
628.882076
 21
571.849816
 31
0.0
  0
LINE
  5
13C65
330
13947
100
AcDbEntity
  8
5
  6
PHANTOM
100
AcDbLine
 10
621.8820759999998
 20
570.0498159999997
 30
0.0
 11
628.882076
 21
573.4498160000002
 31
0.0
  0
LINE
  5
13C66
330
13947
100
AcDbEntity
  8
5
  6
PHANTOM
100
AcDbLine
 10
614.8820759999997
 20
571.4498160000001
 30
0.0
 11
615.705606
 21
571.4498160000001
 31
0.0
  0
LINE
  5
13C67
330
13947
100
AcDbEntity
  8
5
  6
PHANTOM
100
AcDbLine
 10
614.8820759999997
 20
571.849816
 30
0.0
 11
614.8820759999997
 21
571.4498160000001
 31
0.0
  0
LINE
  5
13C68
330
13947
100
AcDbEntity
  8
5
  6
PHANTOM
100
AcDbLine
 10
621.8820759999998
 20
568.4498160000003
 30
0.0
 11
614.8820759999997
 21
571.849816
 31
0.0
  0
LINE
  5
13C69
330
13947
100
AcDbEntity
  8
5
  6
PHANTOM
100
AcDbLine
 10
621.8820759999998
 20
570.0498159999997
 30
0.0
 11
614.8820759999997
 21
573.4498160000002
 31
0.0
  0
LINE
  5
13C6A
330
13947
100
AcDbEntity
  8
5
  6
PHANTOM
100
AcDbLine
 10
618.999723
 20
571.4498160000001
 30
0.0
 11
624.7644289999998
 21
571.4498160000001
 31
0.0
  0
LINE
  5
13C6B
330
13947
100
AcDbEntity
  8
5
  6
PHANTOM
100
AcDbLine
 10
628.882076
 20
571.849816
 30
0.0
 11
628.882076
 21
571.4498160000001
 31
0.0
  0
LINE
  5
13C6C
330
13947
100
AcDbEntity
  8
5
  6
PHANTOM
100
AcDbLine
 10
628.058547
 20
571.4498160000001
 30
0.0
 11
628.882076
 21
571.4498160000001
 31
0.0
  0
LINE
  5
13C6D
330
13947
100
AcDbEntity
  8
4
  6
CENTER
100
AcDbLine
 10
684.8820759999997
 20
551.849816
 30
0.0
 11
684.8820759999997
 21
579.849816
 31
0.0
  0
CIRCLE
  5
13C6E
330
13947
100
AcDbEntity
  8
5
  6
PHANTOM
100
AcDbCircle
 10
684.8820759999997
 20
565.849816
 30
0.0
 40
11.0
  0
LINE
  5
13C6F
330
13947
100
AcDbEntity
  8
4
  6
CENTER
100
AcDbLine
 10
698.78497
 20
565.849816
 30
0.0
 11
670.78497
 21
565.849816
 31
0.0
  0
LINE
  5
13C70
330
13947
100
AcDbEntity
  8
5
  6
PHANTOM
100
AcDbLine
 10
673.882076
 20
571.849816
 30
0.0
 11
673.882076
 21
573.4498160000002
 31
0.0
  0
LINE
  5
13C71
330
13947
100
AcDbEntity
  8
4
  6
CENTER
100
AcDbLine
 10
663.8820759999997
 20
567.849816
 30
0.0
 11
663.8820759999997
 21
555.849816
 31
0.0
  0
ARC
  5
13C72
330
13947
100
AcDbEntity
  8
5
  6
PHANTOM
100
AcDbCircle
 10
692.8820759999996
 20
568.849816
 30
0.0
 40
3.0
100
AcDbArc
 50
0.0
 51
61.024143
  0
ARC
  5
13C73
330
13947
100
AcDbEntity
  8
5
  6
PHANTOM
100
AcDbCircle
 10
692.8820759999996
 20
554.849816
 30
0.0
 40
3.0
100
AcDbArc
 50
270.0
 51
0.0
  0
LINE
  5
13C74
330
13947
100
AcDbEntity
  8
4
  6
CENTER
100
AcDbLine
 10
675.8820759999998
 20
566.349816
 30
0.0
 11
675.8820759999998
 21
557.349816
 31
0.0
  0
ARC
  5
13C75
330
13947
100
AcDbEntity
  8
5
  6
PHANTOM
100
AcDbCircle
 10
675.8820759999998
 20
561.849816
 30
0.0
 40
2.0
100
AcDbArc
 50
144.471448
 51
263.45353
  0
CIRCLE
  5
13C76
330
13947
100
AcDbEntity
  8
5
  6
PHANTOM
100
AcDbCircle
 10
663.8820759999997
 20
561.849816
 30
0.0
 40
4.299999999999998
  0
CIRCLE
  5
13C77
330
13947
100
AcDbEntity
  8
5
  6
PHANTOM
100
AcDbCircle
 10
663.8820759999997
 20
561.849816
 30
0.0
 40
3.0
  0
LINE
  5
13C78
330
13947
100
AcDbEntity
  8
5
  6
PHANTOM
100
AcDbLine
 10
418.8820759999998
 20
573.4498160000002
 30
0.0
 11
614.8820759999997
 21
573.4498160000002
 31
0.0
  0
LINE
  5
13C79
330
13947
100
AcDbEntity
  8
5
  6
PHANTOM
100
AcDbLine
 10
439.101621
 20
571.849816
 30
0.0
 11
614.8820759999997
 21
571.849816
 31
0.0
  0
LINE
  5
13C7A
330
13947
100
AcDbEntity
  8
5
  6
PHANTOM
100
AcDbLine
 10
437.8820759999999
 20
551.849816
 30
0.0
 11
692.8820759999996
 21
551.849816
 31
0.0
  0
LINE
  5
13C7B
330
13947
100
AcDbEntity
  8
5
  6
PHANTOM
100
AcDbLine
 10
628.882076
 20
155.4999999999998
 30
0.0
 11
673.882076
 21
155.4999999999998
 31
0.0
  0
LINE
  5
13C7C
330
13947
100
AcDbEntity
  8
5
  6
PHANTOM
100
AcDbLine
 10
437.8820759999999
 20
133.9
 30
0.0
 11
692.8820759999996
 21
133.9
 31
0.0
  0
LINE
  5
13C7D
330
13947
100
AcDbEntity
  8
5
  6
PHANTOM
100
AcDbLine
 10
359.8820759999999
 20
155.4999999999998
 30
0.0
 11
373.8820759999999
 21
155.4999999999998
 31
0.0
  0
ARC
  5
13C7E
330
13947
100
AcDbEntity
  8
5
  6
PHANTOM
100
AcDbCircle
 10
348.8820759999999
 20
136.8999999999997
 30
0.0
 40
3.0
100
AcDbArc
 50
180.0
 51
270.0
  0
CIRCLE
  5
13C7F
330
13947
100
AcDbEntity
  8
5
  6
PHANTOM
100
AcDbCircle
 10
378.882076
 20
143.9
 30
0.0
 40
2.0
  0
LINE
  5
13C80
330
13947
100
AcDbEntity
  8
4
  6
CENTER
100
AcDbLine
 10
363.8820759999999
 20
137.9
 30
0.0
 11
363.8820759999999
 21
149.9
 31
0.0
  0
CIRCLE
  5
13C81
330
13947
100
AcDbEntity
  8
5
  6
PHANTOM
100
AcDbCircle
 10
363.8820759999999
 20
143.9
 30
0.0
 40
3.0
  0
LINE
  5
13C82
330
13947
100
AcDbEntity
  8
4
  6
CENTER
100
AcDbLine
 10
378.882076
 20
147.9
 30
0.0
 11
378.882076
 21
139.9
 31
0.0
  0
LINE
  5
13C83
330
13947
100
AcDbEntity
  8
4
  6
CENTER
100
AcDbLine
 10
463.8820759999998
 20
137.9
 30
0.0
 11
463.8820759999998
 21
149.9
 31
0.0
  0
CIRCLE
  5
13C84
330
13947
100
AcDbEntity
  8
5
  6
PHANTOM
100
AcDbCircle
 10
463.8820759999998
 20
143.9
 30
0.0
 40
3.0
  0
LINE
  5
13C85
330
13947
100
AcDbEntity
  8
4
  6
CENTER
100
AcDbLine
 10
563.8820759999997
 20
137.9
 30
0.0
 11
563.8820759999997
 21
149.9
 31
0.0
  0
CIRCLE
  5
13C86
330
13947
100
AcDbEntity
  8
5
  6
PHANTOM
100
AcDbCircle
 10
563.8820759999997
 20
143.9
 30
0.0
 40
3.0
  0
LINE
  5
13C87
330
13947
100
AcDbEntity
  8
5
  6
PHANTOM
100
AcDbLine
 10
624.7644289999998
 20
153.5
 30
0.0
 11
628.882076
 21
155.4999999999998
 31
0.0
  0
LINE
  5
13C88
330
13947
100
AcDbEntity
  8
5
  6
PHANTOM
100
AcDbLine
 10
614.8820759999997
 20
153.5
 30
0.0
 11
628.882076
 21
153.5
 31
0.0
  0
LINE
  5
13C89
330
13947
100
AcDbEntity
  8
5
  6
PHANTOM
100
AcDbLine
 10
618.999723
 20
153.5
 30
0.0
 11
614.8820759999997
 21
155.4999999999998
 31
0.0
  0
LINE
  5
13C8A
330
13947
100
AcDbEntity
  8
5
  6
PHANTOM
100
AcDbLine
 10
614.8820759999997
 20
155.4999999999998
 30
0.0
 11
614.8820759999997
 21
153.5
 31
0.0
  0
LINE
  5
13C8B
330
13947
100
AcDbEntity
  8
5
  6
PHANTOM
100
AcDbLine
 10
615.705606
 20
153.5
 30
0.0
 11
614.8820759999997
 21
153.9
 31
0.0
  0
LINE
  5
13C8C
330
13947
100
AcDbEntity
  8
5
  6
PHANTOM
100
AcDbLine
 10
628.882076
 20
155.4999999999998
 30
0.0
 11
628.882076
 21
153.5
 31
0.0
  0
LINE
  5
13C8D
330
13947
100
AcDbEntity
  8
5
  6
PHANTOM
100
AcDbLine
 10
628.058547
 20
153.5
 30
0.0
 11
628.882076
 21
153.9
 31
0.0
  0
ARC
  5
13C8E
330
13947
100
AcDbEntity
  8
5
  6
PHANTOM
100
AcDbCircle
 10
692.8820759999996
 20
136.8999999999997
 30
0.0
 40
3.0
100
AcDbArc
 50
270.0
 51
0.0
  0
ARC
  5
13C8F
330
13947
100
AcDbEntity
  8
5
  6
PHANTOM
100
AcDbCircle
 10
684.8820759999997
 20
147.9
 30
0.0
 40
11.0
100
AcDbArc
 50
146.9442689999999
 51
30.75150199999999
  0
LINE
  5
13C90
330
13947
100
AcDbEntity
  8
4
  6
CENTER
100
AcDbLine
 10
671.117928
 20
147.9
 30
0.0
 11
698.8024429999996
 21
147.9
 31
0.0
  0
LINE
  5
13C91
330
13947
100
AcDbEntity
  8
5
  6
PHANTOM
100
AcDbLine
 10
673.882076
 20
153.9
 30
0.0
 11
692.8820759999996
 21
153.9
 31
0.0
  0
CIRCLE
  5
13C92
330
13947
100
AcDbEntity
  8
5
  6
PHANTOM
100
AcDbCircle
 10
675.8820759999998
 20
143.9
 30
0.0
 40
2.0
  0
LINE
  5
13C93
330
13947
100
AcDbEntity
  8
5
  6
PHANTOM
100
AcDbLine
 10
673.882076
 20
153.9
 30
0.0
 11
673.882076
 21
155.4999999999998
 31
0.0
  0
CIRCLE
  5
13C94
330
13947
100
AcDbEntity
  8
5
  6
PHANTOM
100
AcDbCircle
 10
663.8820759999997
 20
143.9
 30
0.0
 40
3.0
  0
LINE
  5
13C95
330
13947
100
AcDbEntity
  8
4
  6
CENTER
100
AcDbLine
 10
663.8820759999997
 20
137.9
 30
0.0
 11
663.8820759999997
 21
149.9
 31
0.0
  0
ARC
  5
13C96
330
13947
100
AcDbEntity
  8
5
  6
PHANTOM
100
AcDbCircle
 10
684.8820759999997
 20
147.9
 30
0.0
 40
11.0
100
AcDbArc
 50
30.75150199999999
 51
146.9442689999999
  0
LINE
  5
13C97
330
13947
100
AcDbEntity
  8
4
  6
CENTER
100
AcDbLine
 10
684.8820759999997
 20
138.1995399999998
 30
0.0
 11
684.8820759999997
 21
157.60046
 31
0.0
  0
LINE
  5
13C98
330
13947
100
AcDbEntity
  8
4
  6
CENTER
100
AcDbLine
 10
675.8820759999998
 20
139.4
 30
0.0
 11
675.8820759999998
 21
148.3999999999998
 31
0.0
  0
ARC
  5
13C99
330
13947
100
AcDbEntity
  8
5
  6
PHANTOM
100
AcDbCircle
 10
692.8820759999996
 20
150.9
 30
0.0
 40
3.0
100
AcDbArc
 50
0.0
 51
90.0
  0
CIRCLE
  5
13C9A
330
13947
100
AcDbEntity
  8
5
  6
PHANTOM
100
AcDbCircle
 10
684.8820759999997
 20
147.9
 30
0.0
 40
3.649999999999999
  0
LINE
  5
13C9B
330
13947
100
AcDbEntity
  8
5
  6
PHANTOM
100
AcDbLine
 10
418.8820759999998
 20
155.4999999999998
 30
0.0
 11
614.8820759999997
 21
155.4999999999998
 31
0.0
  0
ENDSEC
  0
SECTION
  2
OBJECTS
  0
DICTIONARY
  5
13935
330
0
100
AcDbDictionary
281
     1
  3
ACAD_CIP_PREVIOUS_PRODUCT_INFO
350
13CFB
  3
ACAD_COLOR
350
13CDD
  3
ACAD_DETAILVIEWSTYLE
350
13CF6
  3
ACAD_GROUP
350
13936
  3
ACAD_LAYOUT
350
13942
  3
ACAD_MATERIAL
350
13CAB
  3
ACAD_MLEADERSTYLE
350
13CF2
  3
ACAD_MLINESTYLE
350
1393F
  3
ACAD_PLOTSETTINGS
350
13941
  3
ACAD_PLOTSTYLENAME
350
13CA9
  3
ACAD_SCALELIST
350
13CE0
  3
ACAD_SECTIONVIEWSTYLE
350
13CF4
  3
ACAD_TABLESTYLE
350
13CDE
  3
ACAD_VISUALSTYLE
350
13CC4
  3
ACDB_RECOMPOSE_DATA
350
13D19
  3
AcDbVariableDictionary
350
13D0C
  3
DWGPROPS
350
13D1A
  0
DICTIONARY
  5
13CFC
330
13939
100
AcDbDictionary
280
     1
281
     1
  3
ADSK_XREC_LAYER_RECONCILED
360
13CFD
  0
DICTIONARY
  5
13CFE
330
1394F
100
AcDbDictionary
280
     1
281
     1
  3
ADSK_XREC_LAYER_RECONCILED
360
13CFF
  0
DICTIONARY
  5
13D00
330
13950
100
AcDbDictionary
280
     1
281
     1
  3
ADSK_XREC_LAYER_RECONCILED
360
13D01
  0
DICTIONARY
  5
13D02
330
13951
100
AcDbDictionary
280
     1
281
     1
  3
ADSK_XREC_LAYER_RECONCILED
360
13D03
  0
DICTIONARY
  5
13D04
330
13952
100
AcDbDictionary
280
     1
281
     1
  3
ADSK_XREC_LAYER_RECONCILED
360
13D05
  0
DICTIONARY
  5
13D06
330
13953
100
AcDbDictionary
280
     1
281
     1
  3
ADSK_XREC_LAYER_RECONCILED
360
13D07
  0
DICTIONARY
  5
13D08
330
13954
100
AcDbDictionary
280
     1
281
     1
  3
ADSK_XREC_LAYER_RECONCILED
360
13D09
  0
DICTIONARY
  5
13D0A
330
13955
100
AcDbDictionary
280
     1
281
     1
  3
ADSK_XREC_LAYER_RECONCILED
360
13D0B
  0
DICTIONARY
  5
13CA4
330
13947
100
AcDbDictionary
281
     1
  3
ACAD_LAYOUTSELFREF
350
13CA5
  0
DICTIONARY
  5
13CA2
330
13943
100
AcDbDictionary
281
     1
  3
ACAD_LAYOUTSELFREF
350
13CA3
  0
XRECORD
  5
13CFB
102
{ACAD_REACTORS
330
13935
102
}
330
13935
100
AcDbXrecord
280
     1
300
ACDLT
300
2014
300
ACDLT_F_S
  0
DICTIONARY
  5
13CDD
102
{ACAD_REACTORS
330
13935
102
}
330
13935
100
AcDbDictionary
281
     1
  0
DICTIONARY
  5
13CF6
102
{ACAD_REACTORS
330
13935
102
}
330
13935
100
AcDbDictionary
281
     1
  3
Imperial24
350
13CF7
  0
DICTIONARY
  5
13936
102
{ACAD_REACTORS
330
13935
102
}
330
13935
100
AcDbDictionary
281
     1
  0
DICTIONARY
  5
13942
102
{ACAD_REACTORS
330
13935
102
}
330
13935
100
AcDbDictionary
281
     1
  3
Model
350
13CF8
  3
レイアウト1
350
13CF9
  0
DICTIONARY
  5
13CAB
102
{ACAD_REACTORS
330
13935
102
}
330
13935
100
AcDbDictionary
281
     1
  3
ByBlock
350
13CB4
  3
ByLayer
350
13CAC
  3
Global
350
13CBC
  0
DICTIONARY
  5
13CF2
102
{ACAD_REACTORS
330
13935
102
}
330
13935
100
AcDbDictionary
281
     1
  3
Standard
350
13CF3
  0
DICTIONARY
  5
1393F
102
{ACAD_REACTORS
330
13935
102
}
330
13935
100
AcDbDictionary
281
     1
  3
STANDARD
350
13940
  0
DICTIONARY
  5
13941
102
{ACAD_REACTORS
330
13935
102
}
330
13935
100
AcDbDictionary
281
     1
  0
ACDBDICTIONARYWDFLT
  5
13CA9
102
{ACAD_REACTORS
330
13935
102
}
330
13935
100
AcDbDictionary
281
     1
  3
Normal
350
13CAA
100
AcDbDictionaryWithDefault
340
13CAA
  0
DICTIONARY
  5
13CE0
102
{ACAD_REACTORS
330
13935
102
}
330
13935
100
AcDbDictionary
281
     1
  3
A0
350
13CE1
  3
A1
350
13CE2
  3
A2
350
13CE3
  3
A3
350
13CE4
  3
A4
350
13CE5
  3
A5
350
13CE6
  3
A6
350
13CE7
  3
A7
350
13CE8
  3
A8
350
13CE9
  3
A9
350
13CEA
  3
B0
350
13CEB
  3
B1
350
13CEC
  3
B2
350
13CED
  3
B3
350
13CEE
  3
B4
350
13CEF
  3
B5
350
13CF0
  3
B6
350
13CF1
  0
DICTIONARY
  5
13CF4
102
{ACAD_REACTORS
330
13935
102
}
330
13935
100
AcDbDictionary
281
     1
  3
Imperial24
350
13CF5
  0
DICTIONARY
  5
13CDE
102
{ACAD_REACTORS
330
13935
102
}
330
13935
100
AcDbDictionary
281
     1
  3
Standard
350
13CDF
  0
DICTIONARY
  5
13CC4
102
{ACAD_REACTORS
330
13935
102
}
330
13935
100
AcDbDictionary
281
     1
  3
2dWireframe
350
13CCA
  3
Basic
350
13CC9
  3
Brighten
350
13CD0
  3
ColorChange
350
13CD4
  3
Conceptual
350
13CCD
  3
Dim
350
13CCF
  3
EdgeColorOff
350
13CDC
  3
Facepattern
350
13CD3
  3
Flat
350
13CC5
  3
FlatWithEdges
350
13CC6
  3
Gouraud
350
13CC7
  3
GouraudWithEdges
350
13CC8
  3
Hidden
350
13CCC
  3
JitterOff
350
13CDA
  3
Linepattern
350
13CD2
  3
OverhangOff
350
13CDB
  3
Realistic
350
13CCE
  3
Shaded
350
13CD9
  3
Shaded with edges
350
13CD8
  3
Shades of Gray
350
13CD5
  3
Sketchy
350
13CD6
  3
Thicken
350
13CD1
  3
Wireframe
350
13CCB
  3
X-Ray
350
13CD7
  0
XRECORD
  5
13D19
102
{ACAD_REACTORS
330
13935
102
}
330
13935
100
AcDbXrecord
280
     1
 90
        1
330
13CDF
  0
DICTIONARY
  5
13D0C
102
{ACAD_REACTORS
330
13935
102
}
330
13935
100
AcDbDictionary
281
     1
  3
CANNOSCALE
350
13D11
  3
CMLEADERSTYLE
350
13D0E
  3
CTABLESTYLE
350
13D0D
  3
CVIEWDETAILSTYLE
350
13D0F
  3
CVIEWSECTIONSTYLE
350
13D10
  3
DIMASSOC
350
13D14
  3
INDEXCTL
350
13D13
  3
SORTENTS
350
13D12
  3
XCLIPFRAME
350
13D15
  0
XRECORD
  5
13D1A
102
{ACAD_REACTORS
330
13935
102
}
330
13935
100
AcDbXrecord
280
     1
  1
DWGPROPS COOKIE
  2

  3

  4

  6

  7

  8
Yoshitsune
  9

300
=
301
=
302
=
303
=
304
=
305
=
306
=
307
=
308
=
309
=
 40
0.0000131365740741
 41
2451233.439560879
 42
2457192.665732442
  1

 90
        0
  0
XRECORD
  5
13CFD
102
{ACAD_REACTORS
330
13CFC
102
}
330
13CFC
100
AcDbXrecord
280
     1
290
     1
  0
XRECORD
  5
13CFF
102
{ACAD_REACTORS
330
13CFE
102
}
330
13CFE
100
AcDbXrecord
280
     1
290
     1
  0
XRECORD
  5
13D01
102
{ACAD_REACTORS
330
13D00
102
}
330
13D00
100
AcDbXrecord
280
     1
290
     1
  0
XRECORD
  5
13D03
102
{ACAD_REACTORS
330
13D02
102
}
330
13D02
100
AcDbXrecord
280
     1
290
     1
  0
XRECORD
  5
13D05
102
{ACAD_REACTORS
330
13D04
102
}
330
13D04
100
AcDbXrecord
280
     1
290
     1
  0
XRECORD
  5
13D07
102
{ACAD_REACTORS
330
13D06
102
}
330
13D06
100
AcDbXrecord
280
     1
290
     1
  0
XRECORD
  5
13D09
102
{ACAD_REACTORS
330
13D08
102
}
330
13D08
100
AcDbXrecord
280
     1
290
     1
  0
XRECORD
  5
13D0B
102
{ACAD_REACTORS
330
13D0A
102
}
330
13D0A
100
AcDbXrecord
280
     1
290
     1
  0
XRECORD
  5
13CA5
102
{ACAD_REACTORS
330
13CA4
102
}
330
13CA4
100
AcDbXrecord
280
     1
340
13947
  0
XRECORD
  5
13CA3
102
{ACAD_REACTORS
330
13CA2
102
}
330
13CA2
100
AcDbXrecord
280
     1
340
13943
  0
ACDBDETAILVIEWSTYLE
  5
13CF7
102
{ACAD_XDICTIONARY
360
13D52
102
}
102
{ACAD_REACTORS
330
13CF6
102
}
330
13CF6
100
AcDbModelDocViewStyle
 70
     0
  3
Imperial24
290
     0
100
AcDbDetailViewStyle
 70
     0
 71
     0
 90
        3
 71
     1
340
1393A
 40
0.24
340
0
 40
0.24
300

 40
0.36
280
     3
 71
     2
340
1393E
 90
       25
 71
     3
340
1393A
 40
0.24
 90
        1
 40
0.75
 90
        1
300
%<\AcVar ViewType \f "%tc1">% %<\AcVar ViewDetailId>%\PSCALE %<\AcVar ViewScale \f "%sn">%
 71
     4
340
1393E
 90
       25
340
1393E
 90
       25
280
     0
  0
LAYOUT
  5
13CF8
102
{ACAD_XDICTIONARY
360
13D54
102
}
102
{ACAD_REACTORS
330
13942
102
}
330
13942
100
AcDbPlotSettings
  1

  2
Canon LBP9100C
  4

  6

 40
0.0
 41
0.0
 42
0.0
 43
0.0
 44
0.0
 45
0.0
 46
0.0
 47
0.0
 48
0.0
 49
0.0
140
0.0
141
0.0
142
1.0
143
1.0
 70
  1712
 72
     0
 73
     0
 74
     0
  7

 75
     0
147
1.0
148
0.0
149
0.0
100
AcDbLayout
  1
Model
 70
     1
 71
     0
 10
0.0
 20
0.0
 11
12.0
 21
9.0
 12
0.0
 22
0.0
 32
0.0
 14
0.0
 24
0.0
 34
0.0
 15
0.0
 25
0.0
 35
0.0
146
0.0
 13
0.0
 23
0.0
 33
0.0
 16
1.0
 26
0.0
 36
0.0
 17
0.0
 27
1.0
 37
0.0
 76
     0
330
13947
331
13CA1
  0
LAYOUT
  5
13CF9
102
{ACAD_XDICTIONARY
360
13D56
102
}
102
{ACAD_REACTORS
330
13942
102
}
330
13942
100
AcDbPlotSettings
  1

  2
Canon LBP9100C
  4

  6

 40
0.0
 41
0.0
 42
0.0
 43
0.0
 44
0.0
 45
0.0
 46
0.0
 47
0.0
 48
0.0
 49
0.0
140
0.0
141
0.0
142
1.0
143
1.0
 70
   688
 72
     0
 73
     0
 74
     5
  7

 75
    16
147
1.0
148
0.0
149
0.0
100
AcDbLayout
  1
レイアウト1
 70
     0
 71
     1
 10
0.0
 20
0.0
 11
420.0
 21
297.0
 12
0.0
 22
0.0
 32
0.0
 14
1.000000000000000E+20
 24
1.000000000000000E+20
 34
1.000000000000000E+20
 15
-1.000000000000000E+20
 25
-1.000000000000000E+20
 35
-1.000000000000000E+20
146
0.0
 13
0.0
 23
0.0
 33
0.0
 16
1.0
 26
0.0
 36
0.0
 17
0.0
 27
1.0
 37
0.0
 76
     0
330
13943
  0
MATERIAL
  5
13CB4
102
{ACAD_XDICTIONARY
360
13CB5
102
}
102
{ACAD_REACTORS
330
13CAB
102
}
330
13CAB
100
AcDbMaterial
  1
ByBlock
 72
     0
 43
0.0208333333333333
 43
0.0
 43
0.0
 43
0.0
 43
0.0
 43
0.0208333333333333
 43
0.0
 43
0.0
 43
0.0
 43
0.0
 43
1.0
 43
0.0
 43
0.0
 43
0.0
 43
0.0
 43
1.0
 77
     0
 47
0.0208333333333333
 47
0.0
 47
0.0
 47
0.0
 47
0.0
 47
0.0208333333333333
 47
0.0
 47
0.0
 47
0.0
 47
0.0
 47
1.0
 47
0.0
 47
0.0
 47
0.0
 47
0.0
 47
1.0
171
     0
 49
0.0208333333333333
 49
0.0
 49
0.0
 49
0.0
 49
0.0
 49
0.0208333333333333
 49
0.0
 49
0.0
 49
0.0
 49
0.0
 49
1.0
 49
0.0
 49
0.0
 49
0.0
 49
0.0
 49
1.0
175
     0
142
0.0208333333333333
142
0.0
142
0.0
142
0.0
142
0.0
142
0.0208333333333333
142
0.0
142
0.0
142
0.0
142
0.0
142
1.0
142
0.0
142
0.0
142
0.0
142
0.0
142
1.0
179
     0
144
0.0208333333333333
144
0.0
144
0.0
144
0.0
144
0.0
144
0.0208333333333333
144
0.0
144
0.0
144
0.0
144
0.0
144
1.0
144
0.0
144
0.0
144
0.0
144
0.0
144
1.0
147
0.0208333333333333
147
0.0
147
0.0
147
0.0
147
0.0
147
0.0208333333333333
147
0.0
147
0.0
147
0.0
147
0.0
147
1.0
147
0.0
147
0.0
147
0.0
147
0.0
147
1.0
  0
MATERIAL
  5
13CAC
102
{ACAD_XDICTIONARY
360
13CAD
102
}
102
{ACAD_REACTORS
330
13CAB
102
}
330
13CAB
100
AcDbMaterial
  1
ByLayer
 72
     0
 43
0.0208333333333333
 43
0.0
 43
0.0
 43
0.0
 43
0.0
 43
0.0208333333333333
 43
0.0
 43
0.0
 43
0.0
 43
0.0
 43
1.0
 43
0.0
 43
0.0
 43
0.0
 43
0.0
 43
1.0
 77
     0
 47
0.0208333333333333
 47
0.0
 47
0.0
 47
0.0
 47
0.0
 47
0.0208333333333333
 47
0.0
 47
0.0
 47
0.0
 47
0.0
 47
1.0
 47
0.0
 47
0.0
 47
0.0
 47
0.0
 47
1.0
171
     0
 49
0.0208333333333333
 49
0.0
 49
0.0
 49
0.0
 49
0.0
 49
0.0208333333333333
 49
0.0
 49
0.0
 49
0.0
 49
0.0
 49
1.0
 49
0.0
 49
0.0
 49
0.0
 49
0.0
 49
1.0
175
     0
142
0.0208333333333333
142
0.0
142
0.0
142
0.0
142
0.0
142
0.0208333333333333
142
0.0
142
0.0
142
0.0
142
0.0
142
1.0
142
0.0
142
0.0
142
0.0
142
0.0
142
1.0
179
     0
144
0.0208333333333333
144
0.0
144
0.0
144
0.0
144
0.0
144
0.0208333333333333
144
0.0
144
0.0
144
0.0
144
0.0
144
1.0
144
0.0
144
0.0
144
0.0
144
0.0
144
1.0
147
0.0208333333333333
147
0.0
147
0.0
147
0.0
147
0.0
147
0.0208333333333333
147
0.0
147
0.0
147
0.0
147
0.0
147
1.0
147
0.0
147
0.0
147
0.0
147
0.0
147
1.0
  0
MATERIAL
  5
13CBC
102
{ACAD_XDICTIONARY
360
13CBD
102
}
102
{ACAD_REACTORS
330
13CAB
102
}
330
13CAB
100
AcDbMaterial
  1
Global
 72
     0
 43
0.0208333333333333
 43
0.0
 43
0.0
 43
0.0
 43
0.0
 43
0.0208333333333333
 43
0.0
 43
0.0
 43
0.0
 43
0.0
 43
1.0
 43
0.0
 43
0.0
 43
0.0
 43
0.0
 43
1.0
 77
     0
 47
0.0208333333333333
 47
0.0
 47
0.0
 47
0.0
 47
0.0
 47
0.0208333333333333
 47
0.0
 47
0.0
 47
0.0
 47
0.0
 47
1.0
 47
0.0
 47
0.0
 47
0.0
 47
0.0
 47
1.0
171
     0
 49
0.0208333333333333
 49
0.0
 49
0.0
 49
0.0
 49
0.0
 49
0.0208333333333333
 49
0.0
 49
0.0
 49
0.0
 49
0.0
 49
1.0
 49
0.0
 49
0.0
 49
0.0
 49
0.0
 49
1.0
175
     0
142
0.0208333333333333
142
0.0
142
0.0
142
0.0
142
0.0
142
0.0208333333333333
142
0.0
142
0.0
142
0.0
142
0.0
142
1.0
142
0.0
142
0.0
142
0.0
142
0.0
142
1.0
179
     0
144
0.0208333333333333
144
0.0
144
0.0
144
0.0
144
0.0
144
0.0208333333333333
144
0.0
144
0.0
144
0.0
144
0.0
144
1.0
144
0.0
144
0.0
144
0.0
144
0.0
144
1.0
147
0.0208333333333333
147
0.0
147
0.0
147
0.0
147
0.0
147
0.0208333333333333
147
0.0
147
0.0
147
0.0
147
0.0
147
1.0
147
0.0
147
0.0
147
0.0
147
0.0
147
1.0
  0
MLEADERSTYLE
  5
13CF3
102
{ACAD_REACTORS
330
13CF2
102
}
330
13CF2
100
AcDbMLeaderStyle
170
     2
171
     1
172
     0
 90
        2
 40
0.0
 41
0.0
173
     1
 91
-1056964608
340
1393C
 92
       -2
290
     1
 42
0.09
291
     1
 43
0.36
  3
Standard
 44
0.18
300

342
1393A
174
     1
178
     6
175
     1
176
     0
 93
-1056964608
 45
0.18
292
     0
297
     0
 46
0.18
 94
-1056964608
 47
1.0
 49
1.0
140
1.0
293
     1
141
0.0
294
     1
177
     0
142
1.0
295
     0
296
     0
143
0.125
1001
ACAD_MLEADERVER
1070
     2
  0
MLINESTYLE
  5
13940
102
{ACAD_REACTORS
330
1393F
102
}
330
1393F
100
AcDbMlineStyle
  2
STANDARD
 70
     0
  3

 62
   256
 51
90.0
 52
90.0
 71
     2
 49
0.5
 62
   256
  6
BYLAYER
 49
-0.5
 62
   256
  6
BYLAYER
  0
ACDBPLACEHOLDER
  5
13CAA
102
{ACAD_REACTORS
330
13CA9
102
}
330
13CA9
  0
SCALE
  5
13CE1
102
{ACAD_REACTORS
330
13CE0
102
}
330
13CE0
100
AcDbScale
 70
     0
300
1:1
140
1.0
141
1.0
290
     1
  0
SCALE
  5
13CE2
102
{ACAD_REACTORS
330
13CE0
102
}
330
13CE0
100
AcDbScale
 70
     0
300
1/128" = 1'-0"
140
0.0078125
141
12.0
290
     0
  0
SCALE
  5
13CE3
102
{ACAD_REACTORS
330
13CE0
102
}
330
13CE0
100
AcDbScale
 70
     0
300
1/64" = 1'-0"
140
0.015625
141
12.0
290
     0
  0
SCALE
  5
13CE4
102
{ACAD_REACTORS
330
13CE0
102
}
330
13CE0
100
AcDbScale
 70
     0
300
1/32" = 1'-0"
140
0.03125
141
12.0
290
     0
  0
SCALE
  5
13CE5
102
{ACAD_REACTORS
330
13CE0
102
}
330
13CE0
100
AcDbScale
 70
     0
300
1/16" = 1'-0"
140
0.0625
141
12.0
290
     0
  0
SCALE
  5
13CE6
102
{ACAD_REACTORS
330
13CE0
102
}
330
13CE0
100
AcDbScale
 70
     0
300
3/32" = 1'-0"
140
0.09375
141
12.0
290
     0
  0
SCALE
  5
13CE7
102
{ACAD_REACTORS
330
13CE0
102
}
330
13CE0
100
AcDbScale
 70
     0
300
1/8" = 1'-0"
140
0.125
141
12.0
290
     0
  0
SCALE
  5
13CE8
102
{ACAD_REACTORS
330
13CE0
102
}
330
13CE0
100
AcDbScale
 70
     0
300
3/16" = 1'-0"
140
0.1875
141
12.0
290
     0
  0
SCALE
  5
13CE9
102
{ACAD_REACTORS
330
13CE0
102
}
330
13CE0
100
AcDbScale
 70
     0
300
1/4" = 1'-0"
140
0.25
141
12.0
290
     0
  0
SCALE
  5
13CEA
102
{ACAD_REACTORS
330
13CE0
102
}
330
13CE0
100
AcDbScale
 70
     0
300
3/8" = 1'-0"
140
0.375
141
12.0
290
     0
  0
SCALE
  5
13CEB
102
{ACAD_REACTORS
330
13CE0
102
}
330
13CE0
100
AcDbScale
 70
     0
300
1/2" = 1'-0"
140
0.5
141
12.0
290
     0
  0
SCALE
  5
13CEC
102
{ACAD_REACTORS
330
13CE0
102
}
330
13CE0
100
AcDbScale
 70
     0
300
3/4" = 1'-0"
140
0.75
141
12.0
290
     0
  0
SCALE
  5
13CED
102
{ACAD_REACTORS
330
13CE0
102
}
330
13CE0
100
AcDbScale
 70
     0
300
1" = 1'-0"
140
1.0
141
12.0
290
     0
  0
SCALE
  5
13CEE
102
{ACAD_REACTORS
330
13CE0
102
}
330
13CE0
100
AcDbScale
 70
     0
300
1-1/2" = 1'-0"
140
1.5
141
12.0
290
     0
  0
SCALE
  5
13CEF
102
{ACAD_REACTORS
330
13CE0
102
}
330
13CE0
100
AcDbScale
 70
     0
300
3" = 1'-0"
140
3.0
141
12.0
290
     0
  0
SCALE
  5
13CF0
102
{ACAD_REACTORS
330
13CE0
102
}
330
13CE0
100
AcDbScale
 70
     0
300
6" = 1'-0"
140
6.0
141
12.0
290
     0
  0
SCALE
  5
13CF1
102
{ACAD_REACTORS
330
13CE0
102
}
330
13CE0
100
AcDbScale
 70
     0
300
1'-0" = 1'-0"
140
12.0
141
12.0
290
     0
  0
ACDBSECTIONVIEWSTYLE
  5
13CF5
102
{ACAD_XDICTIONARY
360
13D50
102
}
102
{ACAD_REACTORS
330
13CF4
102
}
330
13CF4
100
AcDbModelDocViewStyle
 70
     0
  3
Imperial24
290
     0
100
AcDbSectionViewStyle
 70
     0
 71
     0
 90
       78
 71
     1
340
1393A
 40
0.24
340
0
340
0
 40
0.24
300
I, O, Q, S, X, Z
 40
0.48
 90
        3
 40
0.18
 90
        1
 71
     2
340
1393E
 90
       25
340
1393E
 90
       50
 40
0.24
 40
0.0
 40
0.24
 71
     3
340
1393A
 40
0.24
 90
        1
 40
0.75
 90
        1
300
%<\AcVar ViewType \f "%tc1">% %<\AcVar ViewSectionStartId>%-%<\AcVar ViewSectionEndId>%\PSCALE %<\AcVar ViewScale \f "%sn">%
 71
     4
300
ANSI31
 40
1.0
 90
        0
290
     0
290
     0
 90
        6
 40
0.0
 40
1.570796326794896
 40
0.2617993877991494
 40
1.308996938995747
 40
-0.2617993877991494
 40
1.832595714594046
  0
TABLESTYLE
  5
13CDF
102
{ACAD_XDICTIONARY
360
13D17
102
}
102
{ACAD_REACTORS
330
13CDE
102
}
330
13CDE
100
AcDbTableStyle
  3
Standard
 70
     0
 71
     0
 40
0.06
 41
0.06
280
     0
281
     0
  7
STANDARD
140
0.18
170
     2
 62
     0
 63
     7
283
     0
274
    -2
284
     1
 64
     0
275
    -2
285
     1
 65
     0
276
    -2
286
     1
 66
     0
277
    -2
287
     1
 67
     0
278
    -2
288
     1
 68
     0
279
    -2
289
     1
 69
     0
  7
STANDARD
140
0.25
170
     5
 62
     0
 63
     7
283
     0
274
    -2
284
     1
 64
     0
275
    -2
285
     1
 65
     0
276
    -2
286
     1
 66
     0
277
    -2
287
     1
 67
     0
278
    -2
288
     1
 68
     0
279
    -2
289
     1
 69
     0
  7
STANDARD
140
0.18
170
     5
 62
     0
 63
     7
283
     0
274
    -2
284
     1
 64
     0
275
    -2
285
     1
 65
     0
276
    -2
286
     1
 66
     0
277
    -2
287
     1
 67
     0
278
    -2
288
     1
 68
     0
279
    -2
289
     1
 69
     0
  0
VISUALSTYLE
  5
13CCA
102
{ACAD_XDICTIONARY
360
13D28
102
}
102
{ACAD_REACTORS
330
13CC4
102
}
330
13CC4
100
AcDbVisualStyle
  2
2dWireframe
 70
     4
 71
     0
 72
     2
 73
     0
 90
        0
 40
-0.6
 41
-30.0
 62
     5
 63
     7
 74
     1
 91
        4
 64
     7
 65
   257
 75
     1
175
     1
 42
1.0
 92
        0
 66
   257
 43
1.0
 76
     1
 77
     6
 78
     2
 67
     7
 79
     5
170
     0
171
     0
290
     0
174
     0
 93
        1
 44
0.0
173
     0
291
     0
 45
0.0
1001
ACAD
1000
AcDbSavedByObjectVersion
1070
     0
  0
VISUALSTYLE
  5
13CC9
102
{ACAD_XDICTIONARY
360
13D26
102
}
102
{ACAD_REACTORS
330
13CC4
102
}
330
13CC4
100
AcDbVisualStyle
  2
Basic
 70
     7
 71
     1
 72
     0
 73
     1
 90
        0
 40
-0.6
 41
-30.0
 62
     5
 63
     7
 74
     0
 91
        4
 64
     7
 65
   257
 75
     1
175
     1
 42
1.0
 92
        8
 66
     7
 43
1.0
 76
     1
 77
     6
 78
     2
 67
     7
 79
     5
170
     0
171
     0
290
     0
174
     0
 93
        1
 44
0.0
173
     0
291
     1
 45
0.0
1001
ACAD
1000
AcDbSavedByObjectVersion
1070
     0
  0
VISUALSTYLE
  5
13CD0
102
{ACAD_XDICTIONARY
360
13D34
102
}
102
{ACAD_REACTORS
330
13CC4
102
}
330
13CC4
100
AcDbVisualStyle
  2
Brighten
 70
    12
 71
     2
 72
     2
 73
     0
 90
        0
 40
-0.6
 41
-30.0
 62
     5
 63
     7
 74
     1
 91
        4
 64
     7
 65
   257
 75
     1
175
     1
 42
1.0
 92
        8
 66
     7
 43
1.0
 76
     1
 77
     6
 78
     2
 67
     7
 79
     5
170
     0
171
     0
290
     0
174
     0
 93
        1
 44
50.0
173
     0
291
     1
 45
0.0
1001
ACAD
1000
AcDbSavedByObjectVersion
1070
     0
  0
VISUALSTYLE
  5
13CD4
102
{ACAD_XDICTIONARY
360
13D3C
102
}
102
{ACAD_REACTORS
330
13CC4
102
}
330
13CC4
100
AcDbVisualStyle
  2
ColorChange
 70
    16
 71
     2
 72
     2
 73
     3
 90
        0
 40
-0.6
 41
-30.0
 62
     5
 63
     8
 74
     1
 91
        4
 64
     7
 65
   257
 75
     1
175
     1
 42
1.0
 92
        8
 66
     8
 43
1.0
 76
     1
 77
     6
 78
     2
 67
     7
 79
     5
170
     0
171
     0
290
     0
174
     0
 93
        1
 44
0.0
173
     0
291
     1
 45
0.0
1001
ACAD
1000
AcDbSavedByObjectVersion
1070
     0
  0
VISUALSTYLE
  5
13CCD
102
{ACAD_XDICTIONARY
360
13D2E
102
}
102
{ACAD_REACTORS
330
13CC4
102
}
330
13CC4
100
AcDbVisualStyle
  2
Conceptual
 70
     9
 71
     3
 72
     2
 73
     0
 90
        0
 40
-0.6
 41
-30.0
 62
     5
 63
     7
 74
     2
 91
        2
 64
     7
 65
   257
 75
     1
175
     1
 42
179.0
 92
        8
 66
     7
 43
1.0
 76
     1
 77
     6
 78
     2
 67
     7
 79
     3
170
     0
171
     0
290
     0
174
     0
 93
        1
 44
0.0
173
     0
291
     0
 45
0.0
1001
ACAD
1000
AcDbSavedByObjectVersion
1070
     0
  0
VISUALSTYLE
  5
13CCF
102
{ACAD_XDICTIONARY
360
13D32
102
}
102
{ACAD_REACTORS
330
13CC4
102
}
330
13CC4
100
AcDbVisualStyle
  2
Dim
 70
    11
 71
     2
 72
     2
 73
     0
 90
        0
 40
-0.6
 41
-30.0
 62
     5
 63
     7
 74
     1
 91
        4
 64
     7
 65
   257
 75
     1
175
     1
 42
1.0
 92
        8
 66
     7
 43
1.0
 76
     1
 77
     6
 78
     2
 67
     7
 79
     5
170
     0
171
     0
290
     0
174
     0
 93
        1
 44
-50.0
173
     0
291
     1
 45
0.0
1001
ACAD
1000
AcDbSavedByObjectVersion
1070
     0
  0
VISUALSTYLE
  5
13CDC
102
{ACAD_XDICTIONARY
360
13D4C
102
}
102
{ACAD_REACTORS
330
13CC4
102
}
330
13CC4
100
AcDbVisualStyle
  2
EdgeColorOff
 70
    22
 71
     2
 72
     2
 73
     0
 90
        0
 40
-0.6
 41
-30.0
 62
     5
 63
     7
 74
     1
 91
        4
 64
     7
 65
   257
 75
     1
175
     1
 42
1.0
 92
        8
 66
     7
 43
1.0
 76
     1
 77
     6
 78
     2
 67
     7
 79
     5
170
     0
171
     0
290
     0
174
     0
 93
        1
 44
0.0
173
     0
291
     1
 45
0.0
1001
ACAD
1000
AcDbSavedByObjectVersion
1070
     0
  0
VISUALSTYLE
  5
13CD3
102
{ACAD_XDICTIONARY
360
13D3A
102
}
102
{ACAD_REACTORS
330
13CC4
102
}
330
13CC4
100
AcDbVisualStyle
  2
Facepattern
 70
    15
 71
     2
 72
     2
 73
     0
 90
        0
 40
-0.6
 41
-30.0
 62
     5
 63
     7
 74
     1
 91
        4
 64
     7
 65
   257
 75
     1
175
     1
 42
1.0
 92
        8
 66
     7
 43
1.0
 76
     1
 77
     6
 78
     2
 67
     7
 79
     5
170
     0
171
     0
290
     0
174
     0
 93
        1
 44
0.0
173
     0
291
     1
 45
0.0
1001
ACAD
1000
AcDbSavedByObjectVersion
1070
     0
  0
VISUALSTYLE
  5
13CC5
102
{ACAD_XDICTIONARY
360
13D1E
102
}
102
{ACAD_REACTORS
330
13CC4
102
}
330
13CC4
100
AcDbVisualStyle
  2
Flat
 70
     0
 71
     2
 72
     1
 73
     1
 90
        2
 40
-0.6
 41
30.0
 62
     5
 63
     7
 74
     0
 91
        0
 64
     7
 65
   257
 75
     1
175
     1
 42
1.0
 92
        8
 66
     7
 43
1.0
 76
     1
 77
     6
 78
     2
 67
     7
 79
     5
170
     0
171
     0
290
     0
174
     0
 93
       13
 44
0.0
173
     0
291
     1
 45
0.0
1001
ACAD
1000
AcDbSavedByObjectVersion
1070
     0
  0
VISUALSTYLE
  5
13CC6
102
{ACAD_XDICTIONARY
360
13D20
102
}
102
{ACAD_REACTORS
330
13CC4
102
}
330
13CC4
100
AcDbVisualStyle
  2
FlatWithEdges
 70
     1
 71
     2
 72
     1
 73
     1
 90
        2
 40
-0.6
 41
30.0
 62
     5
 63
     7
 74
     1
 91
        0
 64
     7
 65
   257
 75
     1
175
     1
 42
1.0
 92
        0
 66
   257
 43
1.0
 76
     1
 77
     6
 78
     2
 67
     7
 79
     5
170
     0
171
     0
290
     0
174
     0
 93
       13
 44
0.0
173
     0
291
     1
 45
0.0
1001
ACAD
1000
AcDbSavedByObjectVersion
1070
     0
  0
VISUALSTYLE
  5
13CC7
102
{ACAD_XDICTIONARY
360
13D22
102
}
102
{ACAD_REACTORS
330
13CC4
102
}
330
13CC4
100
AcDbVisualStyle
  2
Gouraud
 70
     2
 71
     2
 72
     2
 73
     1
 90
        2
 40
-0.6
 41
30.0
 62
     5
 63
     7
 74
     0
 91
        0
 64
     7
 65
   257
 75
     1
175
     1
 42
1.0
 92
        0
 66
     7
 43
1.0
 76
     1
 77
     6
 78
     2
 67
     7
 79
     5
170
     0
171
     0
290
     0
174
     0
 93
       13
 44
0.0
173
     0
291
     1
 45
0.0
1001
ACAD
1000
AcDbSavedByObjectVersion
1070
     0
  0
VISUALSTYLE
  5
13CC8
102
{ACAD_XDICTIONARY
360
13D24
102
}
102
{ACAD_REACTORS
330
13CC4
102
}
330
13CC4
100
AcDbVisualStyle
  2
GouraudWithEdges
 70
     3
 71
     2
 72
     2
 73
     1
 90
        2
 40
-0.6
 41
30.0
 62
     5
 63
     7
 74
     1
 91
        0
 64
     7
 65
   257
 75
     1
175
     1
 42
1.0
 92
        0
 66
   257
 43
1.0
 76
     1
 77
     6
 78
     2
 67
     7
 79
     5
170
     0
171
     0
290
     0
174
     0
 93
       13
 44
0.0
173
     0
291
     1
 45
0.0
1001
ACAD
1000
AcDbSavedByObjectVersion
1070
     0
  0
VISUALSTYLE
  5
13CCC
102
{ACAD_XDICTIONARY
360
13D2C
102
}
102
{ACAD_REACTORS
330
13CC4
102
}
330
13CC4
100
AcDbVisualStyle
  2
Hidden
 70
     6
 71
     1
 72
     2
 73
     2
 90
        0
 40
-0.6
 41
-30.0
 62
     5
 63
     7
 74
     2
 91
        2
 64
     7
 65
   257
 75
     2
175
     1
 42
40.0
 92
        0
 66
   257
 43
1.0
 76
     1
 77
     6
 78
     2
 67
     7
 79
     3
170
     0
171
     0
290
     0
174
     0
 93
        1
 44
0.0
173
     0
291
     0
 45
0.0
1001
ACAD
1000
AcDbSavedByObjectVersion
1070
     0
  0
VISUALSTYLE
  5
13CDA
102
{ACAD_XDICTIONARY
360
13D48
102
}
102
{ACAD_REACTORS
330
13CC4
102
}
330
13CC4
100
AcDbVisualStyle
  2
JitterOff
 70
    20
 71
     2
 72
     2
 73
     0
 90
        0
 40
-0.6
 41
-30.0
 62
     5
 63
     7
 74
     1
 91
        4
 64
     7
 65
   257
 75
     1
175
     1
 42
1.0
 92
       10
 66
     7
 43
1.0
 76
     1
 77
     6
 78
     2
 67
     7
 79
     5
170
     0
171
     0
290
     0
174
     0
 93
        1
 44
0.0
173
     0
291
     1
 45
0.0
1001
ACAD
1000
AcDbSavedByObjectVersion
1070
     0
  0
VISUALSTYLE
  5
13CD2
102
{ACAD_XDICTIONARY
360
13D38
102
}
102
{ACAD_REACTORS
330
13CC4
102
}
330
13CC4
100
AcDbVisualStyle
  2
Linepattern
 70
    14
 71
     2
 72
     2
 73
     0
 90
        0
 40
-0.6
 41
-30.0
 62
     5
 63
     7
 74
     1
 91
        4
 64
     7
 65
   257
 75
     7
175
     7
 42
1.0
 92
        8
 66
     7
 43
1.0
 76
     1
 77
     6
 78
     2
 67
     7
 79
     5
170
     0
171
     0
290
     0
174
     0
 93
        1
 44
0.0
173
     0
291
     1
 45
0.0
1001
ACAD
1000
AcDbSavedByObjectVersion
1070
     0
  0
VISUALSTYLE
  5
13CDB
102
{ACAD_XDICTIONARY
360
13D4A
102
}
102
{ACAD_REACTORS
330
13CC4
102
}
330
13CC4
100
AcDbVisualStyle
  2
OverhangOff
 70
    21
 71
     2
 72
     2
 73
     0
 90
        0
 40
-0.6
 41
-30.0
 62
     5
 63
     7
 74
     1
 91
        4
 64
     7
 65
   257
 75
     1
175
     1
 42
1.0
 92
        9
 66
     7
 43
1.0
 76
     1
 77
     6
 78
     2
 67
     7
 79
     5
170
     0
171
     0
290
     0
174
     0
 93
        1
 44
0.0
173
     0
291
     1
 45
0.0
1001
ACAD
1000
AcDbSavedByObjectVersion
1070
     0
  0
VISUALSTYLE
  5
13CCE
102
{ACAD_XDICTIONARY
360
13D30
102
}
102
{ACAD_REACTORS
330
13CC4
102
}
330
13CC4
100
AcDbVisualStyle
  2
Realistic
 70
     8
 71
     2
 72
     3
 73
     0
 90
        2
 40
-0.6
 41
30.0
 62
     5
 63
     7
 74
     0
 91
        0
 64
     7
 65
   257
 75
     1
175
     1
 42
1.0
 92
        8
 66
   257
 43
1.0
 76
     1
 77
     6
 78
     2
 67
     7
 79
     3
170
     0
171
     0
290
     0
174
     0
 93
       13
 44
0.0
173
     0
291
     0
 45
0.0
1001
ACAD
1000
AcDbSavedByObjectVersion
1070
     0
  0
VISUALSTYLE
  5
13CD9
102
{ACAD_XDICTIONARY
360
13D46
102
}
102
{ACAD_REACTORS
330
13CC4
102
}
330
13CC4
100
AcDbVisualStyle
  2
Shaded
 70
    27
 71
     2
 72
     2
 73
     1
 90
        2
 40
-0.6
 41
30.0
 62
     5
 63
     7
 74
     0
 91
        4
 64
     7
 65
   257
 75
     1
175
     1
 42
1.0
 92
        8
 66
   257
 43
1.0
 76
     1
 77
     6
 78
     2
 67
     8
 79
     3
170
     0
171
     0
290
     0
174
     0
 93
        5
 44
0.0
173
     0
291
     0
 45
0.0
1001
ACAD
1000
AcDbSavedByObjectVersion
1070
     0
  0
VISUALSTYLE
  5
13CD8
102
{ACAD_XDICTIONARY
360
13D44
102
}
102
{ACAD_REACTORS
330
13CC4
102
}
330
13CC4
100
AcDbVisualStyle
  2
Shaded with edges
 70
    26
 71
     2
 72
     2
 73
     1
 90
        2
 40
-0.6
 41
30.0
 62
     5
 63
     7
 74
     1
 91
       10
 64
     7
 65
   257
 75
     2
175
     1
 42
1.0
 92
        8
 66
   257
 43
1.0
 76
     1
 77
     6
 78
     2
 67
     7
 79
     3
170
     0
171
     0
290
     0
174
     0
 93
        5
 44
0.0
173
     0
291
     0
 45
0.0
1001
ACAD
1000
AcDbSavedByObjectVersion
1070
     0
  0
VISUALSTYLE
  5
13CD5
102
{ACAD_XDICTIONARY
360
13D3E
102
}
102
{ACAD_REACTORS
330
13CC4
102
}
330
13CC4
100
AcDbVisualStyle
  2
Shades of Gray
 70
    23
 71
     2
 72
     2
 73
     3
 90
        0
 40
-0.6
 41
-30.0
 62
     5
 63
     7
 74
     2
 91
        2
 64
     7
 65
     7
 75
     1
175
     1
 42
40.0
 92
        8
 66
     7
 43
1.0
 76
     1
 77
     6
 78
     2
 67
     7
 79
     3
170
     0
171
     0
290
     0
174
     0
 93
        1
 44
0.0
173
     0
291
     0
 45
0.0
1001
ACAD
1000
AcDbSavedByObjectVersion
1070
     0
  0
VISUALSTYLE
  5
13CD6
102
{ACAD_XDICTIONARY
360
13D40
102
}
102
{ACAD_REACTORS
330
13CC4
102
}
330
13CC4
100
AcDbVisualStyle
  2
Sketchy
 70
    24
 71
     1
 72
     2
 73
     2
 90
        0
 40
-0.6
 41
-30.0
 62
     5
 63
     7
 74
     2
 91
        2
 64
     7
 65
     7
 75
     1
175
     1
 42
40.0
 92
       11
 66
     7
 43
1.0
 76
     1
 77
     6
 78
     2
 67
     7
 79
     6
170
     0
171
     0
290
     0
174
     0
 93
        1
 44
0.0
173
     0
291
     0
 45
0.0
1001
ACAD
1000
AcDbSavedByObjectVersion
1070
     0
  0
VISUALSTYLE
  5
13CD1
102
{ACAD_XDICTIONARY
360
13D36
102
}
102
{ACAD_REACTORS
330
13CC4
102
}
330
13CC4
100
AcDbVisualStyle
  2
Thicken
 70
    13
 71
     2
 72
     2
 73
     0
 90
        0
 40
-0.6
 41
-30.0
 62
     5
 63
     7
 74
     1
 91
        4
 64
     7
 65
   257
 75
     1
175
     1
 42
1.0
 92
       12
 66
     7
 43
1.0
 76
     1
 77
     6
 78
     2
 67
     7
 79
     5
170
     0
171
     0
290
     0
174
     0
 93
        1
 44
0.0
173
     0
291
     1
 45
0.0
1001
ACAD
1000
AcDbSavedByObjectVersion
1070
     0
  0
VISUALSTYLE
  5
13CCB
102
{ACAD_XDICTIONARY
360
13D2A
102
}
102
{ACAD_REACTORS
330
13CC4
102
}
330
13CC4
100
AcDbVisualStyle
  2
Wireframe
 70
     5
 71
     0
 72
     2
 73
     0
 90
        0
 40
-0.6
 41
-30.0
 62
     5
 63
     7
 74
     1
 91
        4
 64
     7
 65
   257
 75
     1
175
     1
 42
1.0
 92
        0
 66
   257
 43
1.0
 76
     1
 77
     6
 78
     2
 67
     7
 79
     3
170
     0
171
     0
290
     0
174
     0
 93
        1
 44
0.0
173
     0
291
     0
 45
0.0
1001
ACAD
1000
AcDbSavedByObjectVersion
1070
     0
  0
VISUALSTYLE
  5
13CD7
102
{ACAD_XDICTIONARY
360
13D42
102
}
102
{ACAD_REACTORS
330
13CC4
102
}
330
13CC4
100
AcDbVisualStyle
  2
X-Ray
 70
    25
 71
     2
 72
     2
 73
     1
 90
        1
 40
0.5
 41
-30.0
 62
     5
 63
     7
 74
     1
 91
        0
 64
     7
 65
   257
 75
     1
175
     1
 42
1.0
 92
        8
 66
     7
 43
1.0
 76
     1
 77
     6
 78
     2
 67
     7
 79
     3
170
     0
171
     0
290
     0
174
     0
 93
       13
 44
0.0
173
     0
291
     0
 45
0.0
1001
ACAD
1000
AcDbSavedByObjectVersion
1070
     0
  0
DICTIONARYVAR
  5
13D11
102
{ACAD_REACTORS
330
13D0C
102
}
330
13D0C
100
DictionaryVariables
280
     0
  1
1:1
  0
DICTIONARYVAR
  5
13D0E
102
{ACAD_REACTORS
330
13D0C
102
}
330
13D0C
100
DictionaryVariables
280
     0
  1
STANDARD
  0
DICTIONARYVAR
  5
13D0D
102
{ACAD_REACTORS
330
13D0C
102
}
330
13D0C
100
DictionaryVariables
280
     0
  1
STANDARD
  0
DICTIONARYVAR
  5
13D0F
102
{ACAD_REACTORS
330
13D0C
102
}
330
13D0C
100
DictionaryVariables
280
     0
  1
Imperial24
  0
DICTIONARYVAR
  5
13D10
102
{ACAD_REACTORS
330
13D0C
102
}
330
13D0C
100
DictionaryVariables
280
     0
  1
Imperial24
  0
DICTIONARYVAR
  5
13D14
102
{ACAD_REACTORS
330
13D0C
102
}
330
13D0C
100
DictionaryVariables
280
     0
  1
1
  0
DICTIONARYVAR
  5
13D13
102
{ACAD_REACTORS
330
13D0C
102
}
330
13D0C
100
DictionaryVariables
280
     0
  1
0
  0
DICTIONARYVAR
  5
13D12
102
{ACAD_REACTORS
330
13D0C
102
}
330
13D0C
100
DictionaryVariables
280
     0
  1
127
  0
DICTIONARYVAR
  5
13D15
102
{ACAD_REACTORS
330
13D0C
102
}
330
13D0C
100
DictionaryVariables
280
     0
  1
2
  0
DICTIONARY
  5
13D52
330
13CF7
100
AcDbDictionary
280
     1
281
     1
  3
ACAD_XREC_ROUNDTRIP
360
13D53
  0
DICTIONARY
  5
13D54
330
13CF8
100
AcDbDictionary
280
     1
281
     1
  3
ACAD_XREC_ROUNDTRIP
360
13D55
  0
DICTIONARY
  5
13D56
330
13CF9
100
AcDbDictionary
280
     1
281
     1
  3
ACAD_XREC_ROUNDTRIP
360
13D57
  0
DICTIONARY
  5
13CB5
330
13CB4
100
AcDbDictionary
280
     1
281
     1
  3
ACAD_XREC_ROUNDTRIP
360
13D1C
  3
BUMPTILE
360
13CB7
  3
DIFFUSETILE
360
13CB6
  3
OPACITYTILE
360
13CBA
  3
REFLECTIONTILE
360
13CB9
  3
REFRACTIONTILE
360
13CBB
  3
SPECULARTILE
360
13CB8
  0
DICTIONARY
  5
13CAD
330
13CAC
100
AcDbDictionary
280
     1
281
     1
  3
ACAD_XREC_ROUNDTRIP
360
13D1B
  3
BUMPTILE
360
13CAF
  3
DIFFUSETILE
360
13CAE
  3
OPACITYTILE
360
13CB2
  3
REFLECTIONTILE
360
13CB1
  3
REFRACTIONTILE
360
13CB3
  3
SPECULARTILE
360
13CB0
  0
DICTIONARY
  5
13CBD
330
13CBC
100
AcDbDictionary
280
     1
281
     1
  3
ACAD_XREC_ROUNDTRIP
360
13D1D
  3
BUMPTILE
360
13CBF
  3
DIFFUSETILE
360
13CBE
  3
OPACITYTILE
360
13CC2
  3
REFLECTIONTILE
360
13CC1
  3
REFRACTIONTILE
360
13CC3
  3
SPECULARTILE
360
13CC0
  0
DICTIONARY
  5
13D50
330
13CF5
100
AcDbDictionary
280
     1
281
     1
  3
ACAD_XREC_ROUNDTRIP
360
13D51
  0
DICTIONARY
  5
13D17
330
13CDF
100
AcDbDictionary
280
     1
281
     1
  3
ACAD_ROUNDTRIP_2008_TABLESTYLE_CELLSTYLEMAP
360
13D18
  3
ACAD_XREC_ROUNDTRIP
360
13D4E
  0
DICTIONARY
  5
13D28
330
13CCA
100
AcDbDictionary
280
     1
281
     1
  3
ACAD_XREC_ROUNDTRIP
360
13D29
  0
DICTIONARY
  5
13D26
330
13CC9
100
AcDbDictionary
280
     1
281
     1
  3
ACAD_XREC_ROUNDTRIP
360
13D27
  0
DICTIONARY
  5
13D34
330
13CD0
100
AcDbDictionary
280
     1
281
     1
  3
ACAD_XREC_ROUNDTRIP
360
13D35
  0
DICTIONARY
  5
13D3C
330
13CD4
100
AcDbDictionary
280
     1
281
     1
  3
ACAD_XREC_ROUNDTRIP
360
13D3D
  0
DICTIONARY
  5
13D2E
330
13CCD
100
AcDbDictionary
280
     1
281
     1
  3
ACAD_XREC_ROUNDTRIP
360
13D2F
  0
DICTIONARY
  5
13D32
330
13CCF
100
AcDbDictionary
280
     1
281
     1
  3
ACAD_XREC_ROUNDTRIP
360
13D33
  0
DICTIONARY
  5
13D4C
330
13CDC
100
AcDbDictionary
280
     1
281
     1
  3
ACAD_XREC_ROUNDTRIP
360
13D4D
  0
DICTIONARY
  5
13D3A
330
13CD3
100
AcDbDictionary
280
     1
281
     1
  3
ACAD_XREC_ROUNDTRIP
360
13D3B
  0
DICTIONARY
  5
13D1E
330
13CC5
100
AcDbDictionary
280
     1
281
     1
  3
ACAD_XREC_ROUNDTRIP
360
13D1F
  0
DICTIONARY
  5
13D20
330
13CC6
100
AcDbDictionary
280
     1
281
     1
  3
ACAD_XREC_ROUNDTRIP
360
13D21
  0
DICTIONARY
  5
13D22
330
13CC7
100
AcDbDictionary
280
     1
281
     1
  3
ACAD_XREC_ROUNDTRIP
360
13D23
  0
DICTIONARY
  5
13D24
330
13CC8
100
AcDbDictionary
280
     1
281
     1
  3
ACAD_XREC_ROUNDTRIP
360
13D25
  0
DICTIONARY
  5
13D2C
330
13CCC
100
AcDbDictionary
280
     1
281
     1
  3
ACAD_XREC_ROUNDTRIP
360
13D2D
  0
DICTIONARY
  5
13D48
330
13CDA
100
AcDbDictionary
280
     1
281
     1
  3
ACAD_XREC_ROUNDTRIP
360
13D49
  0
DICTIONARY
  5
13D38
330
13CD2
100
AcDbDictionary
280
     1
281
     1
  3
ACAD_XREC_ROUNDTRIP
360
13D39
  0
DICTIONARY
  5
13D4A
330
13CDB
100
AcDbDictionary
280
     1
281
     1
  3
ACAD_XREC_ROUNDTRIP
360
13D4B
  0
DICTIONARY
  5
13D30
330
13CCE
100
AcDbDictionary
280
     1
281
     1
  3
ACAD_XREC_ROUNDTRIP
360
13D31
  0
DICTIONARY
  5
13D46
330
13CD9
100
AcDbDictionary
280
     1
281
     1
  3
ACAD_XREC_ROUNDTRIP
360
13D47
  0
DICTIONARY
  5
13D44
330
13CD8
100
AcDbDictionary
280
     1
281
     1
  3
ACAD_XREC_ROUNDTRIP
360
13D45
  0
DICTIONARY
  5
13D3E
330
13CD5
100
AcDbDictionary
280
     1
281
     1
  3
ACAD_XREC_ROUNDTRIP
360
13D3F
  0
DICTIONARY
  5
13D40
330
13CD6
100
AcDbDictionary
280
     1
281
     1
  3
ACAD_XREC_ROUNDTRIP
360
13D41
  0
DICTIONARY
  5
13D36
330
13CD1
100
AcDbDictionary
280
     1
281
     1
  3
ACAD_XREC_ROUNDTRIP
360
13D37
  0
DICTIONARY
  5
13D2A
330
13CCB
100
AcDbDictionary
280
     1
281
     1
  3
ACAD_XREC_ROUNDTRIP
360
13D2B
  0
DICTIONARY
  5
13D42
330
13CD7
100
AcDbDictionary
280
     1
281
     1
  3
ACAD_XREC_ROUNDTRIP
360
13D43
  0
XRECORD
  5
13D53
102
{ACAD_REACTORS
330
13D52
102
}
330
13D52
100
AcDbXrecord
280
     1
102
DISPLAYNAME
  1
Imperial24
102
FLAGS
 90
        0
  0
XRECORD
  5
13D55
102
{ACAD_REACTORS
330
13D54
102
}
330
13D54
100
AcDbXrecord
280
     1
102
SHADEPLOT
 70
     0
102
SHADEPLOTRESLEVEL
 70
     2
102
SHADEPLOTCUSTOMDPI
 70
   300
  0
XRECORD
  5
13D57
102
{ACAD_REACTORS
330
13D56
102
}
330
13D56
100
AcDbXrecord
280
     1
102
SHADEPLOT
 70
     0
102
SHADEPLOTRESLEVEL
 70
     2
102
SHADEPLOTCUSTOMDPI
 70
   300
  0
XRECORD
  5
13D1C
102
{ACAD_REACTORS
330
13CB5
102
}
330
13CB5
100
AcDbXrecord
280
     1
102
MATERIAL
148
0.0
149
0.0
149
0.0
 93
        0
 94
      127
282
     0
 72
     0
 77
     0
171
     0
175
     0
179
     0
273
     0
  0
XRECORD
  5
13CB7
102
{ACAD_REACTORS
330
13CB5
102
}
330
13CB5
100
AcDbXrecord
280
     1
270
     1
271
     1
  0
XRECORD
  5
13CB6
102
{ACAD_REACTORS
330
13CB5
102
}
330
13CB5
100
AcDbXrecord
280
     1
270
     1
271
     1
  0
XRECORD
  5
13CBA
102
{ACAD_REACTORS
330
13CB5
102
}
330
13CB5
100
AcDbXrecord
280
     1
270
     1
271
     1
  0
XRECORD
  5
13CB9
102
{ACAD_REACTORS
330
13CB5
102
}
330
13CB5
100
AcDbXrecord
280
     1
270
     1
271
     1
  0
XRECORD
  5
13CBB
102
{ACAD_REACTORS
330
13CB5
102
}
330
13CB5
100
AcDbXrecord
280
     1
270
     1
271
     1
  0
XRECORD
  5
13CB8
102
{ACAD_REACTORS
330
13CB5
102
}
330
13CB5
100
AcDbXrecord
280
     1
270
     1
271
     1
  0
XRECORD
  5
13D1B
102
{ACAD_REACTORS
330
13CAD
102
}
330
13CAD
100
AcDbXrecord
280
     1
102
MATERIAL
148
0.0
149
0.0
149
0.0
 93
        0
 94
      127
282
     0
 72
     0
 77
     0
171
     0
175
     0
179
     0
273
     0
  0
XRECORD
  5
13CAF
102
{ACAD_REACTORS
330
13CAD
102
}
330
13CAD
100
AcDbXrecord
280
     1
270
     1
271
     1
  0
XRECORD
  5
13CAE
102
{ACAD_REACTORS
330
13CAD
102
}
330
13CAD
100
AcDbXrecord
280
     1
270
     1
271
     1
  0
XRECORD
  5
13CB2
102
{ACAD_REACTORS
330
13CAD
102
}
330
13CAD
100
AcDbXrecord
280
     1
270
     1
271
     1
  0
XRECORD
  5
13CB1
102
{ACAD_REACTORS
330
13CAD
102
}
330
13CAD
100
AcDbXrecord
280
     1
270
     1
271
     1
  0
XRECORD
  5
13CB3
102
{ACAD_REACTORS
330
13CAD
102
}
330
13CAD
100
AcDbXrecord
280
     1
270
     1
271
     1
  0
XRECORD
  5
13CB0
102
{ACAD_REACTORS
330
13CAD
102
}
330
13CAD
100
AcDbXrecord
280
     1
270
     1
271
     1
  0
XRECORD
  5
13D1D
102
{ACAD_REACTORS
330
13CBD
102
}
330
13CBD
100
AcDbXrecord
280
     1
102
MATERIAL
148
0.0
149
0.0
149
0.0
 93
        0
 94
      127
282
     0
 72
     0
 77
     0
171
     0
175
     0
179
     0
273
     0
  0
XRECORD
  5
13CBF
102
{ACAD_REACTORS
330
13CBD
102
}
330
13CBD
100
AcDbXrecord
280
     1
270
     1
271
     1
  0
XRECORD
  5
13CBE
102
{ACAD_REACTORS
330
13CBD
102
}
330
13CBD
100
AcDbXrecord
280
     1
270
     1
271
     1
  0
XRECORD
  5
13CC2
102
{ACAD_REACTORS
330
13CBD
102
}
330
13CBD
100
AcDbXrecord
280
     1
270
     1
271
     1
  0
XRECORD
  5
13CC1
102
{ACAD_REACTORS
330
13CBD
102
}
330
13CBD
100
AcDbXrecord
280
     1
270
     1
271
     1
  0
XRECORD
  5
13CC3
102
{ACAD_REACTORS
330
13CBD
102
}
330
13CBD
100
AcDbXrecord
280
     1
270
     1
271
     1
  0
XRECORD
  5
13CC0
102
{ACAD_REACTORS
330
13CBD
102
}
330
13CBD
100
AcDbXrecord
280
     1
270
     1
271
     1
  0
XRECORD
  5
13D51
102
{ACAD_REACTORS
330
13D50
102
}
330
13D50
100
AcDbXrecord
280
     1
102
DISPLAYNAME
  1
Imperial24
102
FLAGS
 90
        0
  0
CELLSTYLEMAP
  5
13D18
102
{ACAD_REACTORS
330
13D17
102
}
330
13D17
100
AcDbCellStyleMap
 90
        3
300
CELLSTYLE
  1
TABLEFORMAT_BEGIN
 90
        5
170
     1
 91
        0
 92
    32768
 62
   257
 93
        1
300
CONTENTFORMAT
  1
CONTENTFORMAT_BEGIN
 90
        0
 91
        0
 92
      512
 93
        0
300

 40
0.0
140
1.0
 94
        5
 62
     0
340
1393A
144
0.25
309
CONTENTFORMAT_END
171
     0
 94
        0
309
TABLEFORMAT_END
  1
CELLSTYLE_BEGIN
 90
        1
 91
        1
300
_TITLE
309
CELLSTYLE_END
300
CELLSTYLE
  1
TABLEFORMAT_BEGIN
 90
        5
170
     1
 91
        0
 92
        0
 62
   257
 93
        1
300
CONTENTFORMAT
  1
CONTENTFORMAT_BEGIN
 90
        0
 91
        0
 92
      512
 93
        0
300

 40
0.0
140
1.0
 94
        5
 62
     0
340
1393A
144
0.18
309
CONTENTFORMAT_END
171
     0
 94
        0
309
TABLEFORMAT_END
  1
CELLSTYLE_BEGIN
 90
        2
 91
        1
300
_HEADER
309
CELLSTYLE_END
300
CELLSTYLE
  1
TABLEFORMAT_BEGIN
 90
        5
170
     1
 91
        0
 92
        0
 62
   257
 93
        1
300
CONTENTFORMAT
  1
CONTENTFORMAT_BEGIN
 90
        0
 91
        0
 92
      512
 93
        0
300

 40
0.0
140
1.0
 94
        2
 62
     0
340
1393A
144
0.18
309
CONTENTFORMAT_END
171
     0
 94
        0
309
TABLEFORMAT_END
  1
CELLSTYLE_BEGIN
 90
        3
 91
        2
300
_DATA
309
CELLSTYLE_END
  0
XRECORD
  5
13D4E
102
{ACAD_REACTORS
330
13D17
102
}
330
13D17
100
AcDbXrecord
280
     1
102
ACAD_ROUNDTRIP_PRE2007_TABLESTYLE
 90
      512
 91
        0
  1

 92
      512
 93
        0
  2

 94
      512
 95
        0
  3

  0
XRECORD
  5
13D29
102
{ACAD_REACTORS
330
13D28
102
}
330
13D28
100
AcDbXrecord
280
     1
102
RTVSPost2010Prop28
280
     1
102
RTVSPost2010PropOp28
 70
     1
102
RTVSPost2010Prop29
280
     1
102
RTVSPost2010PropOp29
 70
     1
102
RTVSPost2010Prop30
280
     0
102
RTVSPost2010PropOp30
 70
     1
102
RTVSPost2010Prop31
280
     0
102
RTVSPost2010PropOp31
 70
     1
102
RTVSPost2010Prop32
280
     0
102
RTVSPost2010PropOp32
 70
     1
102
RTVSPost2010Prop33
280
     0
102
RTVSPost2010PropOp33
 70
     1
102
RTVSPost2010Prop34
280
     0
102
RTVSPost2010PropOp34
 70
     1
102
RTVSPost2010Prop35
280
     0
102
RTVSPost2010PropOp35
 70
     1
102
RTVSPost2010Prop36
280
     0
102
RTVSPost2010PropOp36
 70
     1
102
RTVSPost2010Prop37
 90
       50
102
RTVSPost2010PropOp37
 70
     1
102
RTVSPost2010Prop38
140
0.0
102
RTVSPost2010PropOp38
 70
     1
102
RTVSPost2010Prop39
140
1.0
102
RTVSPost2010PropOp39
 70
     1
102
RTVSPost2010Prop40
 90
        0
102
RTVSPost2010PropOp40
 70
     1
102
RTVSPost2010Prop41ColorIndex
 90
       18
102
RTVSPost2010Prop41ColorRGB
 90
        0
102
RTVSPost2010PropOp41
 70
     1
102
RTVSPost2010Prop42
 90
       50
102
RTVSPost2010PropOp42
 70
     1
102
RTVSPost2010Prop43
 90
        3
102
RTVSPost2010PropOp43
 70
     1
102
RTVSPost2010Prop44ColorIndex
 90
        5
102
RTVSPost2010Prop44ColorRGB
 90
      255
102
RTVSPost2010PropOp44
 70
     1
102
RTVSPost2010Prop45
280
     0
102
RTVSPost2010PropOp45
 70
     1
102
RTVSPost2010Prop46
 90
       50
102
RTVSPost2010PropOp46
 70
     1
102
RTVSPost2010Prop47
 90
       50
102
RTVSPost2010PropOp47
 70
     1
102
RTVSPost2010Prop48
 90
       50
102
RTVSPost2010PropOp48
 70
     1
102
RTVSPost2010Prop49
280
     0
102
RTVSPost2010PropOp49
 70
     1
102
RTVSPost2010Prop50
 90
       50
102
RTVSPost2010PropOp50
 70
     1
102
RTVSPost2010Prop51ColorIndex
 90
      256
102
RTVSPost2010Prop51ColorRGB
 90
-16777216
102
RTVSPost2010PropOp51
 70
     0
102
RTVSPost2010Prop52
140
1.0
102
RTVSPost2010PropOp52
 70
     0
102
RTVSPost2010Prop53
 90
        2
102
RTVSPost2010PropOp53
 70
     1
102
RTVSPost2010Prop54
  1
strokes_ogs.tif
102
RTVSPost2010PropOp54
 70
     1
102
RTVSPost2010Prop55
280
     0
102
RTVSPost2010PropOp55
 70
     1
102
RTVSPost2010Prop56
140
1.0
102
RTVSPost2010PropOp56
 70
     1
102
RTVSPost2010Prop57
140
1.0
102
RTVSPost2010PropOp57
 70
     1
102
RTVSPropertyOp0
 70
     1
102
RTVSPropertyOp1
 70
     1
102
RTVSPropertyOp2
 70
     1
102
RTVSPropertyOp3
 70
     1
102
RTVSPropertyOp4
 70
     1
102
RTVSPropertyOp5
 70
     1
102
RTVSPropertyOp6
 70
     1
102
RTVSPropertyOp7
 70
     1
102
RTVSPropertyOp8
 70
     1
102
RTVSPropertyOp9
 70
     1
102
RTVSPropertyOp10
 70
     1
102
RTVSPropertyOp11
 70
     1
102
RTVSPropertyOp12
 70
     1
102
RTVSPropertyOp13
 70
     1
102
RTVSPropertyOp14
 70
     1
102
RTVSPropertyOp15
 70
     1
102
RTVSPropertyOp16
 70
     1
102
RTVSPropertyOp17
 70
     1
102
RTVSPropertyOp18
 70
     1
102
RTVSPropertyOp19
 70
     1
102
RTVSPropertyOp20
 70
     1
102
RTVSPropertyOp21
 70
     1
102
RTVSPropertyOp22
 70
     1
102
RTVSPropertyOp23
 70
     1
102
RTVSPropertyOp24
 70
     1
102
RTVSPropertyOp25
 70
     1
102
RTVSPropertyOp26
 70
     1
102
RTVSPropertyOp27
 70
     1
102
RTVSPropertyOp28
 70
     1
102
RTVSPropertyOp29
 70
     1
102
RTVSPropertyOp30
 70
     1
102
RTVSPropertyOp31
 70
     1
102
RTVSPropertyOp32
 70
     1
102
RTVSPropertyOp33
 70
     1
102
RTVSPropertyOp34
 70
     1
102
RTVSPropertyOp35
 70
     1
102
RTVSPropertyOp36
 70
     1
102
RTVSPropertyOp37
 70
     1
102
RTVSPropertyOp38
 70
     1
102
RTVSPropertyOp39
 70
     1
102
RTVSPropertyOp40
 70
     1
102
RTVSPropertyOp41
 70
     1
102
RTVSPropertyOp42
 70
     1
102
RTVSPropertyOp43
 70
     1
102
RTVSPropertyOp44
 70
     1
102
RTVSPropertyOp45
 70
     1
102
RTVSPropertyOp46
 70
     1
102
RTVSPropertyOp47
 70
     1
102
RTVSPropertyOp48
 70
     1
102
RTVSPropertyOp49
 70
     1
102
RTVSPropertyOp50
 70
     1
102
RTVSPropertyOp51
 70
     0
102
RTVSPropertyOp52
 70
     0
102
RTVSPropertyOp53
 70
     1
102
RTVSPropertyOp54
 70
     1
102
RTVSPropertyOp55
 70
     1
102
RTVSPropertyOp56
 70
     1
102
RTVSPropertyOp57
 70
     1
102
RTVSPropertyOp58
 70
     1
102
RTVSPropertyOp59
 70
     1
102
RTVSPropertyOp60
 70
     1
102
RTVSPropertyOp61
 70
     1
102
RTVSPropertyOp62
 70
     1
  0
XRECORD
  5
13D27
102
{ACAD_REACTORS
330
13D26
102
}
330
13D26
100
AcDbXrecord
280
     1
102
RTVSPost2010Prop28
280
     0
102
RTVSPost2010PropOp28
 70
     1
102
RTVSPost2010Prop29
280
     1
102
RTVSPost2010PropOp29
 70
     1
102
RTVSPost2010Prop30
280
     1
102
RTVSPost2010PropOp30
 70
     1
102
RTVSPost2010Prop31
280
     0
102
RTVSPost2010PropOp31
 70
     1
102
RTVSPost2010Prop32
280
     0
102
RTVSPost2010PropOp32
 70
     1
102
RTVSPost2010Prop33
280
     0
102
RTVSPost2010PropOp33
 70
     1
102
RTVSPost2010Prop34
280
     0
102
RTVSPost2010PropOp34
 70
     1
102
RTVSPost2010Prop35
280
     0
102
RTVSPost2010PropOp35
 70
     1
102
RTVSPost2010Prop36
280
     0
102
RTVSPost2010PropOp36
 70
     1
102
RTVSPost2010Prop37
 90
       50
102
RTVSPost2010PropOp37
 70
     1
102
RTVSPost2010Prop38
140
0.0
102
RTVSPost2010PropOp38
 70
     1
102
RTVSPost2010Prop39
140
1.0
102
RTVSPost2010PropOp39
 70
     1
102
RTVSPost2010Prop40
 90
        0
102
RTVSPost2010PropOp40
 70
     1
102
RTVSPost2010Prop41ColorIndex
 90
       18
102
RTVSPost2010Prop41ColorRGB
 90
        0
102
RTVSPost2010PropOp41
 70
     1
102
RTVSPost2010Prop42
 90
       50
102
RTVSPost2010PropOp42
 70
     1
102
RTVSPost2010Prop43
 90
        3
102
RTVSPost2010PropOp43
 70
     1
102
RTVSPost2010Prop44ColorIndex
 90
        5
102
RTVSPost2010Prop44ColorRGB
 90
      255
102
RTVSPost2010PropOp44
 70
     1
102
RTVSPost2010Prop45
280
     0
102
RTVSPost2010PropOp45
 70
     1
102
RTVSPost2010Prop46
 90
       50
102
RTVSPost2010PropOp46
 70
     1
102
RTVSPost2010Prop47
 90
       50
102
RTVSPost2010PropOp47
 70
     1
102
RTVSPost2010Prop48
 90
       50
102
RTVSPost2010PropOp48
 70
     1
102
RTVSPost2010Prop49
280
     0
102
RTVSPost2010PropOp49
 70
     1
102
RTVSPost2010Prop50
 90
       50
102
RTVSPost2010PropOp50
 70
     1
102
RTVSPost2010Prop51ColorIndex
 90
      256
102
RTVSPost2010Prop51ColorRGB
 90
-16777216
102
RTVSPost2010PropOp51
 70
     0
102
RTVSPost2010Prop52
140
1.0
102
RTVSPost2010PropOp52
 70
     0
102
RTVSPost2010Prop53
 90
        2
102
RTVSPost2010PropOp53
 70
     1
102
RTVSPost2010Prop54
  1
strokes_ogs.tif
102
RTVSPost2010PropOp54
 70
     1
102
RTVSPost2010Prop55
280
     0
102
RTVSPost2010PropOp55
 70
     1
102
RTVSPost2010Prop56
140
1.0
102
RTVSPost2010PropOp56
 70
     1
102
RTVSPost2010Prop57
140
1.0
102
RTVSPost2010PropOp57
 70
     1
102
RTVSPropertyOp0
 70
     1
102
RTVSPropertyOp1
 70
     1
102
RTVSPropertyOp2
 70
     1
102
RTVSPropertyOp3
 70
     1
102
RTVSPropertyOp4
 70
     1
102
RTVSPropertyOp5
 70
     1
102
RTVSPropertyOp6
 70
     1
102
RTVSPropertyOp7
 70
     1
102
RTVSPropertyOp8
 70
     1
102
RTVSPropertyOp9
 70
     1
102
RTVSPropertyOp10
 70
     1
102
RTVSPropertyOp11
 70
     1
102
RTVSPropertyOp12
 70
     1
102
RTVSPropertyOp13
 70
     1
102
RTVSPropertyOp14
 70
     1
102
RTVSPropertyOp15
 70
     1
102
RTVSPropertyOp16
 70
     1
102
RTVSPropertyOp17
 70
     1
102
RTVSPropertyOp18
 70
     1
102
RTVSPropertyOp19
 70
     1
102
RTVSPropertyOp20
 70
     1
102
RTVSPropertyOp21
 70
     1
102
RTVSPropertyOp22
 70
     1
102
RTVSPropertyOp23
 70
     1
102
RTVSPropertyOp24
 70
     1
102
RTVSPropertyOp25
 70
     1
102
RTVSPropertyOp26
 70
     1
102
RTVSPropertyOp27
 70
     1
102
RTVSPropertyOp28
 70
     1
102
RTVSPropertyOp29
 70
     1
102
RTVSPropertyOp30
 70
     1
102
RTVSPropertyOp31
 70
     1
102
RTVSPropertyOp32
 70
     1
102
RTVSPropertyOp33
 70
     1
102
RTVSPropertyOp34
 70
     1
102
RTVSPropertyOp35
 70
     1
102
RTVSPropertyOp36
 70
     1
102
RTVSPropertyOp37
 70
     1
102
RTVSPropertyOp38
 70
     1
102
RTVSPropertyOp39
 70
     1
102
RTVSPropertyOp40
 70
     1
102
RTVSPropertyOp41
 70
     1
102
RTVSPropertyOp42
 70
     1
102
RTVSPropertyOp43
 70
     1
102
RTVSPropertyOp44
 70
     1
102
RTVSPropertyOp45
 70
     1
102
RTVSPropertyOp46
 70
     1
102
RTVSPropertyOp47
 70
     1
102
RTVSPropertyOp48
 70
     1
102
RTVSPropertyOp49
 70
     1
102
RTVSPropertyOp50
 70
     1
102
RTVSPropertyOp51
 70
     0
102
RTVSPropertyOp52
 70
     0
102
RTVSPropertyOp53
 70
     1
102
RTVSPropertyOp54
 70
     1
102
RTVSPropertyOp55
 70
     1
102
RTVSPropertyOp56
 70
     1
102
RTVSPropertyOp57
 70
     1
102
RTVSPropertyOp58
 70
     1
102
RTVSPropertyOp59
 70
     1
102
RTVSPropertyOp60
 70
     1
102
RTVSPropertyOp61
 70
     1
102
RTVSPropertyOp62
 70
     1
  0
XRECORD
  5
13D35
102
{ACAD_REACTORS
330
13D34
102
}
330
13D34
100
AcDbXrecord
280
     1
102
RTVSPost2010Prop28
280
     0
102
RTVSPost2010PropOp28
 70
     1
102
RTVSPost2010Prop29
280
     1
102
RTVSPost2010PropOp29
 70
     1
102
RTVSPost2010Prop30
280
     1
102
RTVSPost2010PropOp30
 70
     1
102
RTVSPost2010Prop31
280
     0
102
RTVSPost2010PropOp31
 70
     1
102
RTVSPost2010Prop32
280
     0
102
RTVSPost2010PropOp32
 70
     1
102
RTVSPost2010Prop33
280
     0
102
RTVSPost2010PropOp33
 70
     1
102
RTVSPost2010Prop34
280
     0
102
RTVSPost2010PropOp34
 70
     1
102
RTVSPost2010Prop35
280
     0
102
RTVSPost2010PropOp35
 70
     1
102
RTVSPost2010Prop36
280
     0
102
RTVSPost2010PropOp36
 70
     1
102
RTVSPost2010Prop37
 90
       50
102
RTVSPost2010PropOp37
 70
     1
102
RTVSPost2010Prop38
140
0.0
102
RTVSPost2010PropOp38
 70
     1
102
RTVSPost2010Prop39
140
1.0
102
RTVSPost2010PropOp39
 70
     1
102
RTVSPost2010Prop40
 90
        0
102
RTVSPost2010PropOp40
 70
     1
102
RTVSPost2010Prop41ColorIndex
 90
       18
102
RTVSPost2010Prop41ColorRGB
 90
        0
102
RTVSPost2010PropOp41
 70
     1
102
RTVSPost2010Prop42
 90
       50
102
RTVSPost2010PropOp42
 70
     1
102
RTVSPost2010Prop43
 90
        3
102
RTVSPost2010PropOp43
 70
     1
102
RTVSPost2010Prop44ColorIndex
 90
        5
102
RTVSPost2010Prop44ColorRGB
 90
      255
102
RTVSPost2010PropOp44
 70
     1
102
RTVSPost2010Prop45
280
     0
102
RTVSPost2010PropOp45
 70
     1
102
RTVSPost2010Prop46
 90
       50
102
RTVSPost2010PropOp46
 70
     1
102
RTVSPost2010Prop47
 90
       50
102
RTVSPost2010PropOp47
 70
     1
102
RTVSPost2010Prop48
 90
       50
102
RTVSPost2010PropOp48
 70
     1
102
RTVSPost2010Prop49
280
     0
102
RTVSPost2010PropOp49
 70
     1
102
RTVSPost2010Prop50
 90
       50
102
RTVSPost2010PropOp50
 70
     1
102
RTVSPost2010Prop51ColorIndex
 90
      256
102
RTVSPost2010Prop51ColorRGB
 90
-16777216
102
RTVSPost2010PropOp51
 70
     0
102
RTVSPost2010Prop52
140
1.0
102
RTVSPost2010PropOp52
 70
     0
102
RTVSPost2010Prop53
 90
        2
102
RTVSPost2010PropOp53
 70
     1
102
RTVSPost2010Prop54
  1
strokes_ogs.tif
102
RTVSPost2010PropOp54
 70
     1
102
RTVSPost2010Prop55
280
     0
102
RTVSPost2010PropOp55
 70
     1
102
RTVSPost2010Prop56
140
1.0
102
RTVSPost2010PropOp56
 70
     1
102
RTVSPost2010Prop57
140
1.0
102
RTVSPost2010PropOp57
 70
     1
102
RTVSPropertyOp0
 70
     1
102
RTVSPropertyOp1
 70
     1
102
RTVSPropertyOp2
 70
     1
102
RTVSPropertyOp3
 70
     1
102
RTVSPropertyOp4
 70
     1
102
RTVSPropertyOp5
 70
     1
102
RTVSPropertyOp6
 70
     1
102
RTVSPropertyOp7
 70
     1
102
RTVSPropertyOp8
 70
     1
102
RTVSPropertyOp9
 70
     1
102
RTVSPropertyOp10
 70
     1
102
RTVSPropertyOp11
 70
     1
102
RTVSPropertyOp12
 70
     1
102
RTVSPropertyOp13
 70
     1
102
RTVSPropertyOp14
 70
     1
102
RTVSPropertyOp15
 70
     1
102
RTVSPropertyOp16
 70
     1
102
RTVSPropertyOp17
 70
     1
102
RTVSPropertyOp18
 70
     1
102
RTVSPropertyOp19
 70
     1
102
RTVSPropertyOp20
 70
     1
102
RTVSPropertyOp21
 70
     1
102
RTVSPropertyOp22
 70
     1
102
RTVSPropertyOp23
 70
     1
102
RTVSPropertyOp24
 70
     1
102
RTVSPropertyOp25
 70
     1
102
RTVSPropertyOp26
 70
     1
102
RTVSPropertyOp27
 70
     1
102
RTVSPropertyOp28
 70
     1
102
RTVSPropertyOp29
 70
     1
102
RTVSPropertyOp30
 70
     1
102
RTVSPropertyOp31
 70
     1
102
RTVSPropertyOp32
 70
     1
102
RTVSPropertyOp33
 70
     1
102
RTVSPropertyOp34
 70
     1
102
RTVSPropertyOp35
 70
     1
102
RTVSPropertyOp36
 70
     1
102
RTVSPropertyOp37
 70
     1
102
RTVSPropertyOp38
 70
     1
102
RTVSPropertyOp39
 70
     1
102
RTVSPropertyOp40
 70
     1
102
RTVSPropertyOp41
 70
     1
102
RTVSPropertyOp42
 70
     1
102
RTVSPropertyOp43
 70
     1
102
RTVSPropertyOp44
 70
     1
102
RTVSPropertyOp45
 70
     1
102
RTVSPropertyOp46
 70
     1
102
RTVSPropertyOp47
 70
     1
102
RTVSPropertyOp48
 70
     1
102
RTVSPropertyOp49
 70
     1
102
RTVSPropertyOp50
 70
     1
102
RTVSPropertyOp51
 70
     0
102
RTVSPropertyOp52
 70
     0
102
RTVSPropertyOp53
 70
     1
102
RTVSPropertyOp54
 70
     1
102
RTVSPropertyOp55
 70
     1
102
RTVSPropertyOp56
 70
     1
102
RTVSPropertyOp57
 70
     1
102
RTVSPropertyOp58
 70
     1
102
RTVSPropertyOp59
 70
     1
102
RTVSPropertyOp60
 70
     1
102
RTVSPropertyOp61
 70
     1
102
RTVSPropertyOp62
 70
     1
  0
XRECORD
  5
13D3D
102
{ACAD_REACTORS
330
13D3C
102
}
330
13D3C
100
AcDbXrecord
280
     1
102
RTVSPost2010Prop28
280
     0
102
RTVSPost2010PropOp28
 70
     1
102
RTVSPost2010Prop29
280
     1
102
RTVSPost2010PropOp29
 70
     1
102
RTVSPost2010Prop30
280
     1
102
RTVSPost2010PropOp30
 70
     1
102
RTVSPost2010Prop31
280
     0
102
RTVSPost2010PropOp31
 70
     1
102
RTVSPost2010Prop32
280
     0
102
RTVSPost2010PropOp32
 70
     1
102
RTVSPost2010Prop33
280
     0
102
RTVSPost2010PropOp33
 70
     1
102
RTVSPost2010Prop34
280
     0
102
RTVSPost2010PropOp34
 70
     1
102
RTVSPost2010Prop35
280
     0
102
RTVSPost2010PropOp35
 70
     1
102
RTVSPost2010Prop36
280
     0
102
RTVSPost2010PropOp36
 70
     1
102
RTVSPost2010Prop37
 90
       50
102
RTVSPost2010PropOp37
 70
     1
102
RTVSPost2010Prop38
140
0.0
102
RTVSPost2010PropOp38
 70
     1
102
RTVSPost2010Prop39
140
1.0
102
RTVSPost2010PropOp39
 70
     1
102
RTVSPost2010Prop40
 90
        0
102
RTVSPost2010PropOp40
 70
     1
102
RTVSPost2010Prop41ColorIndex
 90
       18
102
RTVSPost2010Prop41ColorRGB
 90
        0
102
RTVSPost2010PropOp41
 70
     1
102
RTVSPost2010Prop42
 90
       50
102
RTVSPost2010PropOp42
 70
     1
102
RTVSPost2010Prop43
 90
        3
102
RTVSPost2010PropOp43
 70
     1
102
RTVSPost2010Prop44ColorIndex
 90
        5
102
RTVSPost2010Prop44ColorRGB
 90
      255
102
RTVSPost2010PropOp44
 70
     1
102
RTVSPost2010Prop45
280
     0
102
RTVSPost2010PropOp45
 70
     1
102
RTVSPost2010Prop46
 90
       50
102
RTVSPost2010PropOp46
 70
     1
102
RTVSPost2010Prop47
 90
       50
102
RTVSPost2010PropOp47
 70
     1
102
RTVSPost2010Prop48
 90
       50
102
RTVSPost2010PropOp48
 70
     1
102
RTVSPost2010Prop49
280
     0
102
RTVSPost2010PropOp49
 70
     1
102
RTVSPost2010Prop50
 90
       50
102
RTVSPost2010PropOp50
 70
     1
102
RTVSPost2010Prop51ColorIndex
 90
      256
102
RTVSPost2010Prop51ColorRGB
 90
-16777216
102
RTVSPost2010PropOp51
 70
     0
102
RTVSPost2010Prop52
140
1.0
102
RTVSPost2010PropOp52
 70
     0
102
RTVSPost2010Prop53
 90
        2
102
RTVSPost2010PropOp53
 70
     1
102
RTVSPost2010Prop54
  1
strokes_ogs.tif
102
RTVSPost2010PropOp54
 70
     1
102
RTVSPost2010Prop55
280
     0
102
RTVSPost2010PropOp55
 70
     1
102
RTVSPost2010Prop56
140
1.0
102
RTVSPost2010PropOp56
 70
     1
102
RTVSPost2010Prop57
140
1.0
102
RTVSPost2010PropOp57
 70
     1
102
RTVSPropertyOp0
 70
     1
102
RTVSPropertyOp1
 70
     1
102
RTVSPropertyOp2
 70
     1
102
RTVSPropertyOp3
 70
     1
102
RTVSPropertyOp4
 70
     1
102
RTVSPropertyOp5
 70
     1
102
RTVSPropertyOp6
 70
     1
102
RTVSPropertyOp7
 70
     1
102
RTVSPropertyOp8
 70
     1
102
RTVSPropertyOp9
 70
     1
102
RTVSPropertyOp10
 70
     1
102
RTVSPropertyOp11
 70
     1
102
RTVSPropertyOp12
 70
     1
102
RTVSPropertyOp13
 70
     1
102
RTVSPropertyOp14
 70
     1
102
RTVSPropertyOp15
 70
     1
102
RTVSPropertyOp16
 70
     1
102
RTVSPropertyOp17
 70
     1
102
RTVSPropertyOp18
 70
     1
102
RTVSPropertyOp19
 70
     1
102
RTVSPropertyOp20
 70
     1
102
RTVSPropertyOp21
 70
     1
102
RTVSPropertyOp22
 70
     1
102
RTVSPropertyOp23
 70
     1
102
RTVSPropertyOp24
 70
     1
102
RTVSPropertyOp25
 70
     1
102
RTVSPropertyOp26
 70
     1
102
RTVSPropertyOp27
 70
     1
102
RTVSPropertyOp28
 70
     1
102
RTVSPropertyOp29
 70
     1
102
RTVSPropertyOp30
 70
     1
102
RTVSPropertyOp31
 70
     1
102
RTVSPropertyOp32
 70
     1
102
RTVSPropertyOp33
 70
     1
102
RTVSPropertyOp34
 70
     1
102
RTVSPropertyOp35
 70
     1
102
RTVSPropertyOp36
 70
     1
102
RTVSPropertyOp37
 70
     1
102
RTVSPropertyOp38
 70
     1
102
RTVSPropertyOp39
 70
     1
102
RTVSPropertyOp40
 70
     1
102
RTVSPropertyOp41
 70
     1
102
RTVSPropertyOp42
 70
     1
102
RTVSPropertyOp43
 70
     1
102
RTVSPropertyOp44
 70
     1
102
RTVSPropertyOp45
 70
     1
102
RTVSPropertyOp46
 70
     1
102
RTVSPropertyOp47
 70
     1
102
RTVSPropertyOp48
 70
     1
102
RTVSPropertyOp49
 70
     1
102
RTVSPropertyOp50
 70
     1
102
RTVSPropertyOp51
 70
     0
102
RTVSPropertyOp52
 70
     0
102
RTVSPropertyOp53
 70
     1
102
RTVSPropertyOp54
 70
     1
102
RTVSPropertyOp55
 70
     1
102
RTVSPropertyOp56
 70
     1
102
RTVSPropertyOp57
 70
     1
102
RTVSPropertyOp58
 70
     1
102
RTVSPropertyOp59
 70
     1
102
RTVSPropertyOp60
 70
     1
102
RTVSPropertyOp61
 70
     1
102
RTVSPropertyOp62
 70
     1
  0
XRECORD
  5
13D2F
102
{ACAD_REACTORS
330
13D2E
102
}
330
13D2E
100
AcDbXrecord
280
     1
102
RTVSPost2010Prop28
280
     0
102
RTVSPost2010PropOp28
 70
     1
102
RTVSPost2010Prop29
280
     1
102
RTVSPost2010PropOp29
 70
     1
102
RTVSPost2010Prop30
280
     1
102
RTVSPost2010PropOp30
 70
     1
102
RTVSPost2010Prop31
280
     0
102
RTVSPost2010PropOp31
 70
     1
102
RTVSPost2010Prop32
280
     0
102
RTVSPost2010PropOp32
 70
     1
102
RTVSPost2010Prop33
280
     0
102
RTVSPost2010PropOp33
 70
     1
102
RTVSPost2010Prop34
280
     0
102
RTVSPost2010PropOp34
 70
     1
102
RTVSPost2010Prop35
280
     0
102
RTVSPost2010PropOp35
 70
     1
102
RTVSPost2010Prop36
280
     0
102
RTVSPost2010PropOp36
 70
     1
102
RTVSPost2010Prop37
 90
       50
102
RTVSPost2010PropOp37
 70
     1
102
RTVSPost2010Prop38
140
0.0
102
RTVSPost2010PropOp38
 70
     1
102
RTVSPost2010Prop39
140
1.0
102
RTVSPost2010PropOp39
 70
     1
102
RTVSPost2010Prop40
 90
        0
102
RTVSPost2010PropOp40
 70
     1
102
RTVSPost2010Prop41ColorIndex
 90
       18
102
RTVSPost2010Prop41ColorRGB
 90
        0
102
RTVSPost2010PropOp41
 70
     1
102
RTVSPost2010Prop42
 90
       50
102
RTVSPost2010PropOp42
 70
     1
102
RTVSPost2010Prop43
 90
        3
102
RTVSPost2010PropOp43
 70
     1
102
RTVSPost2010Prop44ColorIndex
 90
        5
102
RTVSPost2010Prop44ColorRGB
 90
      255
102
RTVSPost2010PropOp44
 70
     1
102
RTVSPost2010Prop45
280
     0
102
RTVSPost2010PropOp45
 70
     1
102
RTVSPost2010Prop46
 90
       50
102
RTVSPost2010PropOp46
 70
     1
102
RTVSPost2010Prop47
 90
       50
102
RTVSPost2010PropOp47
 70
     1
102
RTVSPost2010Prop48
 90
       50
102
RTVSPost2010PropOp48
 70
     1
102
RTVSPost2010Prop49
280
     0
102
RTVSPost2010PropOp49
 70
     1
102
RTVSPost2010Prop50
 90
       50
102
RTVSPost2010PropOp50
 70
     1
102
RTVSPost2010Prop51ColorIndex
 90
      256
102
RTVSPost2010Prop51ColorRGB
 90
-16777216
102
RTVSPost2010PropOp51
 70
     0
102
RTVSPost2010Prop52
140
1.0
102
RTVSPost2010PropOp52
 70
     0
102
RTVSPost2010Prop53
 90
        2
102
RTVSPost2010PropOp53
 70
     1
102
RTVSPost2010Prop54
  1
strokes_ogs.tif
102
RTVSPost2010PropOp54
 70
     1
102
RTVSPost2010Prop55
280
     0
102
RTVSPost2010PropOp55
 70
     1
102
RTVSPost2010Prop56
140
1.0
102
RTVSPost2010PropOp56
 70
     1
102
RTVSPost2010Prop57
140
1.0
102
RTVSPost2010PropOp57
 70
     1
102
RTVSPropertyOp0
 70
     1
102
RTVSPropertyOp1
 70
     1
102
RTVSPropertyOp2
 70
     1
102
RTVSPropertyOp3
 70
     1
102
RTVSPropertyOp4
 70
     1
102
RTVSPropertyOp5
 70
     1
102
RTVSPropertyOp6
 70
     1
102
RTVSPropertyOp7
 70
     1
102
RTVSPropertyOp8
 70
     1
102
RTVSPropertyOp9
 70
     1
102
RTVSPropertyOp10
 70
     1
102
RTVSPropertyOp11
 70
     1
102
RTVSPropertyOp12
 70
     1
102
RTVSPropertyOp13
 70
     1
102
RTVSPropertyOp14
 70
     1
102
RTVSPropertyOp15
 70
     1
102
RTVSPropertyOp16
 70
     1
102
RTVSPropertyOp17
 70
     1
102
RTVSPropertyOp18
 70
     1
102
RTVSPropertyOp19
 70
     1
102
RTVSPropertyOp20
 70
     1
102
RTVSPropertyOp21
 70
     1
102
RTVSPropertyOp22
 70
     1
102
RTVSPropertyOp23
 70
     1
102
RTVSPropertyOp24
 70
     1
102
RTVSPropertyOp25
 70
     1
102
RTVSPropertyOp26
 70
     1
102
RTVSPropertyOp27
 70
     1
102
RTVSPropertyOp28
 70
     1
102
RTVSPropertyOp29
 70
     1
102
RTVSPropertyOp30
 70
     1
102
RTVSPropertyOp31
 70
     1
102
RTVSPropertyOp32
 70
     1
102
RTVSPropertyOp33
 70
     1
102
RTVSPropertyOp34
 70
     1
102
RTVSPropertyOp35
 70
     1
102
RTVSPropertyOp36
 70
     1
102
RTVSPropertyOp37
 70
     1
102
RTVSPropertyOp38
 70
     1
102
RTVSPropertyOp39
 70
     1
102
RTVSPropertyOp40
 70
     1
102
RTVSPropertyOp41
 70
     1
102
RTVSPropertyOp42
 70
     1
102
RTVSPropertyOp43
 70
     1
102
RTVSPropertyOp44
 70
     1
102
RTVSPropertyOp45
 70
     1
102
RTVSPropertyOp46
 70
     1
102
RTVSPropertyOp47
 70
     1
102
RTVSPropertyOp48
 70
     1
102
RTVSPropertyOp49
 70
     1
102
RTVSPropertyOp50
 70
     1
102
RTVSPropertyOp51
 70
     0
102
RTVSPropertyOp52
 70
     0
102
RTVSPropertyOp53
 70
     1
102
RTVSPropertyOp54
 70
     1
102
RTVSPropertyOp55
 70
     1
102
RTVSPropertyOp56
 70
     1
102
RTVSPropertyOp57
 70
     1
102
RTVSPropertyOp58
 70
     1
102
RTVSPropertyOp59
 70
     1
102
RTVSPropertyOp60
 70
     1
102
RTVSPropertyOp61
 70
     1
102
RTVSPropertyOp62
 70
     1
  0
XRECORD
  5
13D33
102
{ACAD_REACTORS
330
13D32
102
}
330
13D32
100
AcDbXrecord
280
     1
102
RTVSPost2010Prop28
280
     0
102
RTVSPost2010PropOp28
 70
     1
102
RTVSPost2010Prop29
280
     1
102
RTVSPost2010PropOp29
 70
     1
102
RTVSPost2010Prop30
280
     1
102
RTVSPost2010PropOp30
 70
     1
102
RTVSPost2010Prop31
280
     0
102
RTVSPost2010PropOp31
 70
     1
102
RTVSPost2010Prop32
280
     0
102
RTVSPost2010PropOp32
 70
     1
102
RTVSPost2010Prop33
280
     0
102
RTVSPost2010PropOp33
 70
     1
102
RTVSPost2010Prop34
280
     0
102
RTVSPost2010PropOp34
 70
     1
102
RTVSPost2010Prop35
280
     0
102
RTVSPost2010PropOp35
 70
     1
102
RTVSPost2010Prop36
280
     0
102
RTVSPost2010PropOp36
 70
     1
102
RTVSPost2010Prop37
 90
       50
102
RTVSPost2010PropOp37
 70
     1
102
RTVSPost2010Prop38
140
0.0
102
RTVSPost2010PropOp38
 70
     1
102
RTVSPost2010Prop39
140
1.0
102
RTVSPost2010PropOp39
 70
     1
102
RTVSPost2010Prop40
 90
        0
102
RTVSPost2010PropOp40
 70
     1
102
RTVSPost2010Prop41ColorIndex
 90
       18
102
RTVSPost2010Prop41ColorRGB
 90
        0
102
RTVSPost2010PropOp41
 70
     1
102
RTVSPost2010Prop42
 90
       50
102
RTVSPost2010PropOp42
 70
     1
102
RTVSPost2010Prop43
 90
        3
102
RTVSPost2010PropOp43
 70
     1
102
RTVSPost2010Prop44ColorIndex
 90
        5
102
RTVSPost2010Prop44ColorRGB
 90
      255
102
RTVSPost2010PropOp44
 70
     1
102
RTVSPost2010Prop45
280
     0
102
RTVSPost2010PropOp45
 70
     1
102
RTVSPost2010Prop46
 90
       50
102
RTVSPost2010PropOp46
 70
     1
102
RTVSPost2010Prop47
 90
       50
102
RTVSPost2010PropOp47
 70
     1
102
RTVSPost2010Prop48
 90
       50
102
RTVSPost2010PropOp48
 70
     1
102
RTVSPost2010Prop49
280
     0
102
RTVSPost2010PropOp49
 70
     1
102
RTVSPost2010Prop50
 90
       50
102
RTVSPost2010PropOp50
 70
     1
102
RTVSPost2010Prop51ColorIndex
 90
      256
102
RTVSPost2010Prop51ColorRGB
 90
-16777216
102
RTVSPost2010PropOp51
 70
     0
102
RTVSPost2010Prop52
140
1.0
102
RTVSPost2010PropOp52
 70
     0
102
RTVSPost2010Prop53
 90
        2
102
RTVSPost2010PropOp53
 70
     1
102
RTVSPost2010Prop54
  1
strokes_ogs.tif
102
RTVSPost2010PropOp54
 70
     1
102
RTVSPost2010Prop55
280
     0
102
RTVSPost2010PropOp55
 70
     1
102
RTVSPost2010Prop56
140
1.0
102
RTVSPost2010PropOp56
 70
     1
102
RTVSPost2010Prop57
140
1.0
102
RTVSPost2010PropOp57
 70
     1
102
RTVSPropertyOp0
 70
     1
102
RTVSPropertyOp1
 70
     1
102
RTVSPropertyOp2
 70
     1
102
RTVSPropertyOp3
 70
     1
102
RTVSPropertyOp4
 70
     1
102
RTVSPropertyOp5
 70
     1
102
RTVSPropertyOp6
 70
     1
102
RTVSPropertyOp7
 70
     1
102
RTVSPropertyOp8
 70
     1
102
RTVSPropertyOp9
 70
     1
102
RTVSPropertyOp10
 70
     1
102
RTVSPropertyOp11
 70
     1
102
RTVSPropertyOp12
 70
     1
102
RTVSPropertyOp13
 70
     1
102
RTVSPropertyOp14
 70
     1
102
RTVSPropertyOp15
 70
     1
102
RTVSPropertyOp16
 70
     1
102
RTVSPropertyOp17
 70
     1
102
RTVSPropertyOp18
 70
     1
102
RTVSPropertyOp19
 70
     1
102
RTVSPropertyOp20
 70
     1
102
RTVSPropertyOp21
 70
     1
102
RTVSPropertyOp22
 70
     1
102
RTVSPropertyOp23
 70
     1
102
RTVSPropertyOp24
 70
     1
102
RTVSPropertyOp25
 70
     1
102
RTVSPropertyOp26
 70
     1
102
RTVSPropertyOp27
 70
     1
102
RTVSPropertyOp28
 70
     1
102
RTVSPropertyOp29
 70
     1
102
RTVSPropertyOp30
 70
     1
102
RTVSPropertyOp31
 70
     1
102
RTVSPropertyOp32
 70
     1
102
RTVSPropertyOp33
 70
     1
102
RTVSPropertyOp34
 70
     1
102
RTVSPropertyOp35
 70
     1
102
RTVSPropertyOp36
 70
     1
102
RTVSPropertyOp37
 70
     1
102
RTVSPropertyOp38
 70
     1
102
RTVSPropertyOp39
 70
     1
102
RTVSPropertyOp40
 70
     1
102
RTVSPropertyOp41
 70
     1
102
RTVSPropertyOp42
 70
     1
102
RTVSPropertyOp43
 70
     1
102
RTVSPropertyOp44
 70
     1
102
RTVSPropertyOp45
 70
     1
102
RTVSPropertyOp46
 70
     1
102
RTVSPropertyOp47
 70
     1
102
RTVSPropertyOp48
 70
     1
102
RTVSPropertyOp49
 70
     1
102
RTVSPropertyOp50
 70
     1
102
RTVSPropertyOp51
 70
     0
102
RTVSPropertyOp52
 70
     0
102
RTVSPropertyOp53
 70
     1
102
RTVSPropertyOp54
 70
     1
102
RTVSPropertyOp55
 70
     1
102
RTVSPropertyOp56
 70
     1
102
RTVSPropertyOp57
 70
     1
102
RTVSPropertyOp58
 70
     1
102
RTVSPropertyOp59
 70
     1
102
RTVSPropertyOp60
 70
     1
102
RTVSPropertyOp61
 70
     1
102
RTVSPropertyOp62
 70
     1
  0
XRECORD
  5
13D4D
102
{ACAD_REACTORS
330
13D4C
102
}
330
13D4C
100
AcDbXrecord
280
     1
102
RTVSPost2010Prop28
280
     0
102
RTVSPost2010PropOp28
 70
     1
102
RTVSPost2010Prop29
280
     1
102
RTVSPost2010PropOp29
 70
     1
102
RTVSPost2010Prop30
280
     1
102
RTVSPost2010PropOp30
 70
     1
102
RTVSPost2010Prop31
280
     0
102
RTVSPost2010PropOp31
 70
     1
102
RTVSPost2010Prop32
280
     0
102
RTVSPost2010PropOp32
 70
     1
102
RTVSPost2010Prop33
280
     0
102
RTVSPost2010PropOp33
 70
     1
102
RTVSPost2010Prop34
280
     0
102
RTVSPost2010PropOp34
 70
     1
102
RTVSPost2010Prop35
280
     0
102
RTVSPost2010PropOp35
 70
     1
102
RTVSPost2010Prop36
280
     0
102
RTVSPost2010PropOp36
 70
     1
102
RTVSPost2010Prop37
 90
       50
102
RTVSPost2010PropOp37
 70
     0
102
RTVSPost2010Prop38
140
0.0
102
RTVSPost2010PropOp38
 70
     0
102
RTVSPost2010Prop39
140
1.0
102
RTVSPost2010PropOp39
 70
     0
102
RTVSPost2010Prop40
 90
        0
102
RTVSPost2010PropOp40
 70
     0
102
RTVSPost2010Prop41ColorIndex
 90
       18
102
RTVSPost2010Prop41ColorRGB
 90
        0
102
RTVSPost2010PropOp41
 70
     0
102
RTVSPost2010Prop42
 90
       50
102
RTVSPost2010PropOp42
 70
     0
102
RTVSPost2010Prop43
 90
        3
102
RTVSPost2010PropOp43
 70
     0
102
RTVSPost2010Prop44ColorIndex
 90
        5
102
RTVSPost2010Prop44ColorRGB
 90
      255
102
RTVSPost2010PropOp44
 70
     0
102
RTVSPost2010Prop45
280
     0
102
RTVSPost2010PropOp45
 70
     1
102
RTVSPost2010Prop46
 90
       50
102
RTVSPost2010PropOp46
 70
     0
102
RTVSPost2010Prop47
 90
       50
102
RTVSPost2010PropOp47
 70
     0
102
RTVSPost2010Prop48
 90
       50
102
RTVSPost2010PropOp48
 70
     0
102
RTVSPost2010Prop49
280
     0
102
RTVSPost2010PropOp49
 70
     1
102
RTVSPost2010Prop50
 90
       50
102
RTVSPost2010PropOp50
 70
     0
102
RTVSPost2010Prop51ColorIndex
 90
      256
102
RTVSPost2010Prop51ColorRGB
 90
-16777216
102
RTVSPost2010PropOp51
 70
     0
102
RTVSPost2010Prop52
140
1.0
102
RTVSPost2010PropOp52
 70
     0
102
RTVSPost2010Prop53
 90
        2
102
RTVSPost2010PropOp53
 70
     0
102
RTVSPost2010Prop54
  1
strokes_ogs.tif
102
RTVSPost2010PropOp54
 70
     0
102
RTVSPost2010Prop55
280
     0
102
RTVSPost2010PropOp55
 70
     1
102
RTVSPost2010Prop56
140
1.0
102
RTVSPost2010PropOp56
 70
     0
102
RTVSPost2010Prop57
140
1.0
102
RTVSPost2010PropOp57
 70
     0
102
RTVSPropertyOp0
 70
     0
102
RTVSPropertyOp1
 70
     0
102
RTVSPropertyOp2
 70
     0
102
RTVSPropertyOp3
 70
     0
102
RTVSPropertyOp4
 70
     0
102
RTVSPropertyOp5
 70
     0
102
RTVSPropertyOp6
 70
     0
102
RTVSPropertyOp7
 70
     0
102
RTVSPropertyOp8
 70
     0
102
RTVSPropertyOp9
 70
     0
102
RTVSPropertyOp10
 70
     0
102
RTVSPropertyOp11
 70
     0
102
RTVSPropertyOp12
 70
     0
102
RTVSPropertyOp13
 70
     0
102
RTVSPropertyOp14
 70
     2
102
RTVSPropertyOp15
 70
     0
102
RTVSPropertyOp16
 70
     0
102
RTVSPropertyOp17
 70
     0
102
RTVSPropertyOp18
 70
     0
102
RTVSPropertyOp19
 70
     0
102
RTVSPropertyOp20
 70
     0
102
RTVSPropertyOp21
 70
     0
102
RTVSPropertyOp22
 70
     0
102
RTVSPropertyOp23
 70
     0
102
RTVSPropertyOp24
 70
     0
102
RTVSPropertyOp25
 70
     0
102
RTVSPropertyOp26
 70
     0
102
RTVSPropertyOp27
 70
     0
102
RTVSPropertyOp28
 70
     1
102
RTVSPropertyOp29
 70
     1
102
RTVSPropertyOp30
 70
     1
102
RTVSPropertyOp31
 70
     1
102
RTVSPropertyOp32
 70
     1
102
RTVSPropertyOp33
 70
     1
102
RTVSPropertyOp34
 70
     1
102
RTVSPropertyOp35
 70
     1
102
RTVSPropertyOp36
 70
     1
102
RTVSPropertyOp37
 70
     0
102
RTVSPropertyOp38
 70
     0
102
RTVSPropertyOp39
 70
     0
102
RTVSPropertyOp40
 70
     0
102
RTVSPropertyOp41
 70
     0
102
RTVSPropertyOp42
 70
     0
102
RTVSPropertyOp43
 70
     0
102
RTVSPropertyOp44
 70
     0
102
RTVSPropertyOp45
 70
     1
102
RTVSPropertyOp46
 70
     0
102
RTVSPropertyOp47
 70
     0
102
RTVSPropertyOp48
 70
     0
102
RTVSPropertyOp49
 70
     1
102
RTVSPropertyOp50
 70
     0
102
RTVSPropertyOp51
 70
     0
102
RTVSPropertyOp52
 70
     0
102
RTVSPropertyOp53
 70
     0
102
RTVSPropertyOp54
 70
     0
102
RTVSPropertyOp55
 70
     1
102
RTVSPropertyOp56
 70
     0
102
RTVSPropertyOp57
 70
     0
102
RTVSPropertyOp58
 70
     0
102
RTVSPropertyOp59
 70
     0
102
RTVSPropertyOp60
 70
     0
102
RTVSPropertyOp61
 70
     0
102
RTVSPropertyOp62
 70
     0
  0
XRECORD
  5
13D3B
102
{ACAD_REACTORS
330
13D3A
102
}
330
13D3A
100
AcDbXrecord
280
     1
102
RTVSPost2010Prop28
280
     0
102
RTVSPost2010PropOp28
 70
     1
102
RTVSPost2010Prop29
280
     1
102
RTVSPost2010PropOp29
 70
     1
102
RTVSPost2010Prop30
280
     1
102
RTVSPost2010PropOp30
 70
     1
102
RTVSPost2010Prop31
280
     0
102
RTVSPost2010PropOp31
 70
     1
102
RTVSPost2010Prop32
280
     0
102
RTVSPost2010PropOp32
 70
     1
102
RTVSPost2010Prop33
280
     0
102
RTVSPost2010PropOp33
 70
     1
102
RTVSPost2010Prop34
280
     0
102
RTVSPost2010PropOp34
 70
     1
102
RTVSPost2010Prop35
280
     0
102
RTVSPost2010PropOp35
 70
     1
102
RTVSPost2010Prop36
280
     0
102
RTVSPost2010PropOp36
 70
     1
102
RTVSPost2010Prop37
 90
       50
102
RTVSPost2010PropOp37
 70
     1
102
RTVSPost2010Prop38
140
0.0
102
RTVSPost2010PropOp38
 70
     1
102
RTVSPost2010Prop39
140
1.0
102
RTVSPost2010PropOp39
 70
     1
102
RTVSPost2010Prop40
 90
        0
102
RTVSPost2010PropOp40
 70
     1
102
RTVSPost2010Prop41ColorIndex
 90
       18
102
RTVSPost2010Prop41ColorRGB
 90
        0
102
RTVSPost2010PropOp41
 70
     1
102
RTVSPost2010Prop42
 90
       50
102
RTVSPost2010PropOp42
 70
     1
102
RTVSPost2010Prop43
 90
        3
102
RTVSPost2010PropOp43
 70
     1
102
RTVSPost2010Prop44ColorIndex
 90
        5
102
RTVSPost2010Prop44ColorRGB
 90
      255
102
RTVSPost2010PropOp44
 70
     1
102
RTVSPost2010Prop45
280
     0
102
RTVSPost2010PropOp45
 70
     1
102
RTVSPost2010Prop46
 90
       50
102
RTVSPost2010PropOp46
 70
     1
102
RTVSPost2010Prop47
 90
       50
102
RTVSPost2010PropOp47
 70
     1
102
RTVSPost2010Prop48
 90
       50
102
RTVSPost2010PropOp48
 70
     1
102
RTVSPost2010Prop49
280
     0
102
RTVSPost2010PropOp49
 70
     1
102
RTVSPost2010Prop50
 90
       50
102
RTVSPost2010PropOp50
 70
     1
102
RTVSPost2010Prop51ColorIndex
 90
      256
102
RTVSPost2010Prop51ColorRGB
 90
-16777216
102
RTVSPost2010PropOp51
 70
     0
102
RTVSPost2010Prop52
140
1.0
102
RTVSPost2010PropOp52
 70
     0
102
RTVSPost2010Prop53
 90
        2
102
RTVSPost2010PropOp53
 70
     1
102
RTVSPost2010Prop54
  1
strokes_ogs.tif
102
RTVSPost2010PropOp54
 70
     1
102
RTVSPost2010Prop55
280
     0
102
RTVSPost2010PropOp55
 70
     1
102
RTVSPost2010Prop56
140
1.0
102
RTVSPost2010PropOp56
 70
     1
102
RTVSPost2010Prop57
140
1.0
102
RTVSPost2010PropOp57
 70
     1
102
RTVSPropertyOp0
 70
     1
102
RTVSPropertyOp1
 70
     1
102
RTVSPropertyOp2
 70
     1
102
RTVSPropertyOp3
 70
     1
102
RTVSPropertyOp4
 70
     1
102
RTVSPropertyOp5
 70
     1
102
RTVSPropertyOp6
 70
     1
102
RTVSPropertyOp7
 70
     1
102
RTVSPropertyOp8
 70
     1
102
RTVSPropertyOp9
 70
     1
102
RTVSPropertyOp10
 70
     1
102
RTVSPropertyOp11
 70
     1
102
RTVSPropertyOp12
 70
     1
102
RTVSPropertyOp13
 70
     1
102
RTVSPropertyOp14
 70
     1
102
RTVSPropertyOp15
 70
     1
102
RTVSPropertyOp16
 70
     1
102
RTVSPropertyOp17
 70
     1
102
RTVSPropertyOp18
 70
     1
102
RTVSPropertyOp19
 70
     1
102
RTVSPropertyOp20
 70
     1
102
RTVSPropertyOp21
 70
     1
102
RTVSPropertyOp22
 70
     1
102
RTVSPropertyOp23
 70
     1
102
RTVSPropertyOp24
 70
     1
102
RTVSPropertyOp25
 70
     1
102
RTVSPropertyOp26
 70
     1
102
RTVSPropertyOp27
 70
     1
102
RTVSPropertyOp28
 70
     1
102
RTVSPropertyOp29
 70
     1
102
RTVSPropertyOp30
 70
     1
102
RTVSPropertyOp31
 70
     1
102
RTVSPropertyOp32
 70
     1
102
RTVSPropertyOp33
 70
     1
102
RTVSPropertyOp34
 70
     1
102
RTVSPropertyOp35
 70
     1
102
RTVSPropertyOp36
 70
     1
102
RTVSPropertyOp37
 70
     1
102
RTVSPropertyOp38
 70
     1
102
RTVSPropertyOp39
 70
     1
102
RTVSPropertyOp40
 70
     1
102
RTVSPropertyOp41
 70
     1
102
RTVSPropertyOp42
 70
     1
102
RTVSPropertyOp43
 70
     1
102
RTVSPropertyOp44
 70
     1
102
RTVSPropertyOp45
 70
     1
102
RTVSPropertyOp46
 70
     1
102
RTVSPropertyOp47
 70
     1
102
RTVSPropertyOp48
 70
     1
102
RTVSPropertyOp49
 70
     1
102
RTVSPropertyOp50
 70
     1
102
RTVSPropertyOp51
 70
     0
102
RTVSPropertyOp52
 70
     0
102
RTVSPropertyOp53
 70
     1
102
RTVSPropertyOp54
 70
     1
102
RTVSPropertyOp55
 70
     1
102
RTVSPropertyOp56
 70
     1
102
RTVSPropertyOp57
 70
     1
102
RTVSPropertyOp58
 70
     1
102
RTVSPropertyOp59
 70
     1
102
RTVSPropertyOp60
 70
     1
102
RTVSPropertyOp61
 70
     1
102
RTVSPropertyOp62
 70
     1
  0
XRECORD
  5
13D1F
102
{ACAD_REACTORS
330
13D1E
102
}
330
13D1E
100
AcDbXrecord
280
     1
102
RTVSPost2010Prop28
280
     0
102
RTVSPost2010PropOp28
 70
     1
102
RTVSPost2010Prop29
280
     1
102
RTVSPost2010PropOp29
 70
     1
102
RTVSPost2010Prop30
280
     1
102
RTVSPost2010PropOp30
 70
     1
102
RTVSPost2010Prop31
280
     0
102
RTVSPost2010PropOp31
 70
     1
102
RTVSPost2010Prop32
280
     0
102
RTVSPost2010PropOp32
 70
     1
102
RTVSPost2010Prop33
280
     0
102
RTVSPost2010PropOp33
 70
     1
102
RTVSPost2010Prop34
280
     0
102
RTVSPost2010PropOp34
 70
     1
102
RTVSPost2010Prop35
280
     0
102
RTVSPost2010PropOp35
 70
     1
102
RTVSPost2010Prop36
280
     0
102
RTVSPost2010PropOp36
 70
     1
102
RTVSPost2010Prop37
 90
       50
102
RTVSPost2010PropOp37
 70
     1
102
RTVSPost2010Prop38
140
0.0
102
RTVSPost2010PropOp38
 70
     1
102
RTVSPost2010Prop39
140
1.0
102
RTVSPost2010PropOp39
 70
     1
102
RTVSPost2010Prop40
 90
        0
102
RTVSPost2010PropOp40
 70
     1
102
RTVSPost2010Prop41ColorIndex
 90
       18
102
RTVSPost2010Prop41ColorRGB
 90
        0
102
RTVSPost2010PropOp41
 70
     1
102
RTVSPost2010Prop42
 90
       50
102
RTVSPost2010PropOp42
 70
     1
102
RTVSPost2010Prop43
 90
        3
102
RTVSPost2010PropOp43
 70
     1
102
RTVSPost2010Prop44ColorIndex
 90
        5
102
RTVSPost2010Prop44ColorRGB
 90
      255
102
RTVSPost2010PropOp44
 70
     1
102
RTVSPost2010Prop45
280
     0
102
RTVSPost2010PropOp45
 70
     1
102
RTVSPost2010Prop46
 90
       50
102
RTVSPost2010PropOp46
 70
     1
102
RTVSPost2010Prop47
 90
       50
102
RTVSPost2010PropOp47
 70
     1
102
RTVSPost2010Prop48
 90
       50
102
RTVSPost2010PropOp48
 70
     1
102
RTVSPost2010Prop49
280
     0
102
RTVSPost2010PropOp49
 70
     1
102
RTVSPost2010Prop50
 90
       50
102
RTVSPost2010PropOp50
 70
     1
102
RTVSPost2010Prop51ColorIndex
 90
      256
102
RTVSPost2010Prop51ColorRGB
 90
-16777216
102
RTVSPost2010PropOp51
 70
     0
102
RTVSPost2010Prop52
140
1.0
102
RTVSPost2010PropOp52
 70
     0
102
RTVSPost2010Prop53
 90
        2
102
RTVSPost2010PropOp53
 70
     1
102
RTVSPost2010Prop54
  1
strokes_ogs.tif
102
RTVSPost2010PropOp54
 70
     1
102
RTVSPost2010Prop55
280
     0
102
RTVSPost2010PropOp55
 70
     1
102
RTVSPost2010Prop56
140
1.0
102
RTVSPost2010PropOp56
 70
     1
102
RTVSPost2010Prop57
140
1.0
102
RTVSPost2010PropOp57
 70
     1
102
RTVSPropertyOp0
 70
     1
102
RTVSPropertyOp1
 70
     1
102
RTVSPropertyOp2
 70
     1
102
RTVSPropertyOp3
 70
     1
102
RTVSPropertyOp4
 70
     1
102
RTVSPropertyOp5
 70
     1
102
RTVSPropertyOp6
 70
     1
102
RTVSPropertyOp7
 70
     1
102
RTVSPropertyOp8
 70
     1
102
RTVSPropertyOp9
 70
     1
102
RTVSPropertyOp10
 70
     1
102
RTVSPropertyOp11
 70
     1
102
RTVSPropertyOp12
 70
     1
102
RTVSPropertyOp13
 70
     1
102
RTVSPropertyOp14
 70
     1
102
RTVSPropertyOp15
 70
     1
102
RTVSPropertyOp16
 70
     1
102
RTVSPropertyOp17
 70
     1
102
RTVSPropertyOp18
 70
     1
102
RTVSPropertyOp19
 70
     1
102
RTVSPropertyOp20
 70
     1
102
RTVSPropertyOp21
 70
     1
102
RTVSPropertyOp22
 70
     1
102
RTVSPropertyOp23
 70
     1
102
RTVSPropertyOp24
 70
     1
102
RTVSPropertyOp25
 70
     1
102
RTVSPropertyOp26
 70
     1
102
RTVSPropertyOp27
 70
     1
102
RTVSPropertyOp28
 70
     1
102
RTVSPropertyOp29
 70
     1
102
RTVSPropertyOp30
 70
     1
102
RTVSPropertyOp31
 70
     1
102
RTVSPropertyOp32
 70
     1
102
RTVSPropertyOp33
 70
     1
102
RTVSPropertyOp34
 70
     1
102
RTVSPropertyOp35
 70
     1
102
RTVSPropertyOp36
 70
     1
102
RTVSPropertyOp37
 70
     1
102
RTVSPropertyOp38
 70
     1
102
RTVSPropertyOp39
 70
     1
102
RTVSPropertyOp40
 70
     1
102
RTVSPropertyOp41
 70
     1
102
RTVSPropertyOp42
 70
     1
102
RTVSPropertyOp43
 70
     1
102
RTVSPropertyOp44
 70
     1
102
RTVSPropertyOp45
 70
     1
102
RTVSPropertyOp46
 70
     1
102
RTVSPropertyOp47
 70
     1
102
RTVSPropertyOp48
 70
     1
102
RTVSPropertyOp49
 70
     1
102
RTVSPropertyOp50
 70
     1
102
RTVSPropertyOp51
 70
     0
102
RTVSPropertyOp52
 70
     0
102
RTVSPropertyOp53
 70
     1
102
RTVSPropertyOp54
 70
     1
102
RTVSPropertyOp55
 70
     1
102
RTVSPropertyOp56
 70
     1
102
RTVSPropertyOp57
 70
     1
102
RTVSPropertyOp58
 70
     1
102
RTVSPropertyOp59
 70
     1
102
RTVSPropertyOp60
 70
     1
102
RTVSPropertyOp61
 70
     1
102
RTVSPropertyOp62
 70
     1
  0
XRECORD
  5
13D21
102
{ACAD_REACTORS
330
13D20
102
}
330
13D20
100
AcDbXrecord
280
     1
102
RTVSPost2010Prop28
280
     0
102
RTVSPost2010PropOp28
 70
     1
102
RTVSPost2010Prop29
280
     1
102
RTVSPost2010PropOp29
 70
     1
102
RTVSPost2010Prop30
280
     1
102
RTVSPost2010PropOp30
 70
     1
102
RTVSPost2010Prop31
280
     0
102
RTVSPost2010PropOp31
 70
     1
102
RTVSPost2010Prop32
280
     0
102
RTVSPost2010PropOp32
 70
     1
102
RTVSPost2010Prop33
280
     0
102
RTVSPost2010PropOp33
 70
     1
102
RTVSPost2010Prop34
280
     0
102
RTVSPost2010PropOp34
 70
     1
102
RTVSPost2010Prop35
280
     0
102
RTVSPost2010PropOp35
 70
     1
102
RTVSPost2010Prop36
280
     0
102
RTVSPost2010PropOp36
 70
     1
102
RTVSPost2010Prop37
 90
       50
102
RTVSPost2010PropOp37
 70
     1
102
RTVSPost2010Prop38
140
0.0
102
RTVSPost2010PropOp38
 70
     1
102
RTVSPost2010Prop39
140
1.0
102
RTVSPost2010PropOp39
 70
     1
102
RTVSPost2010Prop40
 90
        0
102
RTVSPost2010PropOp40
 70
     1
102
RTVSPost2010Prop41ColorIndex
 90
       18
102
RTVSPost2010Prop41ColorRGB
 90
        0
102
RTVSPost2010PropOp41
 70
     1
102
RTVSPost2010Prop42
 90
       50
102
RTVSPost2010PropOp42
 70
     1
102
RTVSPost2010Prop43
 90
        3
102
RTVSPost2010PropOp43
 70
     1
102
RTVSPost2010Prop44ColorIndex
 90
        5
102
RTVSPost2010Prop44ColorRGB
 90
      255
102
RTVSPost2010PropOp44
 70
     1
102
RTVSPost2010Prop45
280
     0
102
RTVSPost2010PropOp45
 70
     1
102
RTVSPost2010Prop46
 90
       50
102
RTVSPost2010PropOp46
 70
     1
102
RTVSPost2010Prop47
 90
       50
102
RTVSPost2010PropOp47
 70
     1
102
RTVSPost2010Prop48
 90
       50
102
RTVSPost2010PropOp48
 70
     1
102
RTVSPost2010Prop49
280
     0
102
RTVSPost2010PropOp49
 70
     1
102
RTVSPost2010Prop50
 90
       50
102
RTVSPost2010PropOp50
 70
     1
102
RTVSPost2010Prop51ColorIndex
 90
      256
102
RTVSPost2010Prop51ColorRGB
 90
-16777216
102
RTVSPost2010PropOp51
 70
     0
102
RTVSPost2010Prop52
140
1.0
102
RTVSPost2010PropOp52
 70
     0
102
RTVSPost2010Prop53
 90
        2
102
RTVSPost2010PropOp53
 70
     1
102
RTVSPost2010Prop54
  1
strokes_ogs.tif
102
RTVSPost2010PropOp54
 70
     1
102
RTVSPost2010Prop55
280
     0
102
RTVSPost2010PropOp55
 70
     1
102
RTVSPost2010Prop56
140
1.0
102
RTVSPost2010PropOp56
 70
     1
102
RTVSPost2010Prop57
140
1.0
102
RTVSPost2010PropOp57
 70
     1
102
RTVSPropertyOp0
 70
     1
102
RTVSPropertyOp1
 70
     1
102
RTVSPropertyOp2
 70
     1
102
RTVSPropertyOp3
 70
     1
102
RTVSPropertyOp4
 70
     1
102
RTVSPropertyOp5
 70
     1
102
RTVSPropertyOp6
 70
     1
102
RTVSPropertyOp7
 70
     1
102
RTVSPropertyOp8
 70
     1
102
RTVSPropertyOp9
 70
     1
102
RTVSPropertyOp10
 70
     1
102
RTVSPropertyOp11
 70
     1
102
RTVSPropertyOp12
 70
     1
102
RTVSPropertyOp13
 70
     1
102
RTVSPropertyOp14
 70
     1
102
RTVSPropertyOp15
 70
     1
102
RTVSPropertyOp16
 70
     1
102
RTVSPropertyOp17
 70
     1
102
RTVSPropertyOp18
 70
     1
102
RTVSPropertyOp19
 70
     1
102
RTVSPropertyOp20
 70
     1
102
RTVSPropertyOp21
 70
     1
102
RTVSPropertyOp22
 70
     1
102
RTVSPropertyOp23
 70
     1
102
RTVSPropertyOp24
 70
     1
102
RTVSPropertyOp25
 70
     1
102
RTVSPropertyOp26
 70
     1
102
RTVSPropertyOp27
 70
     1
102
RTVSPropertyOp28
 70
     1
102
RTVSPropertyOp29
 70
     1
102
RTVSPropertyOp30
 70
     1
102
RTVSPropertyOp31
 70
     1
102
RTVSPropertyOp32
 70
     1
102
RTVSPropertyOp33
 70
     1
102
RTVSPropertyOp34
 70
     1
102
RTVSPropertyOp35
 70
     1
102
RTVSPropertyOp36
 70
     1
102
RTVSPropertyOp37
 70
     1
102
RTVSPropertyOp38
 70
     1
102
RTVSPropertyOp39
 70
     1
102
RTVSPropertyOp40
 70
     1
102
RTVSPropertyOp41
 70
     1
102
RTVSPropertyOp42
 70
     1
102
RTVSPropertyOp43
 70
     1
102
RTVSPropertyOp44
 70
     1
102
RTVSPropertyOp45
 70
     1
102
RTVSPropertyOp46
 70
     1
102
RTVSPropertyOp47
 70
     1
102
RTVSPropertyOp48
 70
     1
102
RTVSPropertyOp49
 70
     1
102
RTVSPropertyOp50
 70
     1
102
RTVSPropertyOp51
 70
     0
102
RTVSPropertyOp52
 70
     0
102
RTVSPropertyOp53
 70
     1
102
RTVSPropertyOp54
 70
     1
102
RTVSPropertyOp55
 70
     1
102
RTVSPropertyOp56
 70
     1
102
RTVSPropertyOp57
 70
     1
102
RTVSPropertyOp58
 70
     1
102
RTVSPropertyOp59
 70
     1
102
RTVSPropertyOp60
 70
     1
102
RTVSPropertyOp61
 70
     1
102
RTVSPropertyOp62
 70
     1
  0
XRECORD
  5
13D23
102
{ACAD_REACTORS
330
13D22
102
}
330
13D22
100
AcDbXrecord
280
     1
102
RTVSPost2010Prop28
280
     0
102
RTVSPost2010PropOp28
 70
     1
102
RTVSPost2010Prop29
280
     1
102
RTVSPost2010PropOp29
 70
     1
102
RTVSPost2010Prop30
280
     1
102
RTVSPost2010PropOp30
 70
     1
102
RTVSPost2010Prop31
280
     0
102
RTVSPost2010PropOp31
 70
     1
102
RTVSPost2010Prop32
280
     0
102
RTVSPost2010PropOp32
 70
     1
102
RTVSPost2010Prop33
280
     0
102
RTVSPost2010PropOp33
 70
     1
102
RTVSPost2010Prop34
280
     0
102
RTVSPost2010PropOp34
 70
     1
102
RTVSPost2010Prop35
280
     0
102
RTVSPost2010PropOp35
 70
     1
102
RTVSPost2010Prop36
280
     0
102
RTVSPost2010PropOp36
 70
     1
102
RTVSPost2010Prop37
 90
       50
102
RTVSPost2010PropOp37
 70
     1
102
RTVSPost2010Prop38
140
0.0
102
RTVSPost2010PropOp38
 70
     1
102
RTVSPost2010Prop39
140
1.0
102
RTVSPost2010PropOp39
 70
     1
102
RTVSPost2010Prop40
 90
        0
102
RTVSPost2010PropOp40
 70
     1
102
RTVSPost2010Prop41ColorIndex
 90
       18
102
RTVSPost2010Prop41ColorRGB
 90
        0
102
RTVSPost2010PropOp41
 70
     1
102
RTVSPost2010Prop42
 90
       50
102
RTVSPost2010PropOp42
 70
     1
102
RTVSPost2010Prop43
 90
        3
102
RTVSPost2010PropOp43
 70
     1
102
RTVSPost2010Prop44ColorIndex
 90
        5
102
RTVSPost2010Prop44ColorRGB
 90
      255
102
RTVSPost2010PropOp44
 70
     1
102
RTVSPost2010Prop45
280
     0
102
RTVSPost2010PropOp45
 70
     1
102
RTVSPost2010Prop46
 90
       50
102
RTVSPost2010PropOp46
 70
     1
102
RTVSPost2010Prop47
 90
       50
102
RTVSPost2010PropOp47
 70
     1
102
RTVSPost2010Prop48
 90
       50
102
RTVSPost2010PropOp48
 70
     1
102
RTVSPost2010Prop49
280
     0
102
RTVSPost2010PropOp49
 70
     1
102
RTVSPost2010Prop50
 90
       50
102
RTVSPost2010PropOp50
 70
     1
102
RTVSPost2010Prop51ColorIndex
 90
      256
102
RTVSPost2010Prop51ColorRGB
 90
-16777216
102
RTVSPost2010PropOp51
 70
     0
102
RTVSPost2010Prop52
140
1.0
102
RTVSPost2010PropOp52
 70
     0
102
RTVSPost2010Prop53
 90
        2
102
RTVSPost2010PropOp53
 70
     1
102
RTVSPost2010Prop54
  1
strokes_ogs.tif
102
RTVSPost2010PropOp54
 70
     1
102
RTVSPost2010Prop55
280
     0
102
RTVSPost2010PropOp55
 70
     1
102
RTVSPost2010Prop56
140
1.0
102
RTVSPost2010PropOp56
 70
     1
102
RTVSPost2010Prop57
140
1.0
102
RTVSPost2010PropOp57
 70
     1
102
RTVSPropertyOp0
 70
     1
102
RTVSPropertyOp1
 70
     1
102
RTVSPropertyOp2
 70
     1
102
RTVSPropertyOp3
 70
     1
102
RTVSPropertyOp4
 70
     1
102
RTVSPropertyOp5
 70
     1
102
RTVSPropertyOp6
 70
     1
102
RTVSPropertyOp7
 70
     1
102
RTVSPropertyOp8
 70
     1
102
RTVSPropertyOp9
 70
     1
102
RTVSPropertyOp10
 70
     1
102
RTVSPropertyOp11
 70
     1
102
RTVSPropertyOp12
 70
     1
102
RTVSPropertyOp13
 70
     1
102
RTVSPropertyOp14
 70
     1
102
RTVSPropertyOp15
 70
     1
102
RTVSPropertyOp16
 70
     1
102
RTVSPropertyOp17
 70
     1
102
RTVSPropertyOp18
 70
     1
102
RTVSPropertyOp19
 70
     1
102
RTVSPropertyOp20
 70
     1
102
RTVSPropertyOp21
 70
     1
102
RTVSPropertyOp22
 70
     1
102
RTVSPropertyOp23
 70
     1
102
RTVSPropertyOp24
 70
     1
102
RTVSPropertyOp25
 70
     1
102
RTVSPropertyOp26
 70
     1
102
RTVSPropertyOp27
 70
     1
102
RTVSPropertyOp28
 70
     1
102
RTVSPropertyOp29
 70
     1
102
RTVSPropertyOp30
 70
     1
102
RTVSPropertyOp31
 70
     1
102
RTVSPropertyOp32
 70
     1
102
RTVSPropertyOp33
 70
     1
102
RTVSPropertyOp34
 70
     1
102
RTVSPropertyOp35
 70
     1
102
RTVSPropertyOp36
 70
     1
102
RTVSPropertyOp37
 70
     1
102
RTVSPropertyOp38
 70
     1
102
RTVSPropertyOp39
 70
     1
102
RTVSPropertyOp40
 70
     1
102
RTVSPropertyOp41
 70
     1
102
RTVSPropertyOp42
 70
     1
102
RTVSPropertyOp43
 70
     1
102
RTVSPropertyOp44
 70
     1
102
RTVSPropertyOp45
 70
     1
102
RTVSPropertyOp46
 70
     1
102
RTVSPropertyOp47
 70
     1
102
RTVSPropertyOp48
 70
     1
102
RTVSPropertyOp49
 70
     1
102
RTVSPropertyOp50
 70
     1
102
RTVSPropertyOp51
 70
     0
102
RTVSPropertyOp52
 70
     0
102
RTVSPropertyOp53
 70
     1
102
RTVSPropertyOp54
 70
     1
102
RTVSPropertyOp55
 70
     1
102
RTVSPropertyOp56
 70
     1
102
RTVSPropertyOp57
 70
     1
102
RTVSPropertyOp58
 70
     1
102
RTVSPropertyOp59
 70
     1
102
RTVSPropertyOp60
 70
     1
102
RTVSPropertyOp61
 70
     1
102
RTVSPropertyOp62
 70
     1
  0
XRECORD
  5
13D25
102
{ACAD_REACTORS
330
13D24
102
}
330
13D24
100
AcDbXrecord
280
     1
102
RTVSPost2010Prop28
280
     0
102
RTVSPost2010PropOp28
 70
     1
102
RTVSPost2010Prop29
280
     1
102
RTVSPost2010PropOp29
 70
     1
102
RTVSPost2010Prop30
280
     1
102
RTVSPost2010PropOp30
 70
     1
102
RTVSPost2010Prop31
280
     0
102
RTVSPost2010PropOp31
 70
     1
102
RTVSPost2010Prop32
280
     0
102
RTVSPost2010PropOp32
 70
     1
102
RTVSPost2010Prop33
280
     0
102
RTVSPost2010PropOp33
 70
     1
102
RTVSPost2010Prop34
280
     0
102
RTVSPost2010PropOp34
 70
     1
102
RTVSPost2010Prop35
280
     0
102
RTVSPost2010PropOp35
 70
     1
102
RTVSPost2010Prop36
280
     0
102
RTVSPost2010PropOp36
 70
     1
102
RTVSPost2010Prop37
 90
       50
102
RTVSPost2010PropOp37
 70
     1
102
RTVSPost2010Prop38
140
0.0
102
RTVSPost2010PropOp38
 70
     1
102
RTVSPost2010Prop39
140
1.0
102
RTVSPost2010PropOp39
 70
     1
102
RTVSPost2010Prop40
 90
        0
102
RTVSPost2010PropOp40
 70
     1
102
RTVSPost2010Prop41ColorIndex
 90
       18
102
RTVSPost2010Prop41ColorRGB
 90
        0
102
RTVSPost2010PropOp41
 70
     1
102
RTVSPost2010Prop42
 90
       50
102
RTVSPost2010PropOp42
 70
     1
102
RTVSPost2010Prop43
 90
        3
102
RTVSPost2010PropOp43
 70
     1
102
RTVSPost2010Prop44ColorIndex
 90
        5
102
RTVSPost2010Prop44ColorRGB
 90
      255
102
RTVSPost2010PropOp44
 70
     1
102
RTVSPost2010Prop45
280
     0
102
RTVSPost2010PropOp45
 70
     1
102
RTVSPost2010Prop46
 90
       50
102
RTVSPost2010PropOp46
 70
     1
102
RTVSPost2010Prop47
 90
       50
102
RTVSPost2010PropOp47
 70
     1
102
RTVSPost2010Prop48
 90
       50
102
RTVSPost2010PropOp48
 70
     1
102
RTVSPost2010Prop49
280
     0
102
RTVSPost2010PropOp49
 70
     1
102
RTVSPost2010Prop50
 90
       50
102
RTVSPost2010PropOp50
 70
     1
102
RTVSPost2010Prop51ColorIndex
 90
      256
102
RTVSPost2010Prop51ColorRGB
 90
-16777216
102
RTVSPost2010PropOp51
 70
     0
102
RTVSPost2010Prop52
140
1.0
102
RTVSPost2010PropOp52
 70
     0
102
RTVSPost2010Prop53
 90
        2
102
RTVSPost2010PropOp53
 70
     1
102
RTVSPost2010Prop54
  1
strokes_ogs.tif
102
RTVSPost2010PropOp54
 70
     1
102
RTVSPost2010Prop55
280
     0
102
RTVSPost2010PropOp55
 70
     1
102
RTVSPost2010Prop56
140
1.0
102
RTVSPost2010PropOp56
 70
     1
102
RTVSPost2010Prop57
140
1.0
102
RTVSPost2010PropOp57
 70
     1
102
RTVSPropertyOp0
 70
     1
102
RTVSPropertyOp1
 70
     1
102
RTVSPropertyOp2
 70
     1
102
RTVSPropertyOp3
 70
     1
102
RTVSPropertyOp4
 70
     1
102
RTVSPropertyOp5
 70
     1
102
RTVSPropertyOp6
 70
     1
102
RTVSPropertyOp7
 70
     1
102
RTVSPropertyOp8
 70
     1
102
RTVSPropertyOp9
 70
     1
102
RTVSPropertyOp10
 70
     1
102
RTVSPropertyOp11
 70
     1
102
RTVSPropertyOp12
 70
     1
102
RTVSPropertyOp13
 70
     1
102
RTVSPropertyOp14
 70
     1
102
RTVSPropertyOp15
 70
     1
102
RTVSPropertyOp16
 70
     1
102
RTVSPropertyOp17
 70
     1
102
RTVSPropertyOp18
 70
     1
102
RTVSPropertyOp19
 70
     1
102
RTVSPropertyOp20
 70
     1
102
RTVSPropertyOp21
 70
     1
102
RTVSPropertyOp22
 70
     1
102
RTVSPropertyOp23
 70
     1
102
RTVSPropertyOp24
 70
     1
102
RTVSPropertyOp25
 70
     1
102
RTVSPropertyOp26
 70
     1
102
RTVSPropertyOp27
 70
     1
102
RTVSPropertyOp28
 70
     1
102
RTVSPropertyOp29
 70
     1
102
RTVSPropertyOp30
 70
     1
102
RTVSPropertyOp31
 70
     1
102
RTVSPropertyOp32
 70
     1
102
RTVSPropertyOp33
 70
     1
102
RTVSPropertyOp34
 70
     1
102
RTVSPropertyOp35
 70
     1
102
RTVSPropertyOp36
 70
     1
102
RTVSPropertyOp37
 70
     1
102
RTVSPropertyOp38
 70
     1
102
RTVSPropertyOp39
 70
     1
102
RTVSPropertyOp40
 70
     1
102
RTVSPropertyOp41
 70
     1
102
RTVSPropertyOp42
 70
     1
102
RTVSPropertyOp43
 70
     1
102
RTVSPropertyOp44
 70
     1
102
RTVSPropertyOp45
 70
     1
102
RTVSPropertyOp46
 70
     1
102
RTVSPropertyOp47
 70
     1
102
RTVSPropertyOp48
 70
     1
102
RTVSPropertyOp49
 70
     1
102
RTVSPropertyOp50
 70
     1
102
RTVSPropertyOp51
 70
     0
102
RTVSPropertyOp52
 70
     0
102
RTVSPropertyOp53
 70
     1
102
RTVSPropertyOp54
 70
     1
102
RTVSPropertyOp55
 70
     1
102
RTVSPropertyOp56
 70
     1
102
RTVSPropertyOp57
 70
     1
102
RTVSPropertyOp58
 70
     1
102
RTVSPropertyOp59
 70
     1
102
RTVSPropertyOp60
 70
     1
102
RTVSPropertyOp61
 70
     1
102
RTVSPropertyOp62
 70
     1
  0
XRECORD
  5
13D2D
102
{ACAD_REACTORS
330
13D2C
102
}
330
13D2C
100
AcDbXrecord
280
     1
102
RTVSPost2010Prop28
280
     0
102
RTVSPost2010PropOp28
 70
     1
102
RTVSPost2010Prop29
280
     1
102
RTVSPost2010PropOp29
 70
     1
102
RTVSPost2010Prop30
280
     1
102
RTVSPost2010PropOp30
 70
     1
102
RTVSPost2010Prop31
280
     0
102
RTVSPost2010PropOp31
 70
     1
102
RTVSPost2010Prop32
280
     0
102
RTVSPost2010PropOp32
 70
     1
102
RTVSPost2010Prop33
280
     0
102
RTVSPost2010PropOp33
 70
     1
102
RTVSPost2010Prop34
280
     0
102
RTVSPost2010PropOp34
 70
     1
102
RTVSPost2010Prop35
280
     0
102
RTVSPost2010PropOp35
 70
     1
102
RTVSPost2010Prop36
280
     0
102
RTVSPost2010PropOp36
 70
     1
102
RTVSPost2010Prop37
 90
       50
102
RTVSPost2010PropOp37
 70
     1
102
RTVSPost2010Prop38
140
0.0
102
RTVSPost2010PropOp38
 70
     1
102
RTVSPost2010Prop39
140
1.0
102
RTVSPost2010PropOp39
 70
     1
102
RTVSPost2010Prop40
 90
        0
102
RTVSPost2010PropOp40
 70
     1
102
RTVSPost2010Prop41ColorIndex
 90
       18
102
RTVSPost2010Prop41ColorRGB
 90
        0
102
RTVSPost2010PropOp41
 70
     1
102
RTVSPost2010Prop42
 90
       50
102
RTVSPost2010PropOp42
 70
     1
102
RTVSPost2010Prop43
 90
        3
102
RTVSPost2010PropOp43
 70
     1
102
RTVSPost2010Prop44ColorIndex
 90
        5
102
RTVSPost2010Prop44ColorRGB
 90
      255
102
RTVSPost2010PropOp44
 70
     1
102
RTVSPost2010Prop45
280
     0
102
RTVSPost2010PropOp45
 70
     1
102
RTVSPost2010Prop46
 90
       50
102
RTVSPost2010PropOp46
 70
     1
102
RTVSPost2010Prop47
 90
       50
102
RTVSPost2010PropOp47
 70
     1
102
RTVSPost2010Prop48
 90
       50
102
RTVSPost2010PropOp48
 70
     1
102
RTVSPost2010Prop49
280
     0
102
RTVSPost2010PropOp49
 70
     1
102
RTVSPost2010Prop50
 90
       50
102
RTVSPost2010PropOp50
 70
     1
102
RTVSPost2010Prop51ColorIndex
 90
      256
102
RTVSPost2010Prop51ColorRGB
 90
-16777216
102
RTVSPost2010PropOp51
 70
     0
102
RTVSPost2010Prop52
140
1.0
102
RTVSPost2010PropOp52
 70
     0
102
RTVSPost2010Prop53
 90
        2
102
RTVSPost2010PropOp53
 70
     1
102
RTVSPost2010Prop54
  1
strokes_ogs.tif
102
RTVSPost2010PropOp54
 70
     1
102
RTVSPost2010Prop55
280
     0
102
RTVSPost2010PropOp55
 70
     1
102
RTVSPost2010Prop56
140
1.0
102
RTVSPost2010PropOp56
 70
     1
102
RTVSPost2010Prop57
140
1.0
102
RTVSPost2010PropOp57
 70
     1
102
RTVSPropertyOp0
 70
     1
102
RTVSPropertyOp1
 70
     1
102
RTVSPropertyOp2
 70
     1
102
RTVSPropertyOp3
 70
     1
102
RTVSPropertyOp4
 70
     1
102
RTVSPropertyOp5
 70
     1
102
RTVSPropertyOp6
 70
     1
102
RTVSPropertyOp7
 70
     1
102
RTVSPropertyOp8
 70
     1
102
RTVSPropertyOp9
 70
     1
102
RTVSPropertyOp10
 70
     1
102
RTVSPropertyOp11
 70
     1
102
RTVSPropertyOp12
 70
     1
102
RTVSPropertyOp13
 70
     1
102
RTVSPropertyOp14
 70
     1
102
RTVSPropertyOp15
 70
     1
102
RTVSPropertyOp16
 70
     1
102
RTVSPropertyOp17
 70
     1
102
RTVSPropertyOp18
 70
     1
102
RTVSPropertyOp19
 70
     1
102
RTVSPropertyOp20
 70
     1
102
RTVSPropertyOp21
 70
     1
102
RTVSPropertyOp22
 70
     1
102
RTVSPropertyOp23
 70
     1
102
RTVSPropertyOp24
 70
     1
102
RTVSPropertyOp25
 70
     1
102
RTVSPropertyOp26
 70
     1
102
RTVSPropertyOp27
 70
     1
102
RTVSPropertyOp28
 70
     1
102
RTVSPropertyOp29
 70
     1
102
RTVSPropertyOp30
 70
     1
102
RTVSPropertyOp31
 70
     1
102
RTVSPropertyOp32
 70
     1
102
RTVSPropertyOp33
 70
     1
102
RTVSPropertyOp34
 70
     1
102
RTVSPropertyOp35
 70
     1
102
RTVSPropertyOp36
 70
     1
102
RTVSPropertyOp37
 70
     1
102
RTVSPropertyOp38
 70
     1
102
RTVSPropertyOp39
 70
     1
102
RTVSPropertyOp40
 70
     1
102
RTVSPropertyOp41
 70
     1
102
RTVSPropertyOp42
 70
     1
102
RTVSPropertyOp43
 70
     1
102
RTVSPropertyOp44
 70
     1
102
RTVSPropertyOp45
 70
     1
102
RTVSPropertyOp46
 70
     1
102
RTVSPropertyOp47
 70
     1
102
RTVSPropertyOp48
 70
     1
102
RTVSPropertyOp49
 70
     1
102
RTVSPropertyOp50
 70
     1
102
RTVSPropertyOp51
 70
     0
102
RTVSPropertyOp52
 70
     0
102
RTVSPropertyOp53
 70
     1
102
RTVSPropertyOp54
 70
     1
102
RTVSPropertyOp55
 70
     1
102
RTVSPropertyOp56
 70
     1
102
RTVSPropertyOp57
 70
     1
102
RTVSPropertyOp58
 70
     1
102
RTVSPropertyOp59
 70
     1
102
RTVSPropertyOp60
 70
     1
102
RTVSPropertyOp61
 70
     1
102
RTVSPropertyOp62
 70
     1
  0
XRECORD
  5
13D49
102
{ACAD_REACTORS
330
13D48
102
}
330
13D48
100
AcDbXrecord
280
     1
102
RTVSPost2010Prop28
280
     0
102
RTVSPost2010PropOp28
 70
     1
102
RTVSPost2010Prop29
280
     1
102
RTVSPost2010PropOp29
 70
     1
102
RTVSPost2010Prop30
280
     1
102
RTVSPost2010PropOp30
 70
     1
102
RTVSPost2010Prop31
280
     0
102
RTVSPost2010PropOp31
 70
     1
102
RTVSPost2010Prop32
280
     0
102
RTVSPost2010PropOp32
 70
     1
102
RTVSPost2010Prop33
280
     0
102
RTVSPost2010PropOp33
 70
     1
102
RTVSPost2010Prop34
280
     0
102
RTVSPost2010PropOp34
 70
     1
102
RTVSPost2010Prop35
280
     0
102
RTVSPost2010PropOp35
 70
     1
102
RTVSPost2010Prop36
280
     0
102
RTVSPost2010PropOp36
 70
     1
102
RTVSPost2010Prop37
 90
       50
102
RTVSPost2010PropOp37
 70
     0
102
RTVSPost2010Prop38
140
0.0
102
RTVSPost2010PropOp38
 70
     0
102
RTVSPost2010Prop39
140
1.0
102
RTVSPost2010PropOp39
 70
     0
102
RTVSPost2010Prop40
 90
        0
102
RTVSPost2010PropOp40
 70
     0
102
RTVSPost2010Prop41ColorIndex
 90
       18
102
RTVSPost2010Prop41ColorRGB
 90
        0
102
RTVSPost2010PropOp41
 70
     0
102
RTVSPost2010Prop42
 90
       50
102
RTVSPost2010PropOp42
 70
     0
102
RTVSPost2010Prop43
 90
        3
102
RTVSPost2010PropOp43
 70
     0
102
RTVSPost2010Prop44ColorIndex
 90
        5
102
RTVSPost2010Prop44ColorRGB
 90
      255
102
RTVSPost2010PropOp44
 70
     0
102
RTVSPost2010Prop45
280
     0
102
RTVSPost2010PropOp45
 70
     1
102
RTVSPost2010Prop46
 90
       50
102
RTVSPost2010PropOp46
 70
     0
102
RTVSPost2010Prop47
 90
       50
102
RTVSPost2010PropOp47
 70
     0
102
RTVSPost2010Prop48
 90
       50
102
RTVSPost2010PropOp48
 70
     0
102
RTVSPost2010Prop49
280
     0
102
RTVSPost2010PropOp49
 70
     1
102
RTVSPost2010Prop50
 90
       50
102
RTVSPost2010PropOp50
 70
     0
102
RTVSPost2010Prop51ColorIndex
 90
      256
102
RTVSPost2010Prop51ColorRGB
 90
-16777216
102
RTVSPost2010PropOp51
 70
     0
102
RTVSPost2010Prop52
140
1.0
102
RTVSPost2010PropOp52
 70
     0
102
RTVSPost2010Prop53
 90
        2
102
RTVSPost2010PropOp53
 70
     0
102
RTVSPost2010Prop54
  1
strokes_ogs.tif
102
RTVSPost2010PropOp54
 70
     0
102
RTVSPost2010Prop55
280
     0
102
RTVSPost2010PropOp55
 70
     1
102
RTVSPost2010Prop56
140
1.0
102
RTVSPost2010PropOp56
 70
     0
102
RTVSPost2010Prop57
140
1.0
102
RTVSPost2010PropOp57
 70
     0
102
RTVSPropertyOp0
 70
     0
102
RTVSPropertyOp1
 70
     0
102
RTVSPropertyOp2
 70
     0
102
RTVSPropertyOp3
 70
     0
102
RTVSPropertyOp4
 70
     0
102
RTVSPropertyOp5
 70
     0
102
RTVSPropertyOp6
 70
     0
102
RTVSPropertyOp7
 70
     0
102
RTVSPropertyOp8
 70
     0
102
RTVSPropertyOp9
 70
     0
102
RTVSPropertyOp10
 70
     0
102
RTVSPropertyOp11
 70
     0
102
RTVSPropertyOp12
 70
     0
102
RTVSPropertyOp13
 70
     0
102
RTVSPropertyOp14
 70
     2
102
RTVSPropertyOp15
 70
     0
102
RTVSPropertyOp16
 70
     0
102
RTVSPropertyOp17
 70
     0
102
RTVSPropertyOp18
 70
     0
102
RTVSPropertyOp19
 70
     0
102
RTVSPropertyOp20
 70
     0
102
RTVSPropertyOp21
 70
     0
102
RTVSPropertyOp22
 70
     0
102
RTVSPropertyOp23
 70
     0
102
RTVSPropertyOp24
 70
     0
102
RTVSPropertyOp25
 70
     0
102
RTVSPropertyOp26
 70
     0
102
RTVSPropertyOp27
 70
     0
102
RTVSPropertyOp28
 70
     1
102
RTVSPropertyOp29
 70
     1
102
RTVSPropertyOp30
 70
     1
102
RTVSPropertyOp31
 70
     1
102
RTVSPropertyOp32
 70
     1
102
RTVSPropertyOp33
 70
     1
102
RTVSPropertyOp34
 70
     1
102
RTVSPropertyOp35
 70
     1
102
RTVSPropertyOp36
 70
     1
102
RTVSPropertyOp37
 70
     0
102
RTVSPropertyOp38
 70
     0
102
RTVSPropertyOp39
 70
     0
102
RTVSPropertyOp40
 70
     0
102
RTVSPropertyOp41
 70
     0
102
RTVSPropertyOp42
 70
     0
102
RTVSPropertyOp43
 70
     0
102
RTVSPropertyOp44
 70
     0
102
RTVSPropertyOp45
 70
     1
102
RTVSPropertyOp46
 70
     0
102
RTVSPropertyOp47
 70
     0
102
RTVSPropertyOp48
 70
     0
102
RTVSPropertyOp49
 70
     1
102
RTVSPropertyOp50
 70
     0
102
RTVSPropertyOp51
 70
     0
102
RTVSPropertyOp52
 70
     0
102
RTVSPropertyOp53
 70
     0
102
RTVSPropertyOp54
 70
     0
102
RTVSPropertyOp55
 70
     1
102
RTVSPropertyOp56
 70
     0
102
RTVSPropertyOp57
 70
     0
102
RTVSPropertyOp58
 70
     0
102
RTVSPropertyOp59
 70
     0
102
RTVSPropertyOp60
 70
     0
102
RTVSPropertyOp61
 70
     0
102
RTVSPropertyOp62
 70
     0
  0
XRECORD
  5
13D39
102
{ACAD_REACTORS
330
13D38
102
}
330
13D38
100
AcDbXrecord
280
     1
102
RTVSPost2010Prop28
280
     0
102
RTVSPost2010PropOp28
 70
     1
102
RTVSPost2010Prop29
280
     1
102
RTVSPost2010PropOp29
 70
     1
102
RTVSPost2010Prop30
280
     1
102
RTVSPost2010PropOp30
 70
     1
102
RTVSPost2010Prop31
280
     0
102
RTVSPost2010PropOp31
 70
     1
102
RTVSPost2010Prop32
280
     0
102
RTVSPost2010PropOp32
 70
     1
102
RTVSPost2010Prop33
280
     0
102
RTVSPost2010PropOp33
 70
     1
102
RTVSPost2010Prop34
280
     0
102
RTVSPost2010PropOp34
 70
     1
102
RTVSPost2010Prop35
280
     0
102
RTVSPost2010PropOp35
 70
     1
102
RTVSPost2010Prop36
280
     0
102
RTVSPost2010PropOp36
 70
     1
102
RTVSPost2010Prop37
 90
       50
102
RTVSPost2010PropOp37
 70
     1
102
RTVSPost2010Prop38
140
0.0
102
RTVSPost2010PropOp38
 70
     1
102
RTVSPost2010Prop39
140
1.0
102
RTVSPost2010PropOp39
 70
     1
102
RTVSPost2010Prop40
 90
        0
102
RTVSPost2010PropOp40
 70
     1
102
RTVSPost2010Prop41ColorIndex
 90
       18
102
RTVSPost2010Prop41ColorRGB
 90
        0
102
RTVSPost2010PropOp41
 70
     1
102
RTVSPost2010Prop42
 90
       50
102
RTVSPost2010PropOp42
 70
     1
102
RTVSPost2010Prop43
 90
        3
102
RTVSPost2010PropOp43
 70
     1
102
RTVSPost2010Prop44ColorIndex
 90
        5
102
RTVSPost2010Prop44ColorRGB
 90
      255
102
RTVSPost2010PropOp44
 70
     1
102
RTVSPost2010Prop45
280
     0
102
RTVSPost2010PropOp45
 70
     1
102
RTVSPost2010Prop46
 90
       50
102
RTVSPost2010PropOp46
 70
     1
102
RTVSPost2010Prop47
 90
       50
102
RTVSPost2010PropOp47
 70
     1
102
RTVSPost2010Prop48
 90
       50
102
RTVSPost2010PropOp48
 70
     1
102
RTVSPost2010Prop49
280
     0
102
RTVSPost2010PropOp49
 70
     1
102
RTVSPost2010Prop50
 90
       50
102
RTVSPost2010PropOp50
 70
     1
102
RTVSPost2010Prop51ColorIndex
 90
      256
102
RTVSPost2010Prop51ColorRGB
 90
-16777216
102
RTVSPost2010PropOp51
 70
     0
102
RTVSPost2010Prop52
140
1.0
102
RTVSPost2010PropOp52
 70
     0
102
RTVSPost2010Prop53
 90
        2
102
RTVSPost2010PropOp53
 70
     1
102
RTVSPost2010Prop54
  1
strokes_ogs.tif
102
RTVSPost2010PropOp54
 70
     1
102
RTVSPost2010Prop55
280
     0
102
RTVSPost2010PropOp55
 70
     1
102
RTVSPost2010Prop56
140
1.0
102
RTVSPost2010PropOp56
 70
     1
102
RTVSPost2010Prop57
140
1.0
102
RTVSPost2010PropOp57
 70
     1
102
RTVSPropertyOp0
 70
     1
102
RTVSPropertyOp1
 70
     1
102
RTVSPropertyOp2
 70
     1
102
RTVSPropertyOp3
 70
     1
102
RTVSPropertyOp4
 70
     1
102
RTVSPropertyOp5
 70
     1
102
RTVSPropertyOp6
 70
     1
102
RTVSPropertyOp7
 70
     1
102
RTVSPropertyOp8
 70
     1
102
RTVSPropertyOp9
 70
     1
102
RTVSPropertyOp10
 70
     1
102
RTVSPropertyOp11
 70
     1
102
RTVSPropertyOp12
 70
     1
102
RTVSPropertyOp13
 70
     1
102
RTVSPropertyOp14
 70
     1
102
RTVSPropertyOp15
 70
     1
102
RTVSPropertyOp16
 70
     1
102
RTVSPropertyOp17
 70
     1
102
RTVSPropertyOp18
 70
     1
102
RTVSPropertyOp19
 70
     1
102
RTVSPropertyOp20
 70
     1
102
RTVSPropertyOp21
 70
     1
102
RTVSPropertyOp22
 70
     1
102
RTVSPropertyOp23
 70
     1
102
RTVSPropertyOp24
 70
     1
102
RTVSPropertyOp25
 70
     1
102
RTVSPropertyOp26
 70
     1
102
RTVSPropertyOp27
 70
     1
102
RTVSPropertyOp28
 70
     1
102
RTVSPropertyOp29
 70
     1
102
RTVSPropertyOp30
 70
     1
102
RTVSPropertyOp31
 70
     1
102
RTVSPropertyOp32
 70
     1
102
RTVSPropertyOp33
 70
     1
102
RTVSPropertyOp34
 70
     1
102
RTVSPropertyOp35
 70
     1
102
RTVSPropertyOp36
 70
     1
102
RTVSPropertyOp37
 70
     1
102
RTVSPropertyOp38
 70
     1
102
RTVSPropertyOp39
 70
     1
102
RTVSPropertyOp40
 70
     1
102
RTVSPropertyOp41
 70
     1
102
RTVSPropertyOp42
 70
     1
102
RTVSPropertyOp43
 70
     1
102
RTVSPropertyOp44
 70
     1
102
RTVSPropertyOp45
 70
     1
102
RTVSPropertyOp46
 70
     1
102
RTVSPropertyOp47
 70
     1
102
RTVSPropertyOp48
 70
     1
102
RTVSPropertyOp49
 70
     1
102
RTVSPropertyOp50
 70
     1
102
RTVSPropertyOp51
 70
     0
102
RTVSPropertyOp52
 70
     0
102
RTVSPropertyOp53
 70
     1
102
RTVSPropertyOp54
 70
     1
102
RTVSPropertyOp55
 70
     1
102
RTVSPropertyOp56
 70
     1
102
RTVSPropertyOp57
 70
     1
102
RTVSPropertyOp58
 70
     1
102
RTVSPropertyOp59
 70
     1
102
RTVSPropertyOp60
 70
     1
102
RTVSPropertyOp61
 70
     1
102
RTVSPropertyOp62
 70
     1
  0
XRECORD
  5
13D4B
102
{ACAD_REACTORS
330
13D4A
102
}
330
13D4A
100
AcDbXrecord
280
     1
102
RTVSPost2010Prop28
280
     0
102
RTVSPost2010PropOp28
 70
     1
102
RTVSPost2010Prop29
280
     1
102
RTVSPost2010PropOp29
 70
     1
102
RTVSPost2010Prop30
280
     1
102
RTVSPost2010PropOp30
 70
     1
102
RTVSPost2010Prop31
280
     0
102
RTVSPost2010PropOp31
 70
     1
102
RTVSPost2010Prop32
280
     0
102
RTVSPost2010PropOp32
 70
     1
102
RTVSPost2010Prop33
280
     0
102
RTVSPost2010PropOp33
 70
     1
102
RTVSPost2010Prop34
280
     0
102
RTVSPost2010PropOp34
 70
     1
102
RTVSPost2010Prop35
280
     0
102
RTVSPost2010PropOp35
 70
     1
102
RTVSPost2010Prop36
280
     0
102
RTVSPost2010PropOp36
 70
     1
102
RTVSPost2010Prop37
 90
       50
102
RTVSPost2010PropOp37
 70
     0
102
RTVSPost2010Prop38
140
0.0
102
RTVSPost2010PropOp38
 70
     0
102
RTVSPost2010Prop39
140
1.0
102
RTVSPost2010PropOp39
 70
     0
102
RTVSPost2010Prop40
 90
        0
102
RTVSPost2010PropOp40
 70
     0
102
RTVSPost2010Prop41ColorIndex
 90
       18
102
RTVSPost2010Prop41ColorRGB
 90
        0
102
RTVSPost2010PropOp41
 70
     0
102
RTVSPost2010Prop42
 90
       50
102
RTVSPost2010PropOp42
 70
     0
102
RTVSPost2010Prop43
 90
        3
102
RTVSPost2010PropOp43
 70
     0
102
RTVSPost2010Prop44ColorIndex
 90
        5
102
RTVSPost2010Prop44ColorRGB
 90
      255
102
RTVSPost2010PropOp44
 70
     0
102
RTVSPost2010Prop45
280
     0
102
RTVSPost2010PropOp45
 70
     1
102
RTVSPost2010Prop46
 90
       50
102
RTVSPost2010PropOp46
 70
     0
102
RTVSPost2010Prop47
 90
       50
102
RTVSPost2010PropOp47
 70
     0
102
RTVSPost2010Prop48
 90
       50
102
RTVSPost2010PropOp48
 70
     0
102
RTVSPost2010Prop49
280
     0
102
RTVSPost2010PropOp49
 70
     1
102
RTVSPost2010Prop50
 90
       50
102
RTVSPost2010PropOp50
 70
     0
102
RTVSPost2010Prop51ColorIndex
 90
      256
102
RTVSPost2010Prop51ColorRGB
 90
-16777216
102
RTVSPost2010PropOp51
 70
     0
102
RTVSPost2010Prop52
140
1.0
102
RTVSPost2010PropOp52
 70
     0
102
RTVSPost2010Prop53
 90
        2
102
RTVSPost2010PropOp53
 70
     0
102
RTVSPost2010Prop54
  1
strokes_ogs.tif
102
RTVSPost2010PropOp54
 70
     0
102
RTVSPost2010Prop55
280
     0
102
RTVSPost2010PropOp55
 70
     1
102
RTVSPost2010Prop56
140
1.0
102
RTVSPost2010PropOp56
 70
     0
102
RTVSPost2010Prop57
140
1.0
102
RTVSPost2010PropOp57
 70
     0
102
RTVSPropertyOp0
 70
     0
102
RTVSPropertyOp1
 70
     0
102
RTVSPropertyOp2
 70
     0
102
RTVSPropertyOp3
 70
     0
102
RTVSPropertyOp4
 70
     0
102
RTVSPropertyOp5
 70
     0
102
RTVSPropertyOp6
 70
     0
102
RTVSPropertyOp7
 70
     0
102
RTVSPropertyOp8
 70
     0
102
RTVSPropertyOp9
 70
     0
102
RTVSPropertyOp10
 70
     0
102
RTVSPropertyOp11
 70
     0
102
RTVSPropertyOp12
 70
     0
102
RTVSPropertyOp13
 70
     0
102
RTVSPropertyOp14
 70
     2
102
RTVSPropertyOp15
 70
     0
102
RTVSPropertyOp16
 70
     0
102
RTVSPropertyOp17
 70
     0
102
RTVSPropertyOp18
 70
     0
102
RTVSPropertyOp19
 70
     0
102
RTVSPropertyOp20
 70
     0
102
RTVSPropertyOp21
 70
     0
102
RTVSPropertyOp22
 70
     0
102
RTVSPropertyOp23
 70
     0
102
RTVSPropertyOp24
 70
     0
102
RTVSPropertyOp25
 70
     0
102
RTVSPropertyOp26
 70
     0
102
RTVSPropertyOp27
 70
     0
102
RTVSPropertyOp28
 70
     1
102
RTVSPropertyOp29
 70
     1
102
RTVSPropertyOp30
 70
     1
102
RTVSPropertyOp31
 70
     1
102
RTVSPropertyOp32
 70
     1
102
RTVSPropertyOp33
 70
     1
102
RTVSPropertyOp34
 70
     1
102
RTVSPropertyOp35
 70
     1
102
RTVSPropertyOp36
 70
     1
102
RTVSPropertyOp37
 70
     0
102
RTVSPropertyOp38
 70
     0
102
RTVSPropertyOp39
 70
     0
102
RTVSPropertyOp40
 70
     0
102
RTVSPropertyOp41
 70
     0
102
RTVSPropertyOp42
 70
     0
102
RTVSPropertyOp43
 70
     0
102
RTVSPropertyOp44
 70
     0
102
RTVSPropertyOp45
 70
     1
102
RTVSPropertyOp46
 70
     0
102
RTVSPropertyOp47
 70
     0
102
RTVSPropertyOp48
 70
     0
102
RTVSPropertyOp49
 70
     1
102
RTVSPropertyOp50
 70
     0
102
RTVSPropertyOp51
 70
     0
102
RTVSPropertyOp52
 70
     0
102
RTVSPropertyOp53
 70
     0
102
RTVSPropertyOp54
 70
     0
102
RTVSPropertyOp55
 70
     1
102
RTVSPropertyOp56
 70
     0
102
RTVSPropertyOp57
 70
     0
102
RTVSPropertyOp58
 70
     0
102
RTVSPropertyOp59
 70
     0
102
RTVSPropertyOp60
 70
     0
102
RTVSPropertyOp61
 70
     0
102
RTVSPropertyOp62
 70
     0
  0
XRECORD
  5
13D31
102
{ACAD_REACTORS
330
13D30
102
}
330
13D30
100
AcDbXrecord
280
     1
102
RTVSPost2010Prop28
280
     0
102
RTVSPost2010PropOp28
 70
     1
102
RTVSPost2010Prop29
280
     1
102
RTVSPost2010PropOp29
 70
     1
102
RTVSPost2010Prop30
280
     1
102
RTVSPost2010PropOp30
 70
     1
102
RTVSPost2010Prop31
280
     0
102
RTVSPost2010PropOp31
 70
     1
102
RTVSPost2010Prop32
280
     0
102
RTVSPost2010PropOp32
 70
     1
102
RTVSPost2010Prop33
280
     0
102
RTVSPost2010PropOp33
 70
     1
102
RTVSPost2010Prop34
280
     0
102
RTVSPost2010PropOp34
 70
     1
102
RTVSPost2010Prop35
280
     0
102
RTVSPost2010PropOp35
 70
     1
102
RTVSPost2010Prop36
280
     0
102
RTVSPost2010PropOp36
 70
     1
102
RTVSPost2010Prop37
 90
       50
102
RTVSPost2010PropOp37
 70
     1
102
RTVSPost2010Prop38
140
0.0
102
RTVSPost2010PropOp38
 70
     1
102
RTVSPost2010Prop39
140
1.0
102
RTVSPost2010PropOp39
 70
     1
102
RTVSPost2010Prop40
 90
        0
102
RTVSPost2010PropOp40
 70
     1
102
RTVSPost2010Prop41ColorIndex
 90
       18
102
RTVSPost2010Prop41ColorRGB
 90
        0
102
RTVSPost2010PropOp41
 70
     1
102
RTVSPost2010Prop42
 90
       50
102
RTVSPost2010PropOp42
 70
     1
102
RTVSPost2010Prop43
 90
        3
102
RTVSPost2010PropOp43
 70
     1
102
RTVSPost2010Prop44ColorIndex
 90
        5
102
RTVSPost2010Prop44ColorRGB
 90
      255
102
RTVSPost2010PropOp44
 70
     1
102
RTVSPost2010Prop45
280
     0
102
RTVSPost2010PropOp45
 70
     1
102
RTVSPost2010Prop46
 90
       50
102
RTVSPost2010PropOp46
 70
     1
102
RTVSPost2010Prop47
 90
       50
102
RTVSPost2010PropOp47
 70
     1
102
RTVSPost2010Prop48
 90
       50
102
RTVSPost2010PropOp48
 70
     1
102
RTVSPost2010Prop49
280
     0
102
RTVSPost2010PropOp49
 70
     1
102
RTVSPost2010Prop50
 90
       50
102
RTVSPost2010PropOp50
 70
     1
102
RTVSPost2010Prop51ColorIndex
 90
      256
102
RTVSPost2010Prop51ColorRGB
 90
-16777216
102
RTVSPost2010PropOp51
 70
     0
102
RTVSPost2010Prop52
140
1.0
102
RTVSPost2010PropOp52
 70
     0
102
RTVSPost2010Prop53
 90
        2
102
RTVSPost2010PropOp53
 70
     1
102
RTVSPost2010Prop54
  1
strokes_ogs.tif
102
RTVSPost2010PropOp54
 70
     1
102
RTVSPost2010Prop55
280
     0
102
RTVSPost2010PropOp55
 70
     1
102
RTVSPost2010Prop56
140
1.0
102
RTVSPost2010PropOp56
 70
     1
102
RTVSPost2010Prop57
140
1.0
102
RTVSPost2010PropOp57
 70
     1
102
RTVSPropertyOp0
 70
     1
102
RTVSPropertyOp1
 70
     1
102
RTVSPropertyOp2
 70
     1
102
RTVSPropertyOp3
 70
     1
102
RTVSPropertyOp4
 70
     1
102
RTVSPropertyOp5
 70
     1
102
RTVSPropertyOp6
 70
     1
102
RTVSPropertyOp7
 70
     1
102
RTVSPropertyOp8
 70
     1
102
RTVSPropertyOp9
 70
     1
102
RTVSPropertyOp10
 70
     1
102
RTVSPropertyOp11
 70
     1
102
RTVSPropertyOp12
 70
     1
102
RTVSPropertyOp13
 70
     1
102
RTVSPropertyOp14
 70
     1
102
RTVSPropertyOp15
 70
     1
102
RTVSPropertyOp16
 70
     1
102
RTVSPropertyOp17
 70
     1
102
RTVSPropertyOp18
 70
     1
102
RTVSPropertyOp19
 70
     1
102
RTVSPropertyOp20
 70
     1
102
RTVSPropertyOp21
 70
     1
102
RTVSPropertyOp22
 70
     1
102
RTVSPropertyOp23
 70
     1
102
RTVSPropertyOp24
 70
     1
102
RTVSPropertyOp25
 70
     1
102
RTVSPropertyOp26
 70
     1
102
RTVSPropertyOp27
 70
     1
102
RTVSPropertyOp28
 70
     1
102
RTVSPropertyOp29
 70
     1
102
RTVSPropertyOp30
 70
     1
102
RTVSPropertyOp31
 70
     1
102
RTVSPropertyOp32
 70
     1
102
RTVSPropertyOp33
 70
     1
102
RTVSPropertyOp34
 70
     1
102
RTVSPropertyOp35
 70
     1
102
RTVSPropertyOp36
 70
     1
102
RTVSPropertyOp37
 70
     1
102
RTVSPropertyOp38
 70
     1
102
RTVSPropertyOp39
 70
     1
102
RTVSPropertyOp40
 70
     1
102
RTVSPropertyOp41
 70
     1
102
RTVSPropertyOp42
 70
     1
102
RTVSPropertyOp43
 70
     1
102
RTVSPropertyOp44
 70
     1
102
RTVSPropertyOp45
 70
     1
102
RTVSPropertyOp46
 70
     1
102
RTVSPropertyOp47
 70
     1
102
RTVSPropertyOp48
 70
     1
102
RTVSPropertyOp49
 70
     1
102
RTVSPropertyOp50
 70
     1
102
RTVSPropertyOp51
 70
     0
102
RTVSPropertyOp52
 70
     0
102
RTVSPropertyOp53
 70
     1
102
RTVSPropertyOp54
 70
     1
102
RTVSPropertyOp55
 70
     1
102
RTVSPropertyOp56
 70
     1
102
RTVSPropertyOp57
 70
     1
102
RTVSPropertyOp58
 70
     1
102
RTVSPropertyOp59
 70
     1
102
RTVSPropertyOp60
 70
     1
102
RTVSPropertyOp61
 70
     1
102
RTVSPropertyOp62
 70
     1
  0
XRECORD
  5
13D47
102
{ACAD_REACTORS
330
13D46
102
}
330
13D46
100
AcDbXrecord
280
     1
102
RTVSPost2010Prop28
280
     0
102
RTVSPost2010PropOp28
 70
     1
102
RTVSPost2010Prop29
280
     1
102
RTVSPost2010PropOp29
 70
     1
102
RTVSPost2010Prop30
280
     1
102
RTVSPost2010PropOp30
 70
     1
102
RTVSPost2010Prop31
280
     0
102
RTVSPost2010PropOp31
 70
     1
102
RTVSPost2010Prop32
280
     0
102
RTVSPost2010PropOp32
 70
     1
102
RTVSPost2010Prop33
280
     0
102
RTVSPost2010PropOp33
 70
     1
102
RTVSPost2010Prop34
280
     0
102
RTVSPost2010PropOp34
 70
     1
102
RTVSPost2010Prop35
280
     0
102
RTVSPost2010PropOp35
 70
     1
102
RTVSPost2010Prop36
280
     0
102
RTVSPost2010PropOp36
 70
     1
102
RTVSPost2010Prop37
 90
       50
102
RTVSPost2010PropOp37
 70
     1
102
RTVSPost2010Prop38
140
0.0
102
RTVSPost2010PropOp38
 70
     1
102
RTVSPost2010Prop39
140
1.0
102
RTVSPost2010PropOp39
 70
     1
102
RTVSPost2010Prop40
 90
        0
102
RTVSPost2010PropOp40
 70
     1
102
RTVSPost2010Prop41ColorIndex
 90
       18
102
RTVSPost2010Prop41ColorRGB
 90
        0
102
RTVSPost2010PropOp41
 70
     1
102
RTVSPost2010Prop42
 90
       50
102
RTVSPost2010PropOp42
 70
     1
102
RTVSPost2010Prop43
 90
        3
102
RTVSPost2010PropOp43
 70
     1
102
RTVSPost2010Prop44ColorIndex
 90
        5
102
RTVSPost2010Prop44ColorRGB
 90
      255
102
RTVSPost2010PropOp44
 70
     1
102
RTVSPost2010Prop45
280
     0
102
RTVSPost2010PropOp45
 70
     1
102
RTVSPost2010Prop46
 90
       50
102
RTVSPost2010PropOp46
 70
     1
102
RTVSPost2010Prop47
 90
       50
102
RTVSPost2010PropOp47
 70
     1
102
RTVSPost2010Prop48
 90
       50
102
RTVSPost2010PropOp48
 70
     1
102
RTVSPost2010Prop49
280
     0
102
RTVSPost2010PropOp49
 70
     1
102
RTVSPost2010Prop50
 90
       50
102
RTVSPost2010PropOp50
 70
     1
102
RTVSPost2010Prop51ColorIndex
 90
      256
102
RTVSPost2010Prop51ColorRGB
 90
-16777216
102
RTVSPost2010PropOp51
 70
     0
102
RTVSPost2010Prop52
140
1.0
102
RTVSPost2010PropOp52
 70
     0
102
RTVSPost2010Prop53
 90
        2
102
RTVSPost2010PropOp53
 70
     1
102
RTVSPost2010Prop54
  1
strokes_ogs.tif
102
RTVSPost2010PropOp54
 70
     1
102
RTVSPost2010Prop55
280
     0
102
RTVSPost2010PropOp55
 70
     1
102
RTVSPost2010Prop56
140
1.0
102
RTVSPost2010PropOp56
 70
     1
102
RTVSPost2010Prop57
140
1.0
102
RTVSPost2010PropOp57
 70
     1
102
RTVSPropertyOp0
 70
     1
102
RTVSPropertyOp1
 70
     1
102
RTVSPropertyOp2
 70
     1
102
RTVSPropertyOp3
 70
     1
102
RTVSPropertyOp4
 70
     1
102
RTVSPropertyOp5
 70
     1
102
RTVSPropertyOp6
 70
     1
102
RTVSPropertyOp7
 70
     1
102
RTVSPropertyOp8
 70
     1
102
RTVSPropertyOp9
 70
     1
102
RTVSPropertyOp10
 70
     1
102
RTVSPropertyOp11
 70
     1
102
RTVSPropertyOp12
 70
     1
102
RTVSPropertyOp13
 70
     1
102
RTVSPropertyOp14
 70
     1
102
RTVSPropertyOp15
 70
     1
102
RTVSPropertyOp16
 70
     1
102
RTVSPropertyOp17
 70
     1
102
RTVSPropertyOp18
 70
     1
102
RTVSPropertyOp19
 70
     1
102
RTVSPropertyOp20
 70
     1
102
RTVSPropertyOp21
 70
     1
102
RTVSPropertyOp22
 70
     1
102
RTVSPropertyOp23
 70
     1
102
RTVSPropertyOp24
 70
     1
102
RTVSPropertyOp25
 70
     1
102
RTVSPropertyOp26
 70
     1
102
RTVSPropertyOp27
 70
     1
102
RTVSPropertyOp28
 70
     1
102
RTVSPropertyOp29
 70
     1
102
RTVSPropertyOp30
 70
     1
102
RTVSPropertyOp31
 70
     1
102
RTVSPropertyOp32
 70
     1
102
RTVSPropertyOp33
 70
     1
102
RTVSPropertyOp34
 70
     1
102
RTVSPropertyOp35
 70
     1
102
RTVSPropertyOp36
 70
     1
102
RTVSPropertyOp37
 70
     1
102
RTVSPropertyOp38
 70
     1
102
RTVSPropertyOp39
 70
     1
102
RTVSPropertyOp40
 70
     1
102
RTVSPropertyOp41
 70
     1
102
RTVSPropertyOp42
 70
     1
102
RTVSPropertyOp43
 70
     1
102
RTVSPropertyOp44
 70
     1
102
RTVSPropertyOp45
 70
     1
102
RTVSPropertyOp46
 70
     1
102
RTVSPropertyOp47
 70
     1
102
RTVSPropertyOp48
 70
     1
102
RTVSPropertyOp49
 70
     1
102
RTVSPropertyOp50
 70
     1
102
RTVSPropertyOp51
 70
     0
102
RTVSPropertyOp52
 70
     0
102
RTVSPropertyOp53
 70
     1
102
RTVSPropertyOp54
 70
     1
102
RTVSPropertyOp55
 70
     1
102
RTVSPropertyOp56
 70
     1
102
RTVSPropertyOp57
 70
     1
102
RTVSPropertyOp58
 70
     1
102
RTVSPropertyOp59
 70
     1
102
RTVSPropertyOp60
 70
     1
102
RTVSPropertyOp61
 70
     1
102
RTVSPropertyOp62
 70
     1
  0
XRECORD
  5
13D45
102
{ACAD_REACTORS
330
13D44
102
}
330
13D44
100
AcDbXrecord
280
     1
102
RTVSPost2010Prop28
280
     0
102
RTVSPost2010PropOp28
 70
     1
102
RTVSPost2010Prop29
280
     1
102
RTVSPost2010PropOp29
 70
     1
102
RTVSPost2010Prop30
280
     1
102
RTVSPost2010PropOp30
 70
     1
102
RTVSPost2010Prop31
280
     0
102
RTVSPost2010PropOp31
 70
     1
102
RTVSPost2010Prop32
280
     0
102
RTVSPost2010PropOp32
 70
     1
102
RTVSPost2010Prop33
280
     0
102
RTVSPost2010PropOp33
 70
     1
102
RTVSPost2010Prop34
280
     0
102
RTVSPost2010PropOp34
 70
     1
102
RTVSPost2010Prop35
280
     0
102
RTVSPost2010PropOp35
 70
     1
102
RTVSPost2010Prop36
280
     0
102
RTVSPost2010PropOp36
 70
     1
102
RTVSPost2010Prop37
 90
       50
102
RTVSPost2010PropOp37
 70
     1
102
RTVSPost2010Prop38
140
0.0
102
RTVSPost2010PropOp38
 70
     1
102
RTVSPost2010Prop39
140
1.0
102
RTVSPost2010PropOp39
 70
     1
102
RTVSPost2010Prop40
 90
        0
102
RTVSPost2010PropOp40
 70
     1
102
RTVSPost2010Prop41ColorIndex
 90
       18
102
RTVSPost2010Prop41ColorRGB
 90
        0
102
RTVSPost2010PropOp41
 70
     1
102
RTVSPost2010Prop42
 90
       50
102
RTVSPost2010PropOp42
 70
     1
102
RTVSPost2010Prop43
 90
        3
102
RTVSPost2010PropOp43
 70
     1
102
RTVSPost2010Prop44ColorIndex
 90
        5
102
RTVSPost2010Prop44ColorRGB
 90
      255
102
RTVSPost2010PropOp44
 70
     1
102
RTVSPost2010Prop45
280
     0
102
RTVSPost2010PropOp45
 70
     1
102
RTVSPost2010Prop46
 90
       50
102
RTVSPost2010PropOp46
 70
     1
102
RTVSPost2010Prop47
 90
       50
102
RTVSPost2010PropOp47
 70
     1
102
RTVSPost2010Prop48
 90
       50
102
RTVSPost2010PropOp48
 70
     1
102
RTVSPost2010Prop49
280
     0
102
RTVSPost2010PropOp49
 70
     1
102
RTVSPost2010Prop50
 90
       50
102
RTVSPost2010PropOp50
 70
     1
102
RTVSPost2010Prop51ColorIndex
 90
      256
102
RTVSPost2010Prop51ColorRGB
 90
-16777216
102
RTVSPost2010PropOp51
 70
     0
102
RTVSPost2010Prop52
140
1.0
102
RTVSPost2010PropOp52
 70
     0
102
RTVSPost2010Prop53
 90
        2
102
RTVSPost2010PropOp53
 70
     1
102
RTVSPost2010Prop54
  1
strokes_ogs.tif
102
RTVSPost2010PropOp54
 70
     1
102
RTVSPost2010Prop55
280
     0
102
RTVSPost2010PropOp55
 70
     1
102
RTVSPost2010Prop56
140
1.0
102
RTVSPost2010PropOp56
 70
     1
102
RTVSPost2010Prop57
140
1.0
102
RTVSPost2010PropOp57
 70
     1
102
RTVSPropertyOp0
 70
     1
102
RTVSPropertyOp1
 70
     1
102
RTVSPropertyOp2
 70
     1
102
RTVSPropertyOp3
 70
     1
102
RTVSPropertyOp4
 70
     1
102
RTVSPropertyOp5
 70
     1
102
RTVSPropertyOp6
 70
     1
102
RTVSPropertyOp7
 70
     1
102
RTVSPropertyOp8
 70
     1
102
RTVSPropertyOp9
 70
     1
102
RTVSPropertyOp10
 70
     1
102
RTVSPropertyOp11
 70
     1
102
RTVSPropertyOp12
 70
     1
102
RTVSPropertyOp13
 70
     1
102
RTVSPropertyOp14
 70
     1
102
RTVSPropertyOp15
 70
     1
102
RTVSPropertyOp16
 70
     1
102
RTVSPropertyOp17
 70
     1
102
RTVSPropertyOp18
 70
     1
102
RTVSPropertyOp19
 70
     1
102
RTVSPropertyOp20
 70
     1
102
RTVSPropertyOp21
 70
     1
102
RTVSPropertyOp22
 70
     1
102
RTVSPropertyOp23
 70
     1
102
RTVSPropertyOp24
 70
     1
102
RTVSPropertyOp25
 70
     1
102
RTVSPropertyOp26
 70
     1
102
RTVSPropertyOp27
 70
     1
102
RTVSPropertyOp28
 70
     1
102
RTVSPropertyOp29
 70
     1
102
RTVSPropertyOp30
 70
     1
102
RTVSPropertyOp31
 70
     1
102
RTVSPropertyOp32
 70
     1
102
RTVSPropertyOp33
 70
     1
102
RTVSPropertyOp34
 70
     1
102
RTVSPropertyOp35
 70
     1
102
RTVSPropertyOp36
 70
     1
102
RTVSPropertyOp37
 70
     1
102
RTVSPropertyOp38
 70
     1
102
RTVSPropertyOp39
 70
     1
102
RTVSPropertyOp40
 70
     1
102
RTVSPropertyOp41
 70
     1
102
RTVSPropertyOp42
 70
     1
102
RTVSPropertyOp43
 70
     1
102
RTVSPropertyOp44
 70
     1
102
RTVSPropertyOp45
 70
     1
102
RTVSPropertyOp46
 70
     1
102
RTVSPropertyOp47
 70
     1
102
RTVSPropertyOp48
 70
     1
102
RTVSPropertyOp49
 70
     1
102
RTVSPropertyOp50
 70
     1
102
RTVSPropertyOp51
 70
     0
102
RTVSPropertyOp52
 70
     0
102
RTVSPropertyOp53
 70
     1
102
RTVSPropertyOp54
 70
     1
102
RTVSPropertyOp55
 70
     1
102
RTVSPropertyOp56
 70
     1
102
RTVSPropertyOp57
 70
     1
102
RTVSPropertyOp58
 70
     1
102
RTVSPropertyOp59
 70
     1
102
RTVSPropertyOp60
 70
     1
102
RTVSPropertyOp61
 70
     1
102
RTVSPropertyOp62
 70
     1
  0
XRECORD
  5
13D3F
102
{ACAD_REACTORS
330
13D3E
102
}
330
13D3E
100
AcDbXrecord
280
     1
102
RTVSPost2010Prop28
280
     0
102
RTVSPost2010PropOp28
 70
     1
102
RTVSPost2010Prop29
280
     1
102
RTVSPost2010PropOp29
 70
     1
102
RTVSPost2010Prop30
280
     1
102
RTVSPost2010PropOp30
 70
     1
102
RTVSPost2010Prop31
280
     0
102
RTVSPost2010PropOp31
 70
     1
102
RTVSPost2010Prop32
280
     0
102
RTVSPost2010PropOp32
 70
     1
102
RTVSPost2010Prop33
280
     0
102
RTVSPost2010PropOp33
 70
     1
102
RTVSPost2010Prop34
280
     0
102
RTVSPost2010PropOp34
 70
     1
102
RTVSPost2010Prop35
280
     0
102
RTVSPost2010PropOp35
 70
     1
102
RTVSPost2010Prop36
280
     0
102
RTVSPost2010PropOp36
 70
     1
102
RTVSPost2010Prop37
 90
       50
102
RTVSPost2010PropOp37
 70
     1
102
RTVSPost2010Prop38
140
0.0
102
RTVSPost2010PropOp38
 70
     1
102
RTVSPost2010Prop39
140
1.0
102
RTVSPost2010PropOp39
 70
     1
102
RTVSPost2010Prop40
 90
        0
102
RTVSPost2010PropOp40
 70
     1
102
RTVSPost2010Prop41ColorIndex
 90
       18
102
RTVSPost2010Prop41ColorRGB
 90
        0
102
RTVSPost2010PropOp41
 70
     1
102
RTVSPost2010Prop42
 90
       50
102
RTVSPost2010PropOp42
 70
     1
102
RTVSPost2010Prop43
 90
        3
102
RTVSPost2010PropOp43
 70
     1
102
RTVSPost2010Prop44ColorIndex
 90
        5
102
RTVSPost2010Prop44ColorRGB
 90
      255
102
RTVSPost2010PropOp44
 70
     1
102
RTVSPost2010Prop45
280
     0
102
RTVSPost2010PropOp45
 70
     1
102
RTVSPost2010Prop46
 90
       50
102
RTVSPost2010PropOp46
 70
     1
102
RTVSPost2010Prop47
 90
       50
102
RTVSPost2010PropOp47
 70
     1
102
RTVSPost2010Prop48
 90
       50
102
RTVSPost2010PropOp48
 70
     1
102
RTVSPost2010Prop49
280
     0
102
RTVSPost2010PropOp49
 70
     1
102
RTVSPost2010Prop50
 90
       50
102
RTVSPost2010PropOp50
 70
     1
102
RTVSPost2010Prop51ColorIndex
 90
      256
102
RTVSPost2010Prop51ColorRGB
 90
-16777216
102
RTVSPost2010PropOp51
 70
     0
102
RTVSPost2010Prop52
140
1.0
102
RTVSPost2010PropOp52
 70
     0
102
RTVSPost2010Prop53
 90
        2
102
RTVSPost2010PropOp53
 70
     1
102
RTVSPost2010Prop54
  1
strokes_ogs.tif
102
RTVSPost2010PropOp54
 70
     1
102
RTVSPost2010Prop55
280
     0
102
RTVSPost2010PropOp55
 70
     1
102
RTVSPost2010Prop56
140
1.0
102
RTVSPost2010PropOp56
 70
     1
102
RTVSPost2010Prop57
140
1.0
102
RTVSPost2010PropOp57
 70
     1
102
RTVSPropertyOp0
 70
     1
102
RTVSPropertyOp1
 70
     1
102
RTVSPropertyOp2
 70
     1
102
RTVSPropertyOp3
 70
     1
102
RTVSPropertyOp4
 70
     1
102
RTVSPropertyOp5
 70
     1
102
RTVSPropertyOp6
 70
     1
102
RTVSPropertyOp7
 70
     1
102
RTVSPropertyOp8
 70
     1
102
RTVSPropertyOp9
 70
     1
102
RTVSPropertyOp10
 70
     1
102
RTVSPropertyOp11
 70
     1
102
RTVSPropertyOp12
 70
     1
102
RTVSPropertyOp13
 70
     1
102
RTVSPropertyOp14
 70
     1
102
RTVSPropertyOp15
 70
     1
102
RTVSPropertyOp16
 70
     1
102
RTVSPropertyOp17
 70
     1
102
RTVSPropertyOp18
 70
     1
102
RTVSPropertyOp19
 70
     1
102
RTVSPropertyOp20
 70
     1
102
RTVSPropertyOp21
 70
     1
102
RTVSPropertyOp22
 70
     1
102
RTVSPropertyOp23
 70
     1
102
RTVSPropertyOp24
 70
     1
102
RTVSPropertyOp25
 70
     1
102
RTVSPropertyOp26
 70
     1
102
RTVSPropertyOp27
 70
     1
102
RTVSPropertyOp28
 70
     1
102
RTVSPropertyOp29
 70
     1
102
RTVSPropertyOp30
 70
     1
102
RTVSPropertyOp31
 70
     1
102
RTVSPropertyOp32
 70
     1
102
RTVSPropertyOp33
 70
     1
102
RTVSPropertyOp34
 70
     1
102
RTVSPropertyOp35
 70
     1
102
RTVSPropertyOp36
 70
     1
102
RTVSPropertyOp37
 70
     1
102
RTVSPropertyOp38
 70
     1
102
RTVSPropertyOp39
 70
     1
102
RTVSPropertyOp40
 70
     1
102
RTVSPropertyOp41
 70
     1
102
RTVSPropertyOp42
 70
     1
102
RTVSPropertyOp43
 70
     1
102
RTVSPropertyOp44
 70
     1
102
RTVSPropertyOp45
 70
     1
102
RTVSPropertyOp46
 70
     1
102
RTVSPropertyOp47
 70
     1
102
RTVSPropertyOp48
 70
     1
102
RTVSPropertyOp49
 70
     1
102
RTVSPropertyOp50
 70
     1
102
RTVSPropertyOp51
 70
     0
102
RTVSPropertyOp52
 70
     0
102
RTVSPropertyOp53
 70
     1
102
RTVSPropertyOp54
 70
     1
102
RTVSPropertyOp55
 70
     1
102
RTVSPropertyOp56
 70
     1
102
RTVSPropertyOp57
 70
     1
102
RTVSPropertyOp58
 70
     1
102
RTVSPropertyOp59
 70
     1
102
RTVSPropertyOp60
 70
     1
102
RTVSPropertyOp61
 70
     1
102
RTVSPropertyOp62
 70
     1
  0
XRECORD
  5
13D41
102
{ACAD_REACTORS
330
13D40
102
}
330
13D40
100
AcDbXrecord
280
     1
102
RTVSPost2010Prop28
280
     0
102
RTVSPost2010PropOp28
 70
     1
102
RTVSPost2010Prop29
280
     1
102
RTVSPost2010PropOp29
 70
     1
102
RTVSPost2010Prop30
280
     1
102
RTVSPost2010PropOp30
 70
     1
102
RTVSPost2010Prop31
280
     0
102
RTVSPost2010PropOp31
 70
     1
102
RTVSPost2010Prop32
280
     0
102
RTVSPost2010PropOp32
 70
     1
102
RTVSPost2010Prop33
280
     0
102
RTVSPost2010PropOp33
 70
     1
102
RTVSPost2010Prop34
280
     0
102
RTVSPost2010PropOp34
 70
     1
102
RTVSPost2010Prop35
280
     0
102
RTVSPost2010PropOp35
 70
     1
102
RTVSPost2010Prop36
280
     0
102
RTVSPost2010PropOp36
 70
     1
102
RTVSPost2010Prop37
 90
       50
102
RTVSPost2010PropOp37
 70
     1
102
RTVSPost2010Prop38
140
0.0
102
RTVSPost2010PropOp38
 70
     1
102
RTVSPost2010Prop39
140
1.0
102
RTVSPost2010PropOp39
 70
     1
102
RTVSPost2010Prop40
 90
        0
102
RTVSPost2010PropOp40
 70
     1
102
RTVSPost2010Prop41ColorIndex
 90
       18
102
RTVSPost2010Prop41ColorRGB
 90
        0
102
RTVSPost2010PropOp41
 70
     1
102
RTVSPost2010Prop42
 90
       50
102
RTVSPost2010PropOp42
 70
     1
102
RTVSPost2010Prop43
 90
        3
102
RTVSPost2010PropOp43
 70
     1
102
RTVSPost2010Prop44ColorIndex
 90
        5
102
RTVSPost2010Prop44ColorRGB
 90
      255
102
RTVSPost2010PropOp44
 70
     1
102
RTVSPost2010Prop45
280
     0
102
RTVSPost2010PropOp45
 70
     1
102
RTVSPost2010Prop46
 90
       50
102
RTVSPost2010PropOp46
 70
     1
102
RTVSPost2010Prop47
 90
       50
102
RTVSPost2010PropOp47
 70
     1
102
RTVSPost2010Prop48
 90
       50
102
RTVSPost2010PropOp48
 70
     1
102
RTVSPost2010Prop49
280
     0
102
RTVSPost2010PropOp49
 70
     1
102
RTVSPost2010Prop50
 90
       50
102
RTVSPost2010PropOp50
 70
     1
102
RTVSPost2010Prop51ColorIndex
 90
      256
102
RTVSPost2010Prop51ColorRGB
 90
-16777216
102
RTVSPost2010PropOp51
 70
     0
102
RTVSPost2010Prop52
140
1.0
102
RTVSPost2010PropOp52
 70
     0
102
RTVSPost2010Prop53
 90
        2
102
RTVSPost2010PropOp53
 70
     1
102
RTVSPost2010Prop54
  1
strokes_ogs.tif
102
RTVSPost2010PropOp54
 70
     1
102
RTVSPost2010Prop55
280
     0
102
RTVSPost2010PropOp55
 70
     1
102
RTVSPost2010Prop56
140
1.0
102
RTVSPost2010PropOp56
 70
     1
102
RTVSPost2010Prop57
140
1.0
102
RTVSPost2010PropOp57
 70
     1
102
RTVSPropertyOp0
 70
     1
102
RTVSPropertyOp1
 70
     1
102
RTVSPropertyOp2
 70
     1
102
RTVSPropertyOp3
 70
     1
102
RTVSPropertyOp4
 70
     1
102
RTVSPropertyOp5
 70
     1
102
RTVSPropertyOp6
 70
     1
102
RTVSPropertyOp7
 70
     1
102
RTVSPropertyOp8
 70
     1
102
RTVSPropertyOp9
 70
     1
102
RTVSPropertyOp10
 70
     1
102
RTVSPropertyOp11
 70
     1
102
RTVSPropertyOp12
 70
     1
102
RTVSPropertyOp13
 70
     1
102
RTVSPropertyOp14
 70
     1
102
RTVSPropertyOp15
 70
     1
102
RTVSPropertyOp16
 70
     1
102
RTVSPropertyOp17
 70
     1
102
RTVSPropertyOp18
 70
     1
102
RTVSPropertyOp19
 70
     1
102
RTVSPropertyOp20
 70
     1
102
RTVSPropertyOp21
 70
     1
102
RTVSPropertyOp22
 70
     1
102
RTVSPropertyOp23
 70
     1
102
RTVSPropertyOp24
 70
     1
102
RTVSPropertyOp25
 70
     1
102
RTVSPropertyOp26
 70
     1
102
RTVSPropertyOp27
 70
     1
102
RTVSPropertyOp28
 70
     1
102
RTVSPropertyOp29
 70
     1
102
RTVSPropertyOp30
 70
     1
102
RTVSPropertyOp31
 70
     1
102
RTVSPropertyOp32
 70
     1
102
RTVSPropertyOp33
 70
     1
102
RTVSPropertyOp34
 70
     1
102
RTVSPropertyOp35
 70
     1
102
RTVSPropertyOp36
 70
     1
102
RTVSPropertyOp37
 70
     1
102
RTVSPropertyOp38
 70
     1
102
RTVSPropertyOp39
 70
     1
102
RTVSPropertyOp40
 70
     1
102
RTVSPropertyOp41
 70
     1
102
RTVSPropertyOp42
 70
     1
102
RTVSPropertyOp43
 70
     1
102
RTVSPropertyOp44
 70
     1
102
RTVSPropertyOp45
 70
     1
102
RTVSPropertyOp46
 70
     1
102
RTVSPropertyOp47
 70
     1
102
RTVSPropertyOp48
 70
     1
102
RTVSPropertyOp49
 70
     1
102
RTVSPropertyOp50
 70
     1
102
RTVSPropertyOp51
 70
     0
102
RTVSPropertyOp52
 70
     0
102
RTVSPropertyOp53
 70
     1
102
RTVSPropertyOp54
 70
     1
102
RTVSPropertyOp55
 70
     1
102
RTVSPropertyOp56
 70
     1
102
RTVSPropertyOp57
 70
     1
102
RTVSPropertyOp58
 70
     1
102
RTVSPropertyOp59
 70
     1
102
RTVSPropertyOp60
 70
     1
102
RTVSPropertyOp61
 70
     1
102
RTVSPropertyOp62
 70
     1
  0
XRECORD
  5
13D37
102
{ACAD_REACTORS
330
13D36
102
}
330
13D36
100
AcDbXrecord
280
     1
102
RTVSPost2010Prop28
280
     0
102
RTVSPost2010PropOp28
 70
     1
102
RTVSPost2010Prop29
280
     1
102
RTVSPost2010PropOp29
 70
     1
102
RTVSPost2010Prop30
280
     1
102
RTVSPost2010PropOp30
 70
     1
102
RTVSPost2010Prop31
280
     0
102
RTVSPost2010PropOp31
 70
     1
102
RTVSPost2010Prop32
280
     0
102
RTVSPost2010PropOp32
 70
     1
102
RTVSPost2010Prop33
280
     0
102
RTVSPost2010PropOp33
 70
     1
102
RTVSPost2010Prop34
280
     0
102
RTVSPost2010PropOp34
 70
     1
102
RTVSPost2010Prop35
280
     0
102
RTVSPost2010PropOp35
 70
     1
102
RTVSPost2010Prop36
280
     0
102
RTVSPost2010PropOp36
 70
     1
102
RTVSPost2010Prop37
 90
       50
102
RTVSPost2010PropOp37
 70
     1
102
RTVSPost2010Prop38
140
0.0
102
RTVSPost2010PropOp38
 70
     1
102
RTVSPost2010Prop39
140
1.0
102
RTVSPost2010PropOp39
 70
     1
102
RTVSPost2010Prop40
 90
        0
102
RTVSPost2010PropOp40
 70
     1
102
RTVSPost2010Prop41ColorIndex
 90
       18
102
RTVSPost2010Prop41ColorRGB
 90
        0
102
RTVSPost2010PropOp41
 70
     1
102
RTVSPost2010Prop42
 90
       50
102
RTVSPost2010PropOp42
 70
     1
102
RTVSPost2010Prop43
 90
        3
102
RTVSPost2010PropOp43
 70
     1
102
RTVSPost2010Prop44ColorIndex
 90
        5
102
RTVSPost2010Prop44ColorRGB
 90
      255
102
RTVSPost2010PropOp44
 70
     1
102
RTVSPost2010Prop45
280
     0
102
RTVSPost2010PropOp45
 70
     1
102
RTVSPost2010Prop46
 90
       50
102
RTVSPost2010PropOp46
 70
     1
102
RTVSPost2010Prop47
 90
       50
102
RTVSPost2010PropOp47
 70
     1
102
RTVSPost2010Prop48
 90
       50
102
RTVSPost2010PropOp48
 70
     1
102
RTVSPost2010Prop49
280
     0
102
RTVSPost2010PropOp49
 70
     1
102
RTVSPost2010Prop50
 90
       50
102
RTVSPost2010PropOp50
 70
     1
102
RTVSPost2010Prop51ColorIndex
 90
      256
102
RTVSPost2010Prop51ColorRGB
 90
-16777216
102
RTVSPost2010PropOp51
 70
     0
102
RTVSPost2010Prop52
140
1.0
102
RTVSPost2010PropOp52
 70
     0
102
RTVSPost2010Prop53
 90
        2
102
RTVSPost2010PropOp53
 70
     1
102
RTVSPost2010Prop54
  1
strokes_ogs.tif
102
RTVSPost2010PropOp54
 70
     1
102
RTVSPost2010Prop55
280
     0
102
RTVSPost2010PropOp55
 70
     1
102
RTVSPost2010Prop56
140
1.0
102
RTVSPost2010PropOp56
 70
     1
102
RTVSPost2010Prop57
140
1.0
102
RTVSPost2010PropOp57
 70
     1
102
RTVSPropertyOp0
 70
     1
102
RTVSPropertyOp1
 70
     1
102
RTVSPropertyOp2
 70
     1
102
RTVSPropertyOp3
 70
     1
102
RTVSPropertyOp4
 70
     1
102
RTVSPropertyOp5
 70
     1
102
RTVSPropertyOp6
 70
     1
102
RTVSPropertyOp7
 70
     1
102
RTVSPropertyOp8
 70
     1
102
RTVSPropertyOp9
 70
     1
102
RTVSPropertyOp10
 70
     1
102
RTVSPropertyOp11
 70
     1
102
RTVSPropertyOp12
 70
     1
102
RTVSPropertyOp13
 70
     1
102
RTVSPropertyOp14
 70
     1
102
RTVSPropertyOp15
 70
     1
102
RTVSPropertyOp16
 70
     1
102
RTVSPropertyOp17
 70
     1
102
RTVSPropertyOp18
 70
     1
102
RTVSPropertyOp19
 70
     1
102
RTVSPropertyOp20
 70
     1
102
RTVSPropertyOp21
 70
     1
102
RTVSPropertyOp22
 70
     1
102
RTVSPropertyOp23
 70
     1
102
RTVSPropertyOp24
 70
     1
102
RTVSPropertyOp25
 70
     1
102
RTVSPropertyOp26
 70
     1
102
RTVSPropertyOp27
 70
     1
102
RTVSPropertyOp28
 70
     1
102
RTVSPropertyOp29
 70
     1
102
RTVSPropertyOp30
 70
     1
102
RTVSPropertyOp31
 70
     1
102
RTVSPropertyOp32
 70
     1
102
RTVSPropertyOp33
 70
     1
102
RTVSPropertyOp34
 70
     1
102
RTVSPropertyOp35
 70
     1
102
RTVSPropertyOp36
 70
     1
102
RTVSPropertyOp37
 70
     1
102
RTVSPropertyOp38
 70
     1
102
RTVSPropertyOp39
 70
     1
102
RTVSPropertyOp40
 70
     1
102
RTVSPropertyOp41
 70
     1
102
RTVSPropertyOp42
 70
     1
102
RTVSPropertyOp43
 70
     1
102
RTVSPropertyOp44
 70
     1
102
RTVSPropertyOp45
 70
     1
102
RTVSPropertyOp46
 70
     1
102
RTVSPropertyOp47
 70
     1
102
RTVSPropertyOp48
 70
     1
102
RTVSPropertyOp49
 70
     1
102
RTVSPropertyOp50
 70
     1
102
RTVSPropertyOp51
 70
     0
102
RTVSPropertyOp52
 70
     0
102
RTVSPropertyOp53
 70
     1
102
RTVSPropertyOp54
 70
     1
102
RTVSPropertyOp55
 70
     1
102
RTVSPropertyOp56
 70
     1
102
RTVSPropertyOp57
 70
     1
102
RTVSPropertyOp58
 70
     1
102
RTVSPropertyOp59
 70
     1
102
RTVSPropertyOp60
 70
     1
102
RTVSPropertyOp61
 70
     1
102
RTVSPropertyOp62
 70
     1
  0
XRECORD
  5
13D2B
102
{ACAD_REACTORS
330
13D2A
102
}
330
13D2A
100
AcDbXrecord
280
     1
102
RTVSPost2010Prop28
280
     0
102
RTVSPost2010PropOp28
 70
     1
102
RTVSPost2010Prop29
280
     1
102
RTVSPost2010PropOp29
 70
     1
102
RTVSPost2010Prop30
280
     1
102
RTVSPost2010PropOp30
 70
     1
102
RTVSPost2010Prop31
280
     0
102
RTVSPost2010PropOp31
 70
     1
102
RTVSPost2010Prop32
280
     0
102
RTVSPost2010PropOp32
 70
     1
102
RTVSPost2010Prop33
280
     0
102
RTVSPost2010PropOp33
 70
     1
102
RTVSPost2010Prop34
280
     0
102
RTVSPost2010PropOp34
 70
     1
102
RTVSPost2010Prop35
280
     0
102
RTVSPost2010PropOp35
 70
     1
102
RTVSPost2010Prop36
280
     0
102
RTVSPost2010PropOp36
 70
     1
102
RTVSPost2010Prop37
 90
       50
102
RTVSPost2010PropOp37
 70
     1
102
RTVSPost2010Prop38
140
0.0
102
RTVSPost2010PropOp38
 70
     1
102
RTVSPost2010Prop39
140
1.0
102
RTVSPost2010PropOp39
 70
     1
102
RTVSPost2010Prop40
 90
        0
102
RTVSPost2010PropOp40
 70
     1
102
RTVSPost2010Prop41ColorIndex
 90
       18
102
RTVSPost2010Prop41ColorRGB
 90
        0
102
RTVSPost2010PropOp41
 70
     1
102
RTVSPost2010Prop42
 90
       50
102
RTVSPost2010PropOp42
 70
     1
102
RTVSPost2010Prop43
 90
        3
102
RTVSPost2010PropOp43
 70
     1
102
RTVSPost2010Prop44ColorIndex
 90
        5
102
RTVSPost2010Prop44ColorRGB
 90
      255
102
RTVSPost2010PropOp44
 70
     1
102
RTVSPost2010Prop45
280
     0
102
RTVSPost2010PropOp45
 70
     1
102
RTVSPost2010Prop46
 90
       50
102
RTVSPost2010PropOp46
 70
     1
102
RTVSPost2010Prop47
 90
       50
102
RTVSPost2010PropOp47
 70
     1
102
RTVSPost2010Prop48
 90
       50
102
RTVSPost2010PropOp48
 70
     1
102
RTVSPost2010Prop49
280
     0
102
RTVSPost2010PropOp49
 70
     1
102
RTVSPost2010Prop50
 90
       50
102
RTVSPost2010PropOp50
 70
     1
102
RTVSPost2010Prop51ColorIndex
 90
      256
102
RTVSPost2010Prop51ColorRGB
 90
-16777216
102
RTVSPost2010PropOp51
 70
     0
102
RTVSPost2010Prop52
140
1.0
102
RTVSPost2010PropOp52
 70
     0
102
RTVSPost2010Prop53
 90
        2
102
RTVSPost2010PropOp53
 70
     1
102
RTVSPost2010Prop54
  1
strokes_ogs.tif
102
RTVSPost2010PropOp54
 70
     1
102
RTVSPost2010Prop55
280
     0
102
RTVSPost2010PropOp55
 70
     1
102
RTVSPost2010Prop56
140
1.0
102
RTVSPost2010PropOp56
 70
     1
102
RTVSPost2010Prop57
140
1.0
102
RTVSPost2010PropOp57
 70
     1
102
RTVSPropertyOp0
 70
     1
102
RTVSPropertyOp1
 70
     1
102
RTVSPropertyOp2
 70
     1
102
RTVSPropertyOp3
 70
     1
102
RTVSPropertyOp4
 70
     1
102
RTVSPropertyOp5
 70
     1
102
RTVSPropertyOp6
 70
     1
102
RTVSPropertyOp7
 70
     1
102
RTVSPropertyOp8
 70
     1
102
RTVSPropertyOp9
 70
     1
102
RTVSPropertyOp10
 70
     1
102
RTVSPropertyOp11
 70
     1
102
RTVSPropertyOp12
 70
     1
102
RTVSPropertyOp13
 70
     1
102
RTVSPropertyOp14
 70
     1
102
RTVSPropertyOp15
 70
     1
102
RTVSPropertyOp16
 70
     1
102
RTVSPropertyOp17
 70
     1
102
RTVSPropertyOp18
 70
     1
102
RTVSPropertyOp19
 70
     1
102
RTVSPropertyOp20
 70
     1
102
RTVSPropertyOp21
 70
     1
102
RTVSPropertyOp22
 70
     1
102
RTVSPropertyOp23
 70
     1
102
RTVSPropertyOp24
 70
     1
102
RTVSPropertyOp25
 70
     1
102
RTVSPropertyOp26
 70
     1
102
RTVSPropertyOp27
 70
     1
102
RTVSPropertyOp28
 70
     1
102
RTVSPropertyOp29
 70
     1
102
RTVSPropertyOp30
 70
     1
102
RTVSPropertyOp31
 70
     1
102
RTVSPropertyOp32
 70
     1
102
RTVSPropertyOp33
 70
     1
102
RTVSPropertyOp34
 70
     1
102
RTVSPropertyOp35
 70
     1
102
RTVSPropertyOp36
 70
     1
102
RTVSPropertyOp37
 70
     1
102
RTVSPropertyOp38
 70
     1
102
RTVSPropertyOp39
 70
     1
102
RTVSPropertyOp40
 70
     1
102
RTVSPropertyOp41
 70
     1
102
RTVSPropertyOp42
 70
     1
102
RTVSPropertyOp43
 70
     1
102
RTVSPropertyOp44
 70
     1
102
RTVSPropertyOp45
 70
     1
102
RTVSPropertyOp46
 70
     1
102
RTVSPropertyOp47
 70
     1
102
RTVSPropertyOp48
 70
     1
102
RTVSPropertyOp49
 70
     1
102
RTVSPropertyOp50
 70
     1
102
RTVSPropertyOp51
 70
     0
102
RTVSPropertyOp52
 70
     0
102
RTVSPropertyOp53
 70
     1
102
RTVSPropertyOp54
 70
     1
102
RTVSPropertyOp55
 70
     1
102
RTVSPropertyOp56
 70
     1
102
RTVSPropertyOp57
 70
     1
102
RTVSPropertyOp58
 70
     1
102
RTVSPropertyOp59
 70
     1
102
RTVSPropertyOp60
 70
     1
102
RTVSPropertyOp61
 70
     1
102
RTVSPropertyOp62
 70
     1
  0
XRECORD
  5
13D43
102
{ACAD_REACTORS
330
13D42
102
}
330
13D42
100
AcDbXrecord
280
     1
102
RTVSPost2010Prop28
280
     0
102
RTVSPost2010PropOp28
 70
     1
102
RTVSPost2010Prop29
280
     1
102
RTVSPost2010PropOp29
 70
     1
102
RTVSPost2010Prop30
280
     1
102
RTVSPost2010PropOp30
 70
     1
102
RTVSPost2010Prop31
280
     0
102
RTVSPost2010PropOp31
 70
     1
102
RTVSPost2010Prop32
280
     0
102
RTVSPost2010PropOp32
 70
     1
102
RTVSPost2010Prop33
280
     0
102
RTVSPost2010PropOp33
 70
     1
102
RTVSPost2010Prop34
280
     0
102
RTVSPost2010PropOp34
 70
     1
102
RTVSPost2010Prop35
280
     0
102
RTVSPost2010PropOp35
 70
     1
102
RTVSPost2010Prop36
280
     0
102
RTVSPost2010PropOp36
 70
     1
102
RTVSPost2010Prop37
 90
       50
102
RTVSPost2010PropOp37
 70
     1
102
RTVSPost2010Prop38
140
0.0
102
RTVSPost2010PropOp38
 70
     1
102
RTVSPost2010Prop39
140
1.0
102
RTVSPost2010PropOp39
 70
     1
102
RTVSPost2010Prop40
 90
        0
102
RTVSPost2010PropOp40
 70
     1
102
RTVSPost2010Prop41ColorIndex
 90
       18
102
RTVSPost2010Prop41ColorRGB
 90
        0
102
RTVSPost2010PropOp41
 70
     1
102
RTVSPost2010Prop42
 90
       50
102
RTVSPost2010PropOp42
 70
     1
102
RTVSPost2010Prop43
 90
        3
102
RTVSPost2010PropOp43
 70
     1
102
RTVSPost2010Prop44ColorIndex
 90
        5
102
RTVSPost2010Prop44ColorRGB
 90
      255
102
RTVSPost2010PropOp44
 70
     1
102
RTVSPost2010Prop45
280
     0
102
RTVSPost2010PropOp45
 70
     1
102
RTVSPost2010Prop46
 90
       50
102
RTVSPost2010PropOp46
 70
     1
102
RTVSPost2010Prop47
 90
       50
102
RTVSPost2010PropOp47
 70
     1
102
RTVSPost2010Prop48
 90
       50
102
RTVSPost2010PropOp48
 70
     1
102
RTVSPost2010Prop49
280
     0
102
RTVSPost2010PropOp49
 70
     1
102
RTVSPost2010Prop50
 90
       50
102
RTVSPost2010PropOp50
 70
     1
102
RTVSPost2010Prop51ColorIndex
 90
      256
102
RTVSPost2010Prop51ColorRGB
 90
-16777216
102
RTVSPost2010PropOp51
 70
     0
102
RTVSPost2010Prop52
140
1.0
102
RTVSPost2010PropOp52
 70
     0
102
RTVSPost2010Prop53
 90
        2
102
RTVSPost2010PropOp53
 70
     1
102
RTVSPost2010Prop54
  1
strokes_ogs.tif
102
RTVSPost2010PropOp54
 70
     1
102
RTVSPost2010Prop55
280
     0
102
RTVSPost2010PropOp55
 70
     1
102
RTVSPost2010Prop56
140
1.0
102
RTVSPost2010PropOp56
 70
     1
102
RTVSPost2010Prop57
140
1.0
102
RTVSPost2010PropOp57
 70
     1
102
RTVSPropertyOp0
 70
     1
102
RTVSPropertyOp1
 70
     1
102
RTVSPropertyOp2
 70
     1
102
RTVSPropertyOp3
 70
     1
102
RTVSPropertyOp4
 70
     1
102
RTVSPropertyOp5
 70
     1
102
RTVSPropertyOp6
 70
     1
102
RTVSPropertyOp7
 70
     1
102
RTVSPropertyOp8
 70
     1
102
RTVSPropertyOp9
 70
     1
102
RTVSPropertyOp10
 70
     1
102
RTVSPropertyOp11
 70
     1
102
RTVSPropertyOp12
 70
     1
102
RTVSPropertyOp13
 70
     1
102
RTVSPropertyOp14
 70
     1
102
RTVSPropertyOp15
 70
     1
102
RTVSPropertyOp16
 70
     1
102
RTVSPropertyOp17
 70
     1
102
RTVSPropertyOp18
 70
     1
102
RTVSPropertyOp19
 70
     1
102
RTVSPropertyOp20
 70
     1
102
RTVSPropertyOp21
 70
     1
102
RTVSPropertyOp22
 70
     1
102
RTVSPropertyOp23
 70
     1
102
RTVSPropertyOp24
 70
     1
102
RTVSPropertyOp25
 70
     1
102
RTVSPropertyOp26
 70
     1
102
RTVSPropertyOp27
 70
     1
102
RTVSPropertyOp28
 70
     1
102
RTVSPropertyOp29
 70
     1
102
RTVSPropertyOp30
 70
     1
102
RTVSPropertyOp31
 70
     1
102
RTVSPropertyOp32
 70
     1
102
RTVSPropertyOp33
 70
     1
102
RTVSPropertyOp34
 70
     1
102
RTVSPropertyOp35
 70
     1
102
RTVSPropertyOp36
 70
     1
102
RTVSPropertyOp37
 70
     1
102
RTVSPropertyOp38
 70
     1
102
RTVSPropertyOp39
 70
     1
102
RTVSPropertyOp40
 70
     1
102
RTVSPropertyOp41
 70
     1
102
RTVSPropertyOp42
 70
     1
102
RTVSPropertyOp43
 70
     1
102
RTVSPropertyOp44
 70
     1
102
RTVSPropertyOp45
 70
     1
102
RTVSPropertyOp46
 70
     1
102
RTVSPropertyOp47
 70
     1
102
RTVSPropertyOp48
 70
     1
102
RTVSPropertyOp49
 70
     1
102
RTVSPropertyOp50
 70
     1
102
RTVSPropertyOp51
 70
     0
102
RTVSPropertyOp52
 70
     0
102
RTVSPropertyOp53
 70
     1
102
RTVSPropertyOp54
 70
     1
102
RTVSPropertyOp55
 70
     1
102
RTVSPropertyOp56
 70
     1
102
RTVSPropertyOp57
 70
     1
102
RTVSPropertyOp58
 70
     1
102
RTVSPropertyOp59
 70
     1
102
RTVSPropertyOp60
 70
     1
102
RTVSPropertyOp61
 70
     1
102
RTVSPropertyOp62
 70
     1
  0
ENDSEC
  0
EOF
