ISO-10303-21;
HEADER;
/****************************************************************
 * Generated by software with PDE/Lib inside                    *
 * PDElib Version 4.4.1-0003, patched  Thursday August 19 11:58 *
 * International Technegroup Inc. (www.iti-oh.com)              *
 ****************************************************************/
FILE_DESCRIPTION((''),'2;1');
FILE_NAME('','2005-12-15T09:57:20',(''),(''),'','CADfix','');
FILE_SCHEMA(('AUTOMOTIVE_DESIGN'));
ENDSEC;
DATA;
#5=APPLICATION_CONTEXT('automotive design');
#6=APPLICATION_PROTOCOL_DEFINITION('Draft International Standard','automotive_design',1998,#5);
#7=PRODUCT_CONTEXT('None',#5,'mechanical');
#8=PRODUCT('rubber foam','','None',(#7));
#9=PRODUCT_RELATED_PRODUCT_CATEGORY('part','description',(#8));
#10=PRODUCT_DEFINITION_FORMATION('None','None',#8);
#11=PRODUCT_DEFINITION_CONTEXT('part definition',#5,'design');
#12=PRODUCT_DEFINITION('None','None',#10,#11);
#18=(NAMED_UNIT(*)PLANE_ANGLE_UNIT()SI_UNIT($,.RADIAN.));
#19=DIMENSIONAL_EXPONENTS(0.0,0.0,0.0,0.0,0.0,0.0,0.0);
#20=PLANE_ANGLE_MEASURE_WITH_UNIT(PLANE_ANGLE_MEASURE(0.017453292500000),#18);
#24=(CONVERSION_BASED_UNIT('DEGREE',#20)NAMED_UNIT(#19)PLANE_ANGLE_UNIT());
#28=(NAMED_UNIT(*)SI_UNIT($,.STERADIAN.)SOLID_ANGLE_UNIT());
#32=(LENGTH_UNIT()NAMED_UNIT(*)SI_UNIT(.MILLI.,.METRE.));
#34=UNCERTAINTY_MEASURE_WITH_UNIT(LENGTH_MEASURE(0.001000000000000),#32,'DISTANCE_ACCURACY_VALUE','');
#36=(GEOMETRIC_REPRESENTATION_CONTEXT(3)GLOBAL_UNCERTAINTY_ASSIGNED_CONTEXT((#34))GLOBAL_UNIT_ASSIGNED_CONTEXT((#24,#28,#32))REPRESENTATION_CONTEXT('None','None'));
#37=AXIS2_PLACEMENT_3D('',#38,#39,#40);
#38=CARTESIAN_POINT('',(0.0,0.0,0.0));
#39=DIRECTION('',(0.0,0.0,1.0));
#40=DIRECTION('',(1.0,0.0,0.0));
#41=ADVANCED_BREP_SHAPE_REPRESENTATION('',(#37,#214),#36);
#42=PRODUCT_DEFINITION_SHAPE('','',#12);
#43=SHAPE_DEFINITION_REPRESENTATION(#42,#41);
#44=CARTESIAN_POINT('',(-0.749249970927090,0.0,12.599399976741250));
#45=CARTESIAN_POINT('',(15.749250373258439,0.0,12.599399976741250));
#46=CARTESIAN_POINT('',(-0.749249970927090,0.0,-0.599400298606734));
#47=CARTESIAN_POINT('',(15.749250373258439,0.0,-0.599400298606734));
#48=B_SPLINE_SURFACE_WITH_KNOTS('',1,1,((#44,#46),(#45,#47)),.UNSPECIFIED.,.F.,.F.,.U.,(2,2),(2,2),(0.0,16.498500344185530),(0.0,13.198800275347990),.UNSPECIFIED.);
#49=CARTESIAN_POINT('',(15.0,0.0,4.500000000000000));
#50=VERTEX_POINT('',#49);
#51=CARTESIAN_POINT('',(0.0,0.0,4.500000000000000));
#52=VERTEX_POINT('',#51);
#53=CARTESIAN_POINT('',(15.0,0.0,4.500000000000000));
#54=CARTESIAN_POINT('',(14.999999999999996,0.0,12.0));
#55=CARTESIAN_POINT('',(7.500000000000000,0.0,12.0));
#56=CARTESIAN_POINT('',(0.0,0.0,12.0));
#57=CARTESIAN_POINT('',(0.0,0.0,4.500000000000000));
#65=(BOUNDED_CURVE()B_SPLINE_CURVE(2,(#53,#54,#55,#56,#57),.UNSPECIFIED.,.F.,.U.)B_SPLINE_CURVE_WITH_KNOTS((3,2,3),(0.0,0.500000000000000,1.0),.UNSPECIFIED.)CURVE()GEOMETRIC_REPRESENTATION_ITEM()RATIONAL_B_SPLINE_CURVE((1.0,0.707106781186547,1.0,0.707106781186547,1.0))REPRESENTATION_ITEM(''));
#66=EDGE_CURVE('',#50,#52,#65,.T.);
#67=ORIENTED_EDGE('',*,*,#66,.T.);
#68=CARTESIAN_POINT('',(0.0,0.0,0.0));
#69=VERTEX_POINT('',#68);
#70=CARTESIAN_POINT('',(0.0,0.0,4.500000000000000));
#71=CARTESIAN_POINT('',(0.0,0.0,0.0));
#72=QUASI_UNIFORM_CURVE('',1,(#70,#71),.UNSPECIFIED.,.F.,.U.);
#73=EDGE_CURVE('',#52,#69,#72,.T.);
#74=ORIENTED_EDGE('',*,*,#73,.T.);
#75=CARTESIAN_POINT('',(15.0,0.0,0.0));
#76=VERTEX_POINT('',#75);
#77=CARTESIAN_POINT('',(0.0,0.0,0.0));
#78=CARTESIAN_POINT('',(15.0,0.0,0.0));
#79=QUASI_UNIFORM_CURVE('',1,(#77,#78),.UNSPECIFIED.,.F.,.U.);
#80=EDGE_CURVE('',#69,#76,#79,.T.);
#81=ORIENTED_EDGE('',*,*,#80,.T.);
#82=CARTESIAN_POINT('',(15.0,0.0,0.0));
#83=CARTESIAN_POINT('',(15.0,0.0,4.500000000000000));
#84=QUASI_UNIFORM_CURVE('',1,(#82,#83),.UNSPECIFIED.,.F.,.U.);
#85=EDGE_CURVE('',#76,#50,#84,.T.);
#86=ORIENTED_EDGE('',*,*,#85,.T.);
#87=EDGE_LOOP('',(#67,#74,#81,#86));
#88=FACE_OUTER_BOUND('',#87,.T.);
#89=ADVANCED_FACE('',(#88),#48,.F.);
#90=CARTESIAN_POINT('',(-0.749249970927090,200.0,12.599399976741250));
#91=CARTESIAN_POINT('',(15.749250373258439,200.0,12.599399976741250));
#92=CARTESIAN_POINT('',(-0.749249970927090,200.0,-0.599400298606734));
#93=CARTESIAN_POINT('',(15.749250373258439,200.0,-0.599400298606734));
#94=B_SPLINE_SURFACE_WITH_KNOTS('',1,1,((#90,#92),(#91,#93)),.UNSPECIFIED.,.F.,.F.,.U.,(2,2),(2,2),(0.0,16.498500344185530),(0.0,13.198800275347990),.UNSPECIFIED.);
#95=CARTESIAN_POINT('',(15.0,200.0,4.500000000000000));
#96=VERTEX_POINT('',#95);
#97=CARTESIAN_POINT('',(0.0,200.0,4.500000000000000));
#98=VERTEX_POINT('',#97);
#99=CARTESIAN_POINT('',(15.0,200.0,4.500000000000000));
#100=CARTESIAN_POINT('',(14.999999999999996,200.000000000000030,12.0));
#101=CARTESIAN_POINT('',(7.500000000000000,200.0,12.0));
#102=CARTESIAN_POINT('',(0.0,200.000000000000030,12.0));
#103=CARTESIAN_POINT('',(0.0,200.0,4.500000000000000));
#111=(BOUNDED_CURVE()B_SPLINE_CURVE(2,(#99,#100,#101,#102,#103),.UNSPECIFIED.,.F.,.U.)B_SPLINE_CURVE_WITH_KNOTS((3,2,3),(0.0,0.500000000000000,1.0),.UNSPECIFIED.)CURVE()GEOMETRIC_REPRESENTATION_ITEM()RATIONAL_B_SPLINE_CURVE((1.0,0.707106781186547,1.0,0.707106781186547,1.0))REPRESENTATION_ITEM(''));
#112=EDGE_CURVE('',#96,#98,#111,.T.);
#113=ORIENTED_EDGE('',*,*,#112,.F.);
#114=CARTESIAN_POINT('',(15.0,200.0,0.0));
#115=VERTEX_POINT('',#114);
#116=CARTESIAN_POINT('',(15.0,200.0,0.0));
#117=CARTESIAN_POINT('',(15.0,200.0,4.500000000000000));
#118=QUASI_UNIFORM_CURVE('',1,(#116,#117),.UNSPECIFIED.,.F.,.U.);
#119=EDGE_CURVE('',#115,#96,#118,.T.);
#120=ORIENTED_EDGE('',*,*,#119,.F.);
#121=CARTESIAN_POINT('',(0.0,200.0,0.0));
#122=VERTEX_POINT('',#121);
#123=CARTESIAN_POINT('',(0.0,200.0,0.0));
#124=CARTESIAN_POINT('',(15.0,200.0,0.0));
#125=QUASI_UNIFORM_CURVE('',1,(#123,#124),.UNSPECIFIED.,.F.,.U.);
#126=EDGE_CURVE('',#122,#115,#125,.T.);
#127=ORIENTED_EDGE('',*,*,#126,.F.);
#128=CARTESIAN_POINT('',(0.0,200.0,4.500000000000000));
#129=CARTESIAN_POINT('',(0.0,200.0,0.0));
#130=QUASI_UNIFORM_CURVE('',1,(#128,#129),.UNSPECIFIED.,.F.,.U.);
#131=EDGE_CURVE('',#98,#122,#130,.T.);
#132=ORIENTED_EDGE('',*,*,#131,.F.);
#133=EDGE_LOOP('',(#113,#120,#127,#132));
#134=FACE_OUTER_BOUND('',#133,.T.);
#135=ADVANCED_FACE('',(#134),#94,.T.);
#136=CARTESIAN_POINT('',(15.0,-9.989999612361194,4.724774991278127));
#137=CARTESIAN_POINT('',(15.0,-9.989999612361194,-0.224775111977533));
#138=CARTESIAN_POINT('',(15.0,209.990004976779200,4.724774991278127));
#139=CARTESIAN_POINT('',(15.0,209.990004976779200,-0.224775111977533));
#140=B_SPLINE_SURFACE_WITH_KNOTS('',1,1,((#136,#138),(#137,#139)),.UNSPECIFIED.,.F.,.F.,.U.,(2,2),(2,2),(0.0,4.949550103255660),(0.0,219.980004589140410),.UNSPECIFIED.);
#141=ORIENTED_EDGE('',*,*,#85,.F.);
#142=CARTESIAN_POINT('',(15.0,200.0,0.0));
#143=CARTESIAN_POINT('',(15.0,0.0,0.0));
#144=QUASI_UNIFORM_CURVE('',1,(#142,#143),.UNSPECIFIED.,.F.,.U.);
#145=EDGE_CURVE('',#115,#76,#144,.T.);
#146=ORIENTED_EDGE('',*,*,#145,.F.);
#147=ORIENTED_EDGE('',*,*,#119,.T.);
#148=CARTESIAN_POINT('',(15.0,200.0,4.500000000000000));
#149=CARTESIAN_POINT('',(15.0,0.0,4.500000000000000));
#150=QUASI_UNIFORM_CURVE('',1,(#148,#149),.UNSPECIFIED.,.F.,.U.);
#151=EDGE_CURVE('',#96,#50,#150,.T.);
#152=ORIENTED_EDGE('',*,*,#151,.T.);
#153=EDGE_LOOP('',(#141,#146,#147,#152));
#154=FACE_OUTER_BOUND('',#153,.T.);
#155=ADVANCED_FACE('',(#154),#140,.T.);
#156=CARTESIAN_POINT('',(15.749249970927091,-9.989999612361194,0.0));
#157=CARTESIAN_POINT('',(-0.749250373258442,-9.989999612361194,0.0));
#158=CARTESIAN_POINT('',(15.749249970927091,209.990004976779200,0.0));
#159=CARTESIAN_POINT('',(-0.749250373258442,209.990004976779200,0.0));
#160=B_SPLINE_SURFACE_WITH_KNOTS('',1,1,((#156,#158),(#157,#159)),.UNSPECIFIED.,.F.,.F.,.U.,(2,2),(2,2),(0.0,16.498500344185530),(0.0,219.980004589140410),.UNSPECIFIED.);
#161=ORIENTED_EDGE('',*,*,#80,.F.);
#162=CARTESIAN_POINT('',(0.0,200.0,0.0));
#163=CARTESIAN_POINT('',(0.0,0.0,0.0));
#164=QUASI_UNIFORM_CURVE('',1,(#162,#163),.UNSPECIFIED.,.F.,.U.);
#165=EDGE_CURVE('',#122,#69,#164,.T.);
#166=ORIENTED_EDGE('',*,*,#165,.F.);
#167=ORIENTED_EDGE('',*,*,#126,.T.);
#168=ORIENTED_EDGE('',*,*,#145,.T.);
#169=EDGE_LOOP('',(#161,#166,#167,#168));
#170=FACE_OUTER_BOUND('',#169,.T.);
#171=ADVANCED_FACE('',(#170),#160,.T.);
#172=CARTESIAN_POINT('',(0.0,-9.989999612361171,-0.224774991278127));
#173=CARTESIAN_POINT('',(0.0,-9.989999612361171,4.724775111977531));
#174=CARTESIAN_POINT('',(0.0,209.990004976779200,-0.224774991278127));
#175=CARTESIAN_POINT('',(0.0,209.990004976779200,4.724775111977531));
#176=B_SPLINE_SURFACE_WITH_KNOTS('',1,1,((#172,#174),(#173,#175)),.UNSPECIFIED.,.F.,.F.,.U.,(2,2),(2,2),(0.0,4.949550103255658),(0.0,219.980004589140410),.UNSPECIFIED.);
#177=ORIENTED_EDGE('',*,*,#73,.F.);
#178=CARTESIAN_POINT('',(0.0,200.0,4.500000000000000));
#179=CARTESIAN_POINT('',(0.0,0.0,4.500000000000000));
#180=QUASI_UNIFORM_CURVE('',1,(#178,#179),.UNSPECIFIED.,.F.,.U.);
#181=EDGE_CURVE('',#98,#52,#180,.T.);
#182=ORIENTED_EDGE('',*,*,#181,.F.);
#183=ORIENTED_EDGE('',*,*,#131,.T.);
#184=ORIENTED_EDGE('',*,*,#165,.T.);
#185=EDGE_LOOP('',(#177,#182,#183,#184));
#186=FACE_OUTER_BOUND('',#185,.T.);
#187=ADVANCED_FACE('',(#186),#176,.T.);
#188=CARTESIAN_POINT('',(0.002570062683323,205.0,4.303672887690941));
#189=CARTESIAN_POINT('',(0.002570062683323,-5.125000000000000,4.303672887690941));
#190=CARTESIAN_POINT('',(-0.204315546321767,205.000000000000030,12.204315546321748));
#191=CARTESIAN_POINT('',(-0.204315546321767,-5.124999999999999,12.204315546321748));
#192=CARTESIAN_POINT('',(7.696327112309039,205.0,11.997429937316680));
#193=CARTESIAN_POINT('',(7.696327112309039,-5.125000000000000,11.997429937316680));
#194=CARTESIAN_POINT('',(15.596969770939838,205.000000000000030,11.790544328311608));
#195=CARTESIAN_POINT('',(15.596969770939838,-5.124999999999999,11.790544328311608));
#196=CARTESIAN_POINT('',(14.976880002998460,205.0,3.911556782041173));
#197=CARTESIAN_POINT('',(14.976880002998460,-5.125000000000000,3.911556782041173));
#205=(BOUNDED_SURFACE()B_SPLINE_SURFACE(1,2,((#188,#190,#192,#194,#196),(#189,#191,#193,#195,#197)),.UNSPECIFIED.,.F.,.F.,.U.)B_SPLINE_SURFACE_WITH_KNOTS((2,2),(3,2,3),(0.0,210.125000000000110),(0.0,12.889017179005080,25.778034358010160),.UNSPECIFIED.)GEOMETRIC_REPRESENTATION_ITEM()RATIONAL_B_SPLINE_SURFACE(((1.0,0.688354575693754,1.0,0.688354575693754,1.0),(1.0,0.688354575693754,1.0,0.688354575693754,1.0)))REPRESENTATION_ITEM('')SURFACE());
#206=ORIENTED_EDGE('',*,*,#66,.F.);
#207=ORIENTED_EDGE('',*,*,#151,.F.);
#208=ORIENTED_EDGE('',*,*,#112,.T.);
#209=ORIENTED_EDGE('',*,*,#181,.T.);
#210=EDGE_LOOP('',(#206,#207,#208,#209));
#211=FACE_OUTER_BOUND('',#210,.T.);
#212=ADVANCED_FACE('',(#211),#205,.T.);
#213=CLOSED_SHELL('',(#89,#135,#155,#171,#187,#212));
#214=MANIFOLD_SOLID_BREP('rubber foam',#213);
#220=(NAMED_UNIT(*)PLANE_ANGLE_UNIT()SI_UNIT($,.RADIAN.));
#221=DIMENSIONAL_EXPONENTS(0.0,0.0,0.0,0.0,0.0,0.0,0.0);
#222=PLANE_ANGLE_MEASURE_WITH_UNIT(PLANE_ANGLE_MEASURE(0.017453292500000),#220);
#226=(CONVERSION_BASED_UNIT('DEGREE',#222)NAMED_UNIT(#221)PLANE_ANGLE_UNIT());
#230=(NAMED_UNIT(*)SI_UNIT($,.STERADIAN.)SOLID_ANGLE_UNIT());
#234=(LENGTH_UNIT()NAMED_UNIT(*)SI_UNIT(.MILLI.,.METRE.));
#236=UNCERTAINTY_MEASURE_WITH_UNIT(LENGTH_MEASURE(0.001000000000000),#234,'DISTANCE_ACCURACY_VALUE','');
#238=(GEOMETRIC_REPRESENTATION_CONTEXT(3)GLOBAL_UNCERTAINTY_ASSIGNED_CONTEXT((#236))GLOBAL_UNIT_ASSIGNED_CONTEXT((#226,#230,#234))REPRESENTATION_CONTEXT('','3D'));
ENDSEC;
END-ISO-10303-21;
