ISO-10303-21;
HEADER;
/****************************************************************
 * Generated by software with PDE/Lib inside                    *
 * PDElib Version 4.4.1-0003, patched  Thursday August 19 11:58 *
 * International Technegroup Inc. (www.iti-oh.com)              *
 ****************************************************************/
FILE_DESCRIPTION((''),'2;1');
FILE_NAME('','2005-12-15T10:01:25',(''),(''),'','CADfix','');
FILE_SCHEMA(('AUTOMOTIVE_DESIGN'));
ENDSEC;
DATA;
#5=APPLICATION_CONTEXT('automotive design');
#6=APPLICATION_PROTOCOL_DEFINITION('Draft International Standard','automotive_design',1998,#5);
#7=PRODUCT_CONTEXT('None',#5,'mechanical');
#8=PRODUCT('rubber foam','','None',(#7));
#9=PRODUCT_RELATED_PRODUCT_CATEGORY('part','description',(#8));
#10=PRODUCT_DEFINITION_FORMATION('None','None',#8);
#11=PRODUCT_DEFINITION_CONTEXT('part definition',#5,'design');
#12=PRODUCT_DEFINITION('None','None',#10,#11);
#18=(NAMED_UNIT(*)PLANE_ANGLE_UNIT()SI_UNIT($,.RADIAN.));
#19=DIMENSIONAL_EXPONENTS(0.0,0.0,0.0,0.0,0.0,0.0,0.0);
#20=PLANE_ANGLE_MEASURE_WITH_UNIT(PLANE_ANGLE_MEASURE(0.017453292500000),#18);
#24=(CONVERSION_BASED_UNIT('DEGREE',#20)NAMED_UNIT(#19)PLANE_ANGLE_UNIT());
#28=(NAMED_UNIT(*)SI_UNIT($,.STERADIAN.)SOLID_ANGLE_UNIT());
#32=(LENGTH_UNIT()NAMED_UNIT(*)SI_UNIT(.MILLI.,.METRE.));
#34=UNCERTAINTY_MEASURE_WITH_UNIT(LENGTH_MEASURE(0.001000000000000),#32,'DISTANCE_ACCURACY_VALUE','');
#36=(GEOMETRIC_REPRESENTATION_CONTEXT(3)GLOBAL_UNCERTAINTY_ASSIGNED_CONTEXT((#34))GLOBAL_UNIT_ASSIGNED_CONTEXT((#24,#28,#32))REPRESENTATION_CONTEXT('None','None'));
#37=AXIS2_PLACEMENT_3D('',#38,#39,#40);
#38=CARTESIAN_POINT('',(0.0,0.0,0.0));
#39=DIRECTION('',(0.0,0.0,1.0));
#40=DIRECTION('',(1.0,0.0,0.0));
#41=ADVANCED_BREP_SHAPE_REPRESENTATION('',(#37,#259),#36);
#42=PRODUCT_DEFINITION_SHAPE('','',#12);
#43=SHAPE_DEFINITION_REPRESENTATION(#42,#41);
#44=CARTESIAN_POINT('',(-6.443176043061190,205.000000000000090,0.863010714631282));
#45=CARTESIAN_POINT('',(-6.448885034523915,205.000000000000060,0.814981573552828));
#46=CARTESIAN_POINT('',(-6.476519500415936,205.0,0.582495736146855));
#47=CARTESIAN_POINT('',(-6.487876189742133,205.0,0.396815506976570));
#48=CARTESIAN_POINT('',(-6.884691696718703,205.000000000000090,-6.091060682765563));
#49=CARTESIAN_POINT('',(-0.396815506976570,205.0,-6.487876189742133));
#50=CARTESIAN_POINT('',(6.091060682765563,205.000000000000090,-6.884691696718703));
#51=CARTESIAN_POINT('',(6.490729980436059,204.999999999999970,-0.350156441571851));
#52=CARTESIAN_POINT('',(6.493566819240694,205.0,-0.303774537107099));
#53=CARTESIAN_POINT('',(-6.443176043061190,-5.125000000000001,0.863010714631282));
#54=CARTESIAN_POINT('',(-6.448885034523915,-5.125000000000001,0.814981573552828));
#55=CARTESIAN_POINT('',(-6.476519500415936,-5.125000000000000,0.582495736146855));
#56=CARTESIAN_POINT('',(-6.487876189742133,-5.125000000000000,0.396815506976570));
#57=CARTESIAN_POINT('',(-6.884691696718703,-5.125000000000001,-6.091060682765563));
#58=CARTESIAN_POINT('',(-0.396815506976570,-5.125000000000000,-6.487876189742133));
#59=CARTESIAN_POINT('',(6.091060682765563,-5.125000000000001,-6.884691696718703));
#60=CARTESIAN_POINT('',(6.490729980436059,-5.124999999999999,-0.350156441571851));
#61=CARTESIAN_POINT('',(6.493566819240694,-5.125000000000001,-0.303774537107099));
#69=(BOUNDED_SURFACE()B_SPLINE_SURFACE(2,1,((#44,#53),(#45,#54),(#46,#55),(#47,#56),(#48,#57),(#49,#58),(#50,#59),(#51,#60),(#52,#61)),.UNSPECIFIED.,.F.,.F.,.U.)B_SPLINE_SURFACE_WITH_KNOTS((3,1,2,2,1,3),(2,2),(0.0,0.109849489860775,0.540631594728794,11.310184216429260,22.079736838129730,22.189597395651099),(0.0,210.125000000000110),.UNSPECIFIED.)GEOMETRIC_REPRESENTATION_ITEM()RATIONAL_B_SPLINE_SURFACE(((0.972008778206265,0.972008778206265),(0.974757289500696,0.974757289500696),(0.988284271247462,0.988284271247462),(1.0,1.0),(0.707106781186548,0.707106781186548),(1.0,1.0),(0.707106781186548,0.707106781186548),(1.002987813277242,1.002987813277242),(1.005975626554484,1.005975626554484)))REPRESENTATION_ITEM('')SURFACE());
#70=CARTESIAN_POINT('',(-6.454561921339701,-9.086170E-015,0.767222525471926));
#71=VERTEX_POINT('',#70);
#72=CARTESIAN_POINT('',(0.0,0.0,-6.500000000000000));
#73=VERTEX_POINT('',#72);
#74=CARTESIAN_POINT('',(-6.454561921339701,-9.086170E-015,0.767222525471926));
#75=CARTESIAN_POINT('',(-6.500000000000001,0.0,0.384956777942557));
#76=CARTESIAN_POINT('',(-6.500000000000000,0.0,0.0));
#77=CARTESIAN_POINT('',(-6.500000000000000,0.0,-6.500000000000000));
#78=CARTESIAN_POINT('',(0.0,0.0,-6.500000000000000));
#86=(BOUNDED_CURVE()B_SPLINE_CURVE(2,(#74,#75,#76,#77,#78),.UNSPECIFIED.,.F.,.U.)B_SPLINE_CURVE_WITH_KNOTS((3,2,3),(0.229562473505014,0.250000000000000,0.500000000000000),.UNSPECIFIED.)CURVE()GEOMETRIC_REPRESENTATION_ITEM()RATIONAL_B_SPLINE_CURVE((0.956026754167050,0.976055948321193,1.0,0.707106781186547,1.0))REPRESENTATION_ITEM(''));
#87=EDGE_CURVE('',#71,#73,#86,.T.);
#88=ORIENTED_EDGE('',*,*,#87,.F.);
#89=CARTESIAN_POINT('',(-6.454561921339701,200.0,0.767222525471926));
#90=VERTEX_POINT('',#89);
#91=CARTESIAN_POINT('',(-6.454561921339701,200.0,0.767222525471926));
#92=CARTESIAN_POINT('',(-6.454561921339701,-9.086170E-015,0.767222525471926));
#93=QUASI_UNIFORM_CURVE('',1,(#91,#92),.UNSPECIFIED.,.F.,.U.);
#94=EDGE_CURVE('',#90,#71,#93,.T.);
#95=ORIENTED_EDGE('',*,*,#94,.F.);
#96=CARTESIAN_POINT('',(0.0,200.0,-6.500000000000000));
#97=VERTEX_POINT('',#96);
#98=CARTESIAN_POINT('',(-6.454561921339701,200.0,0.767222525471926));
#99=CARTESIAN_POINT('',(-6.500000000000001,200.000000000000060,0.384956777942557));
#100=CARTESIAN_POINT('',(-6.500000000000000,200.0,0.0));
#101=CARTESIAN_POINT('',(-6.500000000000000,200.000000000000030,-6.500000000000000));
#102=CARTESIAN_POINT('',(0.0,200.0,-6.500000000000000));
#110=(BOUNDED_CURVE()B_SPLINE_CURVE(2,(#98,#99,#100,#101,#102),.UNSPECIFIED.,.F.,.U.)B_SPLINE_CURVE_WITH_KNOTS((3,2,3),(0.229562473505014,0.250000000000000,0.500000000000000),.UNSPECIFIED.)CURVE()GEOMETRIC_REPRESENTATION_ITEM()RATIONAL_B_SPLINE_CURVE((0.956026754167050,0.976055948321193,1.0,0.707106781186547,1.0))REPRESENTATION_ITEM(''));
#111=EDGE_CURVE('',#90,#97,#110,.T.);
#112=ORIENTED_EDGE('',*,*,#111,.T.);
#113=CARTESIAN_POINT('',(6.487876759365870,200.0,-0.396806193491411));
#114=VERTEX_POINT('',#113);
#115=CARTESIAN_POINT('',(0.0,200.0,-6.500000000000000));
#116=CARTESIAN_POINT('',(6.114598228918845,200.000000000000030,-6.500000000000000));
#117=CARTESIAN_POINT('',(6.487876759365870,200.000000000000030,-0.396806193491411));
#125=(BOUNDED_CURVE()B_SPLINE_CURVE(2,(#115,#116,#117),.UNSPECIFIED.,.F.,.U.)B_SPLINE_CURVE_WITH_KNOTS((3,3),(0.500000000000000,0.739333209936625),.UNSPECIFIED.)CURVE()GEOMETRIC_REPRESENTATION_ITEM()RATIONAL_B_SPLINE_CURVE((1.0,0.719603703090825,0.976072572530575))REPRESENTATION_ITEM(''));
#126=EDGE_CURVE('',#97,#114,#125,.T.);
#127=ORIENTED_EDGE('',*,*,#126,.T.);
#128=CARTESIAN_POINT('',(6.487876766456331,1.421085E-014,-0.396806077557893));
#129=VERTEX_POINT('',#128);
#130=CARTESIAN_POINT('',(6.487876759365870,200.0,-0.396806193491411));
#131=CARTESIAN_POINT('',(6.487876766456331,1.421085E-014,-0.396806077557893));
#132=QUASI_UNIFORM_CURVE('',1,(#130,#131),.UNSPECIFIED.,.F.,.U.);
#133=EDGE_CURVE('',#114,#129,#132,.T.);
#134=ORIENTED_EDGE('',*,*,#133,.T.);
#135=CARTESIAN_POINT('',(0.0,0.0,-6.500000000000000));
#136=CARTESIAN_POINT('',(6.114598338386315,0.0,-6.500000000000001));
#137=CARTESIAN_POINT('',(6.487876766456331,1.421085E-014,-0.396806077557894));
#145=(BOUNDED_CURVE()B_SPLINE_CURVE(2,(#135,#136,#137),.UNSPECIFIED.,.F.,.U.)B_SPLINE_CURVE_WITH_KNOTS((3,3),(0.500000000000000,0.739333213019908),.UNSPECIFIED.)CURVE()GEOMETRIC_REPRESENTATION_ITEM()RATIONAL_B_SPLINE_CURVE((1.0,0.719603699478533,0.976072579138654))REPRESENTATION_ITEM(''));
#146=EDGE_CURVE('',#73,#129,#145,.T.);
#147=ORIENTED_EDGE('',*,*,#146,.F.);
#148=EDGE_LOOP('',(#88,#95,#112,#127,#134,#147));
#149=FACE_OUTER_BOUND('',#148,.T.);
#150=ADVANCED_FACE('',(#149),#69,.T.);
#151=CARTESIAN_POINT('',(6.487876189742133,205.0,-0.396815506976570));
#152=CARTESIAN_POINT('',(6.884691696718703,205.000000000000090,6.091060682765563));
#153=CARTESIAN_POINT('',(0.396815506976570,205.0,6.487876189742133));
#154=CARTESIAN_POINT('',(-5.730032690456756,205.000000000000060,6.862610278761427));
#155=CARTESIAN_POINT('',(-6.454561921363831,205.000000000000030,0.767222525268930));
#156=CARTESIAN_POINT('',(6.487876189742133,-5.125000000000000,-0.396815506976570));
#157=CARTESIAN_POINT('',(6.884691696718703,-5.125000000000001,6.091060682765563));
#158=CARTESIAN_POINT('',(0.396815506976570,-5.125000000000000,6.487876189742133));
#159=CARTESIAN_POINT('',(-5.730032690456756,-5.124999999999999,6.862610278761427));
#160=CARTESIAN_POINT('',(-6.454561921363831,-5.125000000000001,0.767222525268930));
#168=(BOUNDED_SURFACE()B_SPLINE_SURFACE(2,1,((#151,#156),(#152,#157),(#153,#158),(#154,#159),(#155,#160)),.UNSPECIFIED.,.F.,.F.,.U.)B_SPLINE_SURFACE_WITH_KNOTS((3,2,3),(2,2),(0.0,10.769552621700470,21.108323138532921),(0.0,210.125000000000110),.UNSPECIFIED.)GEOMETRIC_REPRESENTATION_ITEM()RATIONAL_B_SPLINE_SURFACE(((1.0,1.0),(0.707106781186548,0.707106781186548),(1.0,1.0),(0.718822509939086,0.718822509939086),(0.977505800795127,0.977505800795127)))REPRESENTATION_ITEM('')SURFACE());
#169=CARTESIAN_POINT('',(0.0,0.0,6.500000000000000));
#170=VERTEX_POINT('',#169);
#171=CARTESIAN_POINT('',(0.0,0.0,6.500000000000000));
#172=CARTESIAN_POINT('',(-5.773134418318204,0.0,6.499999999999999));
#173=CARTESIAN_POINT('',(-6.454561921339701,-9.086170E-015,0.767222525471926));
#181=(BOUNDED_CURVE()B_SPLINE_CURVE(2,(#171,#172,#173),.UNSPECIFIED.,.F.,.U.)B_SPLINE_CURVE_WITH_KNOTS((3,3),(0.0,0.229562473505014),.UNSPECIFIED.)CURVE()GEOMETRIC_REPRESENTATION_ITEM()RATIONAL_B_SPLINE_CURVE((1.0,0.731050832865354,0.956026754167050))REPRESENTATION_ITEM(''));
#182=EDGE_CURVE('',#170,#71,#181,.T.);
#183=ORIENTED_EDGE('',*,*,#182,.F.);
#184=CARTESIAN_POINT('',(6.487876766456331,1.421085E-014,-0.396806077557894));
#185=CARTESIAN_POINT('',(6.500000000000001,0.0,-0.198588233512428));
#186=CARTESIAN_POINT('',(6.500000000000000,0.0,0.0));
#187=CARTESIAN_POINT('',(6.500000000000000,0.0,6.500000000000000));
#188=CARTESIAN_POINT('',(0.0,0.0,6.500000000000000));
#196=(BOUNDED_CURVE()B_SPLINE_CURVE(2,(#184,#185,#186,#187,#188),.UNSPECIFIED.,.F.,.U.)B_SPLINE_CURVE_WITH_KNOTS((3,2,3),(0.739333213019908,0.750000000000000,1.0),.UNSPECIFIED.)CURVE()GEOMETRIC_REPRESENTATION_ITEM()RATIONAL_B_SPLINE_CURVE((0.976072579138654,0.987503081708014,1.0,0.707106781186547,1.0))REPRESENTATION_ITEM(''));
#197=EDGE_CURVE('',#129,#170,#196,.T.);
#198=ORIENTED_EDGE('',*,*,#197,.F.);
#199=ORIENTED_EDGE('',*,*,#133,.F.);
#200=CARTESIAN_POINT('',(0.0,200.0,6.500000000000000));
#201=VERTEX_POINT('',#200);
#202=CARTESIAN_POINT('',(6.487876759365870,200.000000000000030,-0.396806193491411));
#203=CARTESIAN_POINT('',(6.500000000000002,200.0,-0.198588291641708));
#204=CARTESIAN_POINT('',(6.500000000000000,200.0,0.0));
#205=CARTESIAN_POINT('',(6.500000000000000,200.000000000000030,6.500000000000000));
#206=CARTESIAN_POINT('',(0.0,200.0,6.500000000000000));
#214=(BOUNDED_CURVE()B_SPLINE_CURVE(2,(#202,#203,#204,#205,#206),.UNSPECIFIED.,.F.,.U.)B_SPLINE_CURVE_WITH_KNOTS((3,2,3),(0.739333209936625,0.750000000000000,1.0),.UNSPECIFIED.)CURVE()GEOMETRIC_REPRESENTATION_ITEM()RATIONAL_B_SPLINE_CURVE((0.976072572530575,0.987503078095722,1.0,0.707106781186547,1.0))REPRESENTATION_ITEM(''));
#215=EDGE_CURVE('',#114,#201,#214,.T.);
#216=ORIENTED_EDGE('',*,*,#215,.T.);
#217=CARTESIAN_POINT('',(0.0,200.0,6.500000000000000));
#218=CARTESIAN_POINT('',(-5.773134418318204,199.999999999999940,6.499999999999999));
#219=CARTESIAN_POINT('',(-6.454561921339701,200.0,0.767222525471926));
#227=(BOUNDED_CURVE()B_SPLINE_CURVE(2,(#217,#218,#219),.UNSPECIFIED.,.F.,.U.)B_SPLINE_CURVE_WITH_KNOTS((3,3),(0.0,0.229562473505014),.UNSPECIFIED.)CURVE()GEOMETRIC_REPRESENTATION_ITEM()RATIONAL_B_SPLINE_CURVE((1.0,0.731050832865354,0.956026754167050))REPRESENTATION_ITEM(''));
#228=EDGE_CURVE('',#201,#90,#227,.T.);
#229=ORIENTED_EDGE('',*,*,#228,.T.);
#230=ORIENTED_EDGE('',*,*,#94,.T.);
#231=EDGE_LOOP('',(#183,#198,#199,#216,#229,#230));
#232=FACE_OUTER_BOUND('',#231,.T.);
#233=ADVANCED_FACE('',(#232),#168,.T.);
#234=CARTESIAN_POINT('',(-7.149232119480242,0.0,7.149349974803477));
#235=CARTESIAN_POINT('',(7.149191787997355,0.0,7.149349974803477));
#236=CARTESIAN_POINT('',(-7.149232119480242,0.0,-7.149350323490650));
#237=CARTESIAN_POINT('',(7.149191787997355,0.0,-7.149350323490650));
#238=B_SPLINE_SURFACE_WITH_KNOTS('',1,1,((#234,#236),(#235,#237)),.UNSPECIFIED.,.F.,.F.,.U.,(2,2),(2,2),(0.0,14.298423907477600),(0.0,14.298700298294129),.UNSPECIFIED.);
#239=ORIENTED_EDGE('',*,*,#182,.T.);
#240=ORIENTED_EDGE('',*,*,#87,.T.);
#241=ORIENTED_EDGE('',*,*,#146,.T.);
#242=ORIENTED_EDGE('',*,*,#197,.T.);
#243=EDGE_LOOP('',(#239,#240,#241,#242));
#244=FACE_OUTER_BOUND('',#243,.T.);
#245=ADVANCED_FACE('',(#244),#238,.F.);
#246=CARTESIAN_POINT('',(-7.149232119480242,200.0,7.149349974803477));
#247=CARTESIAN_POINT('',(7.149191787997355,200.0,7.149349974803477));
#248=CARTESIAN_POINT('',(-7.149232119480242,200.0,-7.149350323490650));
#249=CARTESIAN_POINT('',(7.149191787997355,200.0,-7.149350323490650));
#250=B_SPLINE_SURFACE_WITH_KNOTS('',1,1,((#246,#248),(#247,#249)),.UNSPECIFIED.,.F.,.F.,.U.,(2,2),(2,2),(0.0,14.298423907477600),(0.0,14.298700298294129),.UNSPECIFIED.);
#251=ORIENTED_EDGE('',*,*,#215,.F.);
#252=ORIENTED_EDGE('',*,*,#126,.F.);
#253=ORIENTED_EDGE('',*,*,#111,.F.);
#254=ORIENTED_EDGE('',*,*,#228,.F.);
#255=EDGE_LOOP('',(#251,#252,#253,#254));
#256=FACE_OUTER_BOUND('',#255,.T.);
#257=ADVANCED_FACE('',(#256),#250,.T.);
#258=CLOSED_SHELL('',(#150,#233,#245,#257));
#259=MANIFOLD_SOLID_BREP('rubber foam',#258);
#265=(NAMED_UNIT(*)PLANE_ANGLE_UNIT()SI_UNIT($,.RADIAN.));
#266=DIMENSIONAL_EXPONENTS(0.0,0.0,0.0,0.0,0.0,0.0,0.0);
#267=PLANE_ANGLE_MEASURE_WITH_UNIT(PLANE_ANGLE_MEASURE(0.017453292500000),#265);
#271=(CONVERSION_BASED_UNIT('DEGREE',#267)NAMED_UNIT(#266)PLANE_ANGLE_UNIT());
#275=(NAMED_UNIT(*)SI_UNIT($,.STERADIAN.)SOLID_ANGLE_UNIT());
#279=(LENGTH_UNIT()NAMED_UNIT(*)SI_UNIT(.MILLI.,.METRE.));
#281=UNCERTAINTY_MEASURE_WITH_UNIT(LENGTH_MEASURE(0.001000000000000),#279,'DISTANCE_ACCURACY_VALUE','');
#283=(GEOMETRIC_REPRESENTATION_CONTEXT(3)GLOBAL_UNCERTAINTY_ASSIGNED_CONTEXT((#281))GLOBAL_UNIT_ASSIGNED_CONTEXT((#271,#275,#279))REPRESENTATION_CONTEXT('','3D'));
ENDSEC;
END-ISO-10303-21;
